  0
SECTION
  2
HEADER
  9
$ACADVER
  1
AC1014
  9
$ACADMAINTVER
 70
     9
  9
$DWGCODEPAGE
  3
ANSI_1252
  9
$INSBASE
 10
0.0
 20
0.0
 30
0.0
  9
$EXTMIN
 10
-0.8016233252198141
 20
-0.2858245087565183
 30
0.0
  9
$EXTMAX
 10
2.683595996527314
 20
1.953128634784508
 30
0.0
  9
$LIMMIN
 10
0.0
 20
0.0
  9
$LIMMAX
 10
8.5
 20
11.0
  9
$ORTHOMODE
 70
     0
  9
$REGENMODE
 70
     1
  9
$FILLMODE
 70
     1
  9
$QTEXTMODE
 70
     0
  9
$MIRRTEXT
 70
     0
  9
$DRAGMODE
 70
     2
  9
$LTSCALE
 40
1.0
  9
$OSMODE
 70
    39
  9
$ATTMODE
 70
     1
  9
$TEXTSIZE
 40
0.125
  9
$TRACEWID
 40
0.05
  9
$TEXTSTYLE
  7
ROMANS
  9
$CLAYER
  8
0
  9
$CELTYPE
  6
BYLAYER
  9
$CECOLOR
 62
   256
  9
$CELTSCALE
 40
1.0
  9
$DELOBJ
 70
     1
  9
$DISPSILH
 70
     1
  9
$DIMSCALE
 40
1.0
  9
$DIMASZ
 40
0.125
  9
$DIMEXO
 40
0.125
  9
$DIMDLI
 40
0.375
  9
$DIMRND
 40
0.0
  9
$DIMDLE
 40
0.0
  9
$DIMEXE
 40
0.125
  9
$DIMTP
 40
0.0
  9
$DIMTM
 40
0.0
  9
$DIMTXT
 40
0.125
  9
$DIMCEN
 40
-0.125
  9
$DIMTSZ
 40
0.0
  9
$DIMTOL
 70
     0
  9
$DIMLIM
 70
     0
  9
$DIMTIH
 70
     1
  9
$DIMTOH
 70
     1
  9
$DIMSE1
 70
     0
  9
$DIMSE2
 70
     0
  9
$DIMTAD
 70
     0
  9
$DIMZIN
 70
     4
  9
$DIMBLK
  1

  9
$DIMASO
 70
     1
  9
$DIMSHO
 70
     1
  9
$DIMPOST
  1

  9
$DIMAPOST
  1

  9
$DIMALT
 70
     0
  9
$DIMALTD
 70
     2
  9
$DIMALTF
 40
25.4
  9
$DIMLFAC
 40
1.0
  9
$DIMTOFL
 70
     0
  9
$DIMTVP
 40
0.0
  9
$DIMTIX
 70
     0
  9
$DIMSOXD
 70
     0
  9
$DIMSAH
 70
     0
  9
$DIMBLK1
  1

  9
$DIMBLK2
  1

  9
$DIMSTYLE
  2
STANDARD
  9
$DIMCLRD
 70
     0
  9
$DIMCLRE
 70
     0
  9
$DIMCLRT
 70
     0
  9
$DIMTFAC
 40
1.0
  9
$DIMGAP
 40
0.09
  9
$DIMJUST
 70
     0
  9
$DIMSD1
 70
     0
  9
$DIMSD2
 70
     0
  9
$DIMTOLJ
 70
     1
  9
$DIMTZIN
 70
     0
  9
$DIMALTZ
 70
     0
  9
$DIMALTTZ
 70
     0
  9
$DIMFIT
 70
     3
  9
$DIMUPT
 70
     0
  9
$DIMUNIT
 70
     2
  9
$DIMDEC
 70
     3
  9
$DIMTDEC
 70
     4
  9
$DIMALTU
 70
     2
  9
$DIMALTTD
 70
     2
  9
$DIMTXSTY
  7
ROMANS
  9
$DIMAUNIT
 70
     0
  9
$LUNITS
 70
     2
  9
$LUPREC
 70
     4
  9
$SKETCHINC
 40
0.1
  9
$FILLETRAD
 40
0.03125
  9
$AUNITS
 70
     0
  9
$AUPREC
 70
     0
  9
$MENU
  1
AUTOMSTR
  9
$ELEVATION
 40
0.0
  9
$PELEVATION
 40
0.0
  9
$THICKNESS
 40
0.0
  9
$LIMCHECK
 70
     0
  9
$BLIPMODE
 70
     0
  9
$CHAMFERA
 40
0.0
  9
$CHAMFERB
 40
0.0
  9
$CHAMFERC
 40
0.0
  9
$CHAMFERD
 40
0.0
  9
$SKPOLY
 70
     0
  9
$TDCREATE
 40
2448271.540522685
  9
$TDUPDATE
 40
2452458.296604131
  9
$TDINDWG
 40
0.0179348958
  9
$TDUSRTIMER
 40
0.0179348958
  9
$USRTIMER
 70
     1
  9
$ANGBASE
 50
0.0
  9
$ANGDIR
 70
     0
  9
$PDMODE
 70
     0
  9
$PDSIZE
 40
0.0
  9
$PLINEWID
 40
0.0
  9
$COORDS
 70
     2
  9
$SPLFRAME
 70
     0
  9
$SPLINETYPE
 70
     6
  9
$SPLINESEGS
 70
     8
  9
$ATTDIA
 70
     0
  9
$ATTREQ
 70
     1
  9
$HANDLING
 70
 22529
  9
$HANDSEED
  5
4DF
  9
$SURFTAB1
 70
     6
  9
$SURFTAB2
 70
     6
  9
$SURFTYPE
 70
     6
  9
$SURFU
 70
     6
  9
$SURFV
 70
     6
  9
$UCSNAME
  2

  9
$UCSORG
 10
0.0
 20
0.0
 30
0.0
  9
$UCSXDIR
 10
1.0
 20
0.0
 30
0.0
  9
$UCSYDIR
 10
0.0
 20
1.0
 30
0.0
  9
$PUCSNAME
  2

  9
$PUCSORG
 10
0.0
 20
0.0
 30
0.0
  9
$PUCSXDIR
 10
1.0
 20
0.0
 30
0.0
  9
$PUCSYDIR
 10
0.0
 20
1.0
 30
0.0
  9
$USERI1
 70
     0
  9
$USERI2
 70
     0
  9
$USERI3
 70
     0
  9
$USERI4
 70
     0
  9
$USERI5
 70
     0
  9
$USERR1
 40
0.0
  9
$USERR2
 40
0.0
  9
$USERR3
 40
0.0
  9
$USERR4
 40
0.0
  9
$USERR5
 40
0.0
  9
$WORLDVIEW
 70
     1
  9
$SHADEDGE
 70
     3
  9
$SHADEDIF
 70
    70
  9
$TILEMODE
 70
     1
  9
$MAXACTVP
 70
    16
  9
$PINSBASE
 10
0.0
 20
0.0
 30
0.0
  9
$PLIMCHECK
 70
     0
  9
$PEXTMIN
 10
1.000000000000000E+20
 20
1.000000000000000E+20
 30
1.000000000000000E+20
  9
$PEXTMAX
 10
-1.000000000000000E+20
 20
-1.000000000000000E+20
 30
-1.000000000000000E+20
  9
$PLIMMIN
 10
0.0
 20
0.0
  9
$PLIMMAX
 10
12.0
 20
9.0
  9
$UNITMODE
 70
     0
  9
$VISRETAIN
 70
     0
  9
$PLINEGEN
 70
     1
  9
$PSLTSCALE
 70
     0
  9
$TREEDEPTH
 70
  3020
  9
$PICKSTYLE
 70
     1
  9
$CMLSTYLE
  2
STANDARD
  9
$CMLJUST
 70
     0
  9
$CMLSCALE
 40
1.0
  9
$PROXYGRAPHICS
 70
     1
  9
$MEASUREMENT
 70
     0
  0
ENDSEC
  0
SECTION
  2
CLASSES
  0
CLASS
  1
LWPOLYLINE
  2
AcDbPolyline
  3
AutoCAD 2000
 90
        0
280
     0
281
     1
  0
CLASS
  1
ACDBDICTIONARYWDFLT
  2
AcDbDictionaryWithDefault
  3
AutoCAD 2000
 90
        0
280
     0
281
     0
  0
CLASS
  1
ACDBPLACEHOLDER
  2
AcDbPlaceHolder
  3
AutoCAD 2000
 90
        0
280
     0
281
     0
  0
CLASS
  1
LAYOUT
  2
AcDbLayout
  3
AutoCAD 2000
 90
        0
280
     0
281
     0
  0
CLASS
  1
DICTIONARYVAR
  2
AcDbDictionaryVar
  3
AutoCAD 2000
 90
        0
280
     0
281
     0
  0
CLASS
  1
LONG_TRANSACTION
  2
AcDbLongTransaction
  3
AutoCAD 2000
 90
        0
280
     0
281
     0
  0
CLASS
  1
LWPOLYLINE
  2
AcDbPolyline
  3
AutoCAD 2000
 90
        0
280
     0
281
     1
  0
CLASS
  1
HATCH
  2
AcDbHatch
  3
AutoCAD 2000
 90
        0
280
     0
281
     1
  0
CLASS
  1
XRECORD
  2
AcDbXrecord
  3
AutoCAD 2000
 90
        0
280
     0
281
     0
  0
ENDSEC
  0
SECTION
  2
TABLES
  0
TABLE
  2
VPORT
  5
8
330
0
100
AcDbSymbolTable
 70
     2
  0
VPORT
  5
4BA
330
8
100
AcDbSymbolTableRecord
100
AcDbViewportTableRecord
  2
*ACTIVE
 70
     0
 10
0.0
 20
0.0
 11
1.0
 21
1.0
 12
3.991875524754961
 22
0.8336597263456884
 13
0.0
 23
0.0
 14
0.25
 24
0.25
 15
0.0
 25
0.0
 16
0.0
 26
0.0
 36
1.0
 17
0.0
 27
0.0
 37
0.0
 40
2.258888670922044
 41
4.320930232558139
 42
50.0
 43
0.0
 44
0.0
 50
0.0
 51
0.0
 71
     0
 72
  2000
 73
     1
 74
     1
 75
     0
 76
     0
 77
     0
 78
     0
  0
ENDTAB
  0
TABLE
  2
LTYPE
  5
5
330
0
100
AcDbSymbolTable
 70
     1
  0
LTYPE
  5
12
330
5
100
AcDbSymbolTableRecord
100
AcDbLinetypeTableRecord
  2
BYBLOCK
 70
     0
  3

 72
    65
 73
     0
 40
0.0
  0
LTYPE
  5
13
330
5
100
AcDbSymbolTableRecord
100
AcDbLinetypeTableRecord
  2
BYLAYER
 70
     0
  3

 72
    65
 73
     0
 40
0.0
  0
LTYPE
  5
14
330
5
100
AcDbSymbolTableRecord
100
AcDbLinetypeTableRecord
  2
CONTINUOUS
 70
     0
  3
Solid line
 72
    65
 73
     0
 40
0.0
  0
ENDTAB
  0
TABLE
  2
LAYER
  5
2
330
0
100
AcDbSymbolTable
 70
     2
  0
LAYER
  5
F
330
2
100
AcDbSymbolTableRecord
100
AcDbLayerTableRecord
  2
0
 70
     0
 62
     7
  6
CONTINUOUS
  0
LAYER
  5
2C
330
2
100
AcDbSymbolTableRecord
100
AcDbLayerTableRecord
  2
TEXT
 70
     0
 62
     3
  6
CONTINUOUS
  0
ENDTAB
  0
TABLE
  2
STYLE
  5
3
330
0
100
AcDbSymbolTable
 70
     3
  0
STYLE
  5
10
330
3
100
AcDbSymbolTableRecord
100
AcDbTextStyleTableRecord
  2
STANDARD
 70
     0
 40
0.0
 41
1.0
 50
0.0
 71
     0
 42
0.2
  3
txt
  4

  0
STYLE
  5
3A6
330
3
100
AcDbSymbolTableRecord
100
AcDbTextStyleTableRecord
  2
ITALICC
 70
     0
 40
0.0
 41
1.0
 50
0.0
 71
     0
 42
0.125
  3
italicc
  4

  0
STYLE
  5
4B6
330
3
100
AcDbSymbolTableRecord
100
AcDbTextStyleTableRecord
  2
ROMANS
 70
     0
 40
0.0
 41
1.0
 50
0.0
 71
     0
 42
0.125
  3
romans.shx
  4

  0
ENDTAB
  0
TABLE
  2
VIEW
  5
6
330
0
100
AcDbSymbolTable
 70
     0
  0
ENDTAB
  0
TABLE
  2
UCS
  5
7
330
0
100
AcDbSymbolTable
 70
     0
  0
ENDTAB
  0
TABLE
  2
APPID
  5
9
330
0
100
AcDbSymbolTable
 70
     1
  0
APPID
  5
11
330
9
100
AcDbSymbolTableRecord
100
AcDbRegAppTableRecord
  2
ACAD
 70
     0
  0
ENDTAB
  0
TABLE
  2
DIMSTYLE
  5
A
330
0
100
AcDbSymbolTable
 70
     1
  0
DIMSTYLE
105
39A
330
A
100
AcDbSymbolTableRecord
100
AcDbDimStyleTableRecord
  2
STANDARD
 70
     0
  3

  4

  5

  6

  7

 40
1.0
 41
0.18
 42
0.0625
 43
0.38
 44
0.18
 45
0.0
 46
0.0
 47
0.0
 48
0.0
140
0.18
141
0.09
142
0.0
143
25.4
144
1.0
145
0.0
146
1.0
147
0.09
 71
     0
 72
     0
 73
     1
 74
     1
 75
     0
 76
     0
 77
     0
 78
     0
170
     0
171
     2
172
     0
173
     0
174
     0
175
     0
176
     0
177
     0
178
     0
270
     2
271
     4
272
     4
273
     2
274
     2
340
10
275
     0
280
     0
281
     0
282
     0
283
     1
284
     0
285
     0
286
     0
287
     3
288
     0
  0
ENDTAB
  0
TABLE
  2
BLOCK_RECORD
  5
1
330
0
100
AcDbSymbolTable
 70
     0
  0
BLOCK_RECORD
  5
18
102
{ACAD_XDICTIONARY
360
4DD
102
}
330
1
100
AcDbSymbolTableRecord
100
AcDbBlockTableRecord
  2
*MODEL_SPACE
  0
BLOCK_RECORD
  5
15
102
{ACAD_XDICTIONARY
360
4DB
102
}
330
1
100
AcDbSymbolTableRecord
100
AcDbBlockTableRecord
  2
*PAPER_SPACE
  0
ENDTAB
  0
ENDSEC
  0
SECTION
  2
BLOCKS
  0
BLOCK
  5
36
330
18
100
AcDbEntity
  8
0
100
AcDbBlockBegin
  2
*MODEL_SPACE
 70
     0
 10
0.0
 20
0.0
 30
0.0
  3
*MODEL_SPACE
  1

  0
ENDBLK
  5
37
330
18
100
AcDbEntity
  8
0
100
AcDbBlockEnd
  0
BLOCK
  5
34
330
15
100
AcDbEntity
 67
     1
  8
0
100
AcDbBlockBegin
  2
*PAPER_SPACE
 70
     0
 10
0.0
 20
0.0
 30
0.0
  3
*PAPER_SPACE
  1

  0
ENDBLK
  5
35
330
15
100
AcDbEntity
 67
     1
  8
0
100
AcDbBlockEnd
  0
ENDSEC
  0
SECTION
  2
ENTITIES
  0
LWPOLYLINE
  5
277
330
18
100
AcDbEntity
  8
0
100
AcDbPolyline
 90
       48
 70
     1
 43
0.0
 10
1.280217476239195
 20
1.240378627333946
 10
1.229988002819725
 20
1.26937862733393
 42
-0.4264544133139097
 10
1.415702470516079
 20
1.315021712063179
 42
0.5913050146539577
 10
1.438736368821164
 20
1.327688853730641
 10
1.438736368821164
 20
1.813128627333929
 42
0.4142135623730951
 10
1.423736368821163
 20
1.82812862733393
 10
1.193002588856332
 20
1.82812862733393
 42
0.6887251775390678
 10
1.183009413937501
 20
1.801942186655963
 42
-0.5107607794737711
 10
1.160986368821165
 20
1.588380261332491
 10
1.131986368821163
 20
1.638609734751991
 42
3.732050807568902
 10
1.057486368821164
 20
1.638609734751989
 10
1.020236368821161
 20
1.574090842170043
 10
1.020236368821161
 20
1.457128627333927
 10
0.9502363688211614
 20
1.387128627333928
 10
0.9502363688211614
 20
1.574090842170052
 10
0.9129863688211639
 20
1.638609734751988
 42
3.732050807568868
 10
0.8384863688211732
 20
1.638609734752002
 10
0.8012363688211618
 20
1.574090842170042
 10
0.8012363688211614
 20
1.38262862733393
 10
0.7912363688211617
 20
1.38262862733393
 10
0.7912363688211617
 20
1.127128627333928
 10
0.7352363688211643
 20
1.07112862733393
 10
0.6727363688211643
 20
1.07112862733393
 10
0.6727363688211643
 20
1.19512862733393
 10
0.7352363688211643
 20
1.13262862733393
 10
0.7352363688211643
 20
1.501628627333934
 10
0.7452363688211641
 20
1.511628627333933
 10
0.7352363688211643
 20
1.521628627333933
 10
0.7352363688211643
 20
1.89062862733393
 10
0.6572363688211649
 20
1.81262862733393
 10
0.6572363688211649
 20
1.67262862733393
 10
0.5947363688211649
 20
1.67262862733393
 10
0.5947363688211649
 20
1.89062862733393
 10
0.3134863539200037
 20
1.890628627333933
 42
-0.9999997615814493
 10
0.3134863688211649
 20
1.95312862733393
 10
1.549736368821164
 20
1.95312862733393
 10
1.594736368821164
 20
1.90812862733393
 10
1.594736368821164
 20
0.6718786281404792
 42
-1.000000020355365
 10
1.532236368821164
 20
0.6718786277995914
 10
1.532236368821164
 20
0.9306286273339301
 10
1.469736368821164
 20
0.9306286273339301
 10
1.532236368821164
 20
0.9931286273339301
 10
1.532236368821164
 20
1.159915423898333
 42
0.6681786379192806
 10
1.506629767103365
 20
1.170522025616131
 10
1.407236368821164
 20
1.071128627333929
 10
1.230736368821164
 20
1.071128627333929
 10
1.230736368821164
 20
1.137310696646312
 10
1.280217476239223
 20
1.165878627333929
 42
3.732050807568862
  0
TEXT
  5
42C
330
18
100
AcDbEntity
  8
TEXT
100
AcDbText
 10
0.1883820635311384
 20
0.1721940953260632
 30
0.0
 40
0.125
  1
PART #110132
  7
ITALICC
 72
     1
 11
0.941358254007329
 21
0.1721940953260632
 31
0.0
100
AcDbText
  0
LINE
  5
42D
330
18
100
AcDbEntity
  8
TEXT
100
AcDbLine
 10
1.096672884030712
 20
-0.007882896037005
 30
0.0
 11
1.049574725474728
 21
-0.0837482224485431
 31
0.0
  0
LINE
  5
42E
330
18
100
AcDbEntity
  8
TEXT
100
AcDbLine
 10
1.049574725474728
 20
-0.0837482224485431
 30
0.0
 11
1.049574725474728
 21
0.0575813097305957
 31
0.0
  0
LINE
  5
42F
330
18
100
AcDbEntity
  8
TEXT
100
AcDbLine
 10
1.049574725474728
 20
0.0575813097305957
 30
0.0
 11
0.9812598469254547
 21
0.0575813097305957
 31
0.0
  0
LINE
  5
430
330
18
100
AcDbEntity
  8
TEXT
100
AcDbLine
 10
0.9812598469254547
 20
0.0575813097305957
 30
0.0
 11
0.9812598469254494
 21
-0.007882896037005
 31
0.0
  0
LINE
  5
431
330
18
100
AcDbEntity
  8
TEXT
100
AcDbLine
 10
1.107107600794635
 20
-0.1177761389779786
 30
0.0
 11
1.17166471676034
 21
-0.007882896037005
 31
0.0
  0
LINE
  5
432
330
18
100
AcDbEntity
  8
TEXT
100
AcDbLine
 10
1.17166471676034
 20
-0.007882896037005
 30
0.0
 11
1.096672884030714
 21
-0.007882896037005
 31
0.0
  0
LINE
  5
433
330
18
100
AcDbEntity
  8
TEXT
100
AcDbLine
 10
0.9857397342519549
 20
-0.274355929025516
 30
0.0
 11
1.050117918570575
 21
-0.274355929025516
 31
0.0
  0
LINE
  5
434
330
18
100
AcDbEntity
  8
TEXT
100
AcDbLine
 10
1.050117918570575
 20
-0.274355929025516
 30
0.0
 11
1.050117918570575
 21
-0.1427763605493357
 31
0.0
  0
LINE
  5
435
330
18
100
AcDbEntity
  8
TEXT
100
AcDbLine
 10
1.050117918570575
 20
-0.1427763605493357
 30
0.0
 11
1.126021451782039
 21
-0.274355929025516
 31
0.0
  0
LINE
  5
436
330
18
100
AcDbEntity
  8
TEXT
100
AcDbLine
 10
1.126021451782039
 20
-0.274355929025516
 30
0.0
 11
1.202599824158245
 21
-0.274355929025516
 31
0.0
  0
LINE
  5
437
330
18
100
AcDbEntity
  8
TEXT
100
AcDbLine
 10
0.9857397342519496
 20
-0.0721595906937704
 30
0.0
 11
0.9857397342519549
 21
-0.274355929025516
 31
0.0
  0
LINE
  5
438
330
18
100
AcDbEntity
  8
TEXT
100
AcDbLine
 10
1.202599824158245
 20
-0.274355929025516
 30
0.0
 11
1.107107600794635
 21
-0.1177761389779786
 31
0.0
  0
ARC
  5
439
330
18
100
AcDbEntity
  8
TEXT
100
AcDbCircle
 10
0.9090917529593909
 20
-0.0970654659764332
 30
0.0
 40
0.0249058752826653
100
AcDbArc
 50
89.99971217465335
 51
179.9999999999985
  0
ARC
  5
43A
330
18
100
AcDbEntity
  8
TEXT
100
AcDbCircle
 10
0.9169807098989686
 20
-0.0391286233192698
 30
0.0
 40
0.0314112657011332
100
AcDbArc
 50
95.88484768694724
 51
173.2388340632136
  0
LINE
  5
43B
330
18
100
AcDbEntity
  8
TEXT
100
AcDbLine
 10
0.88578789283586
 20
-0.0354305458978797
 30
0.0
 11
0.88578789283586
 21
-0.007882896037005
 31
0.0
  0
LINE
  5
43C
330
18
100
AcDbEntity
  8
TEXT
100
AcDbLine
 10
0.88578789283586
 20
-0.007882896037005
 30
0.0
 11
0.821890986536359
 21
-0.007882896037005
 31
0.0
  0
LINE
  5
43D
330
18
100
AcDbEntity
  8
TEXT
100
AcDbLine
 10
0.821890986536359
 20
-0.007882896037005
 30
0.0
 11
0.821890986536359
 21
-0.1130948745904323
 31
0.0
  0
LINE
  5
43E
330
18
100
AcDbEntity
  8
TEXT
100
AcDbLine
 10
0.7429310476613181
 20
-0.007882896037005
 30
0.0
 11
0.6080991384442589
 21
-0.007882896037005
 31
0.0
  0
LINE
  5
43F
330
18
100
AcDbEntity
  8
TEXT
100
AcDbLine
 10
0.6080991384442589
 20
-0.007882896037005
 30
0.0
 11
0.6080991384442589
 21
-0.0362054418066489
 31
0.0
  0
LINE
  5
440
330
18
100
AcDbEntity
  8
TEXT
100
AcDbLine
 10
0.6674132348375777
 20
-0.1094345641559027
 30
0.0
 11
0.7497012246209609
 21
-0.1094345641559027
 31
0.0
  0
LINE
  5
441
330
18
100
AcDbEntity
  8
TEXT
100
AcDbLine
 10
0.7497012246209609
 20
-0.1094345641559027
 30
0.0
 11
0.7394364642073965
 21
-0.0881840245832084
 31
0.0
  0
LINE
  5
442
330
18
100
AcDbEntity
  8
TEXT
100
AcDbLine
 10
0.7139001493168396
 20
-0.0721595906937704
 30
0.0
 11
0.6066938759295502
 21
-0.0721595906937704
 31
0.0
  0
ARC
  5
443
330
18
100
AcDbEntity
  8
TEXT
100
AcDbCircle
 10
0.7139001493168387
 20
-0.1005189656937677
 30
0.0
 40
0.028359375
100
AcDbArc
 50
25.78218179591245
 51
90.0
  0
LINE
  5
444
330
18
100
AcDbEntity
  8
TEXT
100
AcDbLine
 10
0.821890986536359
 20
-0.1130948745904323
 30
0.0
 11
0.7781402153544575
 21
-0.0308445985942871
 31
0.0
  0
ARC
  5
445
330
18
100
AcDbEntity
  8
TEXT
100
AcDbCircle
 10
0.7409041078842496
 20
-0.0494664631579074
 30
0.0
 40
0.0416329381542859
100
AcDbArc
 50
26.56974201007528
 51
87.20939649401342
  0
LWPOLYLINE
  5
446
330
18
100
AcDbEntity
  8
TEXT
100
AcDbPolyline
 90
        2
 70
     0
 43
0.0
 10
0.8258306638413976
 20
-0.2308649840750778
 42
-0.2901071551932486
 10
0.7827547309737533
 20
-0.274355929025516
 42
-5.328517124445184
  0
LWPOLYLINE
  5
447
330
18
100
AcDbEntity
  8
TEXT
100
AcDbPolyline
 90
        2
 70
     0
 43
0.0
 10
0.8258306638413976
 20
-0.2308649840750778
 10
0.8258306638413976
 20
-0.274355929025516
  0
LWPOLYLINE
  5
448
330
18
100
AcDbEntity
  8
TEXT
100
AcDbPolyline
 90
        2
 70
     0
 43
0.0
 10
0.8258306638413976
 20
-0.274355929025516
 10
0.8841858776767317
 20
-0.274355929025516
  0
LWPOLYLINE
  5
449
330
18
100
AcDbEntity
  8
TEXT
100
AcDbPolyline
 90
        2
 70
     0
 43
0.0
 10
0.6056613804747411
 20
-0.2308649840750778
 42
0.2901071551932823
 10
0.6487373133423766
 20
-0.274355929025516
 42
5.328517124445801
  0
LWPOLYLINE
  5
44A
330
18
100
AcDbEntity
  8
TEXT
100
AcDbPolyline
 90
        2
 70
     0
 43
0.0
 10
0.6487373133423766
 20
-0.274355929025516
 10
0.7827547309737533
 20
-0.274355929025516
 42
0.9999999999999998
  0
LWPOLYLINE
  5
44B
330
18
100
AcDbEntity
  8
TEXT
100
AcDbPolyline
 90
        4
 70
     1
 43
0.0
 10
0.7626322659038607
 20
-0.1713919510414907
 10
0.6739719472440023
 20
-0.1713919510414907
 42
0.9999999999999998
 10
0.6739719472440023
 20
-0.2137904915453515
 10
0.7626322659038607
 20
-0.2137904915453515
 42
1.0
  0
ARC
  5
44C
330
18
100
AcDbEntity
  8
TEXT
100
AcDbCircle
 10
0.6674132348375768
 20
-0.1771201453000213
 30
0.0
 40
0.0676855811441166
100
AcDbArc
 50
90.0
 51
153.7768192527749
  0
LINE
  5
44D
330
18
100
AcDbEntity
  8
TEXT
100
AcDbLine
 10
0.8841858776767326
 20
-0.274355929025516
 30
0.0
 11
0.8841858776767272
 21
-0.0970654235940476
 31
0.0
  0
LINE
  5
44E
330
18
100
AcDbEntity
  8
TEXT
100
AcDbLine
 10
0.6066938759295502
 20
-0.0721595906937704
 30
0.0
 11
0.6066938759295502
 21
-0.147211996767977
 31
0.0
  0
LINE
  5
44F
330
18
100
AcDbEntity
  8
TEXT
100
AcDbLine
 10
0.9090917529593918
 20
-0.0721595906937704
 30
0.0
 11
0.9857397342519496
 21
-0.0721595906937704
 31
0.0
  0
LINE
  5
450
330
18
100
AcDbEntity
  8
TEXT
100
AcDbLine
 10
0.9812598469254494
 20
-0.007882896037005
 30
0.0
 11
0.9137601292759329
 21
-0.007882896037005
 31
0.0
  0
LWPOLYLINE
  5
451
330
18
100
AcDbEntity
  8
TEXT
100
AcDbPolyline
 90
        2
 70
     0
 43
0.0
 10
0.400883875151866
 20
-0.0721595906937704
 42
-0.4142135623731017
 10
0.4084376643179795
 20
-0.0797133798598804
 42
-0.9999999999999998
  0
LWPOLYLINE
  5
452
330
18
100
AcDbEntity
  8
TEXT
100
AcDbPolyline
 90
        2
 70
     0
 43
0.0
 10
0.5296293080207697
 20
-0.0721595906937704
 42
-0.4142135623731017
 10
0.5371830971868832
 20
-0.0797133798598804
 42
-0.9999999999999998
  0
LWPOLYLINE
  5
453
330
18
100
AcDbEntity
  8
TEXT
100
AcDbPolyline
 90
        2
 70
     0
 43
0.0
 10
0.4182355982018873
 20
-0.0078828960370014
 42
-0.3328679258950098
 10
0.4540172889150487
 20
-0.0350503927978974
 42
6.772930709997214
  0
LWPOLYLINE
  5
454
330
18
100
AcDbEntity
  8
TEXT
100
AcDbPolyline
 90
        3
 70
     0
 43
0.0
 10
0.5723174477310931
 20
-0.0078828960370014
 10
0.4540172889150487
 20
-0.0078828960370014
 10
0.4540172889150487
 20
-0.0350503927978974
 42
-1.960274751411753
  0
LINE
  5
455
330
18
100
AcDbEntity
  8
TEXT
100
AcDbLine
 10
0.4754957110998204
 20
-0.0721595906937704
 30
0.0
 11
0.5296293080207706
 21
-0.0721595906937704
 31
0.0
  0
LINE
  5
456
330
18
100
AcDbEntity
  8
TEXT
100
AcDbLine
 10
0.3510485953287192
 20
-0.0721595906937704
 30
0.0
 11
0.4008838751518669
 21
-0.0721595906937704
 31
0.0
  0
LINE
  5
457
330
18
100
AcDbEntity
  8
TEXT
100
AcDbLine
 10
0.4182355982018864
 20
-0.007882896037005
 30
0.0
 11
0.28421754227075
 21
-0.007882896037005
 31
0.0
  0
LINE
  5
458
330
18
100
AcDbEntity
  8
TEXT
100
AcDbLine
 10
0.4084376643179804
 20
-0.274355929025516
 30
0.0
 11
0.4754957110998204
 21
-0.274355929025516
 31
0.0
  0
LINE
  5
459
330
18
100
AcDbEntity
  8
TEXT
100
AcDbLine
 10
0.2530452616292846
 20
-0.274355929025516
 30
0.0
 11
0.3510485953287192
 21
-0.274355929025516
 31
0.0
  0
LINE
  5
45A
330
18
100
AcDbEntity
  8
TEXT
100
AcDbLine
 10
0.28421754227075
 20
-0.2087471027694132
 30
0.0
 11
0.2672239053861487
 21
-0.2087471027694132
 31
0.0
  0
ARC
  5
45B
330
18
100
AcDbEntity
  8
TEXT
100
AcDbCircle
 10
0.2672239053861478
 20
-0.1933652965259878
 30
0.0
 40
0.0153818062434269
100
AcDbArc
 50
174.7883570302258
 51
270.0
  0
LINE
  5
45C
330
18
100
AcDbEntity
  8
TEXT
100
AcDbLine
 10
0.3510485953287192
 20
-0.274355929025516
 30
0.0
 11
0.3510485953287192
 21
-0.0721595906937704
 31
0.0
  0
LINE
  5
45D
330
18
100
AcDbEntity
  8
TEXT
100
AcDbLine
 10
0.4084376643179804
 20
-0.0797133798598804
 30
0.0
 11
0.4084376643179804
 21
-0.274355929025516
 31
0.0
  0
LINE
  5
45E
330
18
100
AcDbEntity
  8
TEXT
100
AcDbLine
 10
0.4754957110998204
 20
-0.274355929025516
 30
0.0
 11
0.4754957110998204
 21
-0.0721595906937704
 31
0.0
  0
LINE
  5
45F
330
18
100
AcDbEntity
  8
TEXT
100
AcDbLine
 10
0.28421754227075
 20
-0.007882896037005
 30
0.0
 11
0.28421754227075
 21
-0.2087471027694132
 31
0.0
  0
LINE
  5
460
330
18
100
AcDbEntity
  8
TEXT
100
AcDbLine
 10
0.2519056881330899
 20
-0.1919680909225168
 30
0.0
 11
0.2519056881330899
 21
0.0601285817018056
 31
0.0
  0
LINE
  5
461
330
18
100
AcDbEntity
  8
TEXT
100
AcDbLine
 10
0.1850969755667249
 20
0.0601285817018056
 30
0.0
 11
0.1850969755667249
 21
-0.007882896037005
 31
0.0
  0
LINE
  5
462
330
18
100
AcDbEntity
  8
TEXT
100
AcDbLine
 10
0.1850969755667249
 20
-0.007882896037005
 30
0.0
 11
0.1549750627733486
 21
-0.007882896037005
 31
0.0
  0
LINE
  5
463
330
18
100
AcDbEntity
  8
TEXT
100
AcDbLine
 10
0.1549750627733486
 20
-0.007882896037005
 30
0.0
 11
0.0962264999674831
 21
-0.1087548921501256
 31
0.0
  0
LINE
  5
464
330
18
100
AcDbEntity
  8
TEXT
100
AcDbLine
 10
0.0962264999674831
 20
-0.1087548921501256
 30
0.0
 11
0.0375961789355452
 21
-0.007882896037005
 31
0.0
  0
LINE
  5
465
330
18
100
AcDbEntity
  8
TEXT
100
AcDbLine
 10
-0.0342027872083621
 20
-0.007882896037005
 30
0.0
 11
-0.0342027872083621
 21
0.0265050215571332
 31
0.0
  0
LINE
  5
466
330
18
100
AcDbEntity
  8
TEXT
100
AcDbLine
 10
-0.0342027872083621
 20
0.0265050215571332
 30
0.0
 11
-0.0942453920523692
 21
0.0265050215571332
 31
0.0
  0
LINE
  5
467
330
18
100
AcDbEntity
  8
TEXT
100
AcDbLine
 10
-0.0942453920523692
 20
0.0265050215571332
 30
0.0
 11
-0.0942453920523692
 21
-0.007882896037005
 31
0.0
  0
LINE
  5
468
330
18
100
AcDbEntity
  8
TEXT
100
AcDbLine
 10
0.0375961789355452
 20
-0.007882896037005
 30
0.0
 11
-0.0342027872083621
 21
-0.007882896037005
 31
0.0
  0
ARC
  5
469
330
18
100
AcDbEntity
  8
TEXT
100
AcDbCircle
 10
0.0525827030583148
 20
-0.2348082067518202
 30
0.0
 40
0.0392772371940762
100
AcDbArc
 50
270.1604552698595
 51
330.0831797321295
  0
ARC
  5
46A
330
18
100
AcDbEntity
  8
TEXT
100
AcDbCircle
 10
-0.03771814283391
 20
-0.2145635376874662
 30
0.0
 40
0.0601160179737537
100
AcDbArc
 50
180.0000000000003
 51
264.0521544866073
  0
LINE
  5
46B
330
18
100
AcDbEntity
  8
TEXT
100
AcDbLine
 10
-0.0439475533275564
 20
-0.274355929025516
 30
0.0
 11
0.052692697747438
 21
-0.2740852899272337
 31
0.0
  0
LWPOLYLINE
  5
46C
330
18
100
AcDbEntity
  8
TEXT
100
AcDbPolyline
 90
        6
 70
     1
 43
0.0
 10
-0.0014237497524068
 20
-0.0721595906937704
 10
-0.0317403439726149
 20
-0.0721595906937704
 10
-0.0317403439726149
 20
-0.1952705887486647
 42
0.407328721240804
 10
-0.0201966928111386
 20
-0.2070895034250508
 10
0.0404250062335923
 20
-0.2070895034250508
 10
0.0578903466409102
 20
-0.1742772743815717
  0
LINE
  5
46D
330
18
100
AcDbEntity
  8
TEXT
100
AcDbLine
 10
-0.0978341608076621
 20
-0.0721595906937704
 30
0.0
 11
-0.0978341608076621
 21
-0.2145635376874662
 31
0.0
  0
LINE
  5
46E
330
18
100
AcDbEntity
  8
TEXT
100
AcDbLine
 10
0.0866262629705288
 20
-0.254397422920503
 30
0.0
 11
0.1839259690639734
 21
-0.0900472119852349
 31
0.0
  0
LINE
  5
46F
330
18
100
AcDbEntity
  8
TEXT
100
AcDbLine
 10
0.1839259690639734
 20
-0.0900472119852349
 30
0.0
 11
0.1839259690639734
 21
-0.2228045868105912
 31
0.0
  0
LWPOLYLINE
  5
470
330
18
100
AcDbEntity
  8
TEXT
100
AcDbPolyline
 90
        2
 70
     0
 43
0.0
 10
0.1839259690639725
 20
-0.2228045868105877
 42
0.3318488747599744
 10
0.2530452616292855
 20
-0.274355929025516
 42
-6.868794160588311
  0
LINE
  5
471
330
18
100
AcDbEntity
  8
TEXT
100
AcDbLine
 10
0.2519056881330899
 20
0.0601285817018056
 30
0.0
 11
0.1850969755667249
 21
0.0601285817018056
 31
0.0
  0
LWPOLYLINE
  5
472
330
18
100
AcDbEntity
  8
TEXT
100
AcDbPolyline
 90
        4
 70
     0
 43
0.0
 10
0.5371830971868832
 20
-0.0797133798598804
 10
0.5371830971868832
 20
-0.274355929025516
 10
0.6056613804747411
 20
-0.274355929025516
 10
0.6056613804747411
 20
-0.2308649840750778
 42
-1.714843617202739
  0
LWPOLYLINE
  5
473
330
18
100
AcDbEntity
  8
TEXT
100
AcDbPolyline
 90
        2
 70
     0
 43
0.0
 10
0.5723174477310931
 20
-0.0078828960370014
 42
-0.3277054968067132
 10
0.608099138444258
 20
-0.0362054418066453
 42
6.667889725900311
  0
TEXT
  5
474
330
18
100
AcDbEntity
  8
TEXT
100
AcDbText
 10
1.35466341225765
 20
-0.1814701203800197
 30
0.0
 40
0.0522247191011236
  1
Minneapolis, MN 55432-0008
 41
1.11444212721585
 72
     5
 11
2.683595996527314
 21
-0.1814701203800197
 31
0.0
100
AcDbText
  0
TEXT
  5
475
330
18
100
AcDbEntity
  8
TEXT
100
AcDbText
 10
1.35466341225765
 20
-0.0882116934137276
 30
0.0
 40
0.0522247191011236
  1
6536 Main St. N.E. * P.O. Box 32008
 41
0.8388932496075353
 72
     5
 11
2.683595996527314
 21
-0.0882116934137276
 31
0.0
100
AcDbText
  0
TEXT
  5
476
330
18
100
AcDbEntity
  8
TEXT
100
AcDbText
 10
1.35466341225765
 20
0.0050467335525646
 30
0.0
 40
0.0522247191011236
  1
Stylmark  Incorporated
 41
1.221428571428571
 72
     5
 11
2.683595996527314
 21
0.0050467335525646
 31
0.0
100
AcDbText
  0
TEXT
  5
477
330
18
100
AcDbEntity
  8
TEXT
100
AcDbText
 10
1.35466341225765
 20
-0.2747285473463119
 30
0.0
 40
0.0522247191011236
  1
Phone  1-800-328-2495
 41
1.272321428571429
 72
     5
 11
2.683595996527314
 21
-0.2747285473463119
 31
0.0
100
AcDbText
  0
LINE
  5
478
330
18
100
AcDbEntity
  8
TEXT
100
AcDbLine
 10
-0.1991396785923314
 20
-0.1079643123043983
 30
0.0
 11
-0.2647398148366324
 21
-0.1079643123043983
 31
0.0
  0
ARC
  5
479
330
18
100
AcDbEntity
  8
TEXT
100
AcDbCircle
 10
-0.2647398148366324
 20
-0.0900619514990826
 30
0.0
 40
0.017902360805315
100
AcDbArc
 50
90.0
 51
270.0
  0
LINE
  5
47A
330
18
100
AcDbEntity
  8
TEXT
100
AcDbLine
 10
-0.2699771449508805
 20
-0.172057814930012
 30
0.0
 11
-0.1941993046860517
 21
-0.172057814930012
 31
0.0
  0
LINE
  5
47B
330
18
100
AcDbEntity
  8
TEXT
100
AcDbLine
 10
-0.1941993046860517
 20
-0.2059989226920766
 30
0.0
 11
-0.3520646043973858
 21
-0.2059989226920766
 31
0.0
  0
LINE
  5
47C
330
18
100
AcDbEntity
  8
TEXT
100
AcDbLine
 10
-0.3520646043973841
 20
-0.274355929025516
 30
0.0
 11
-0.1991396785923314
 21
-0.274355929025516
 31
0.0
  0
ARC
  5
47D
330
18
100
AcDbEntity
  8
TEXT
100
AcDbCircle
 10
-0.2699771449508805
 20
-0.0899703554835068
 30
0.0
 40
0.0820874594465043
100
AcDbArc
 50
90.0
 51
270.0
  0
LINE
  5
47E
330
18
100
AcDbEntity
  8
TEXT
100
AcDbLine
 10
-0.0942453920523692
 20
-0.007882896037005
 30
0.0
 11
-0.2699771449508805
 21
-0.007882896037005
 31
0.0
  0
ARC
  5
47F
330
18
100
AcDbEntity
  8
TEXT
100
AcDbCircle
 10
-0.1941993046860517
 20
-0.1890283688110426
 30
0.0
 40
0.0169705538810321
100
AcDbArc
 50
270.0
 51
90.0
  0
ARC
  5
480
330
18
100
AcDbEntity
  8
TEXT
100
AcDbCircle
 10
-0.1991396785923314
 20
-0.1911601206649589
 30
0.0
 40
0.0831958083605586
100
AcDbArc
 50
270.0
 51
90.0
  0
LINE
  5
481
330
18
100
AcDbEntity
  8
TEXT
100
AcDbLine
 10
-0.2647398148366324
 20
-0.0721595906937704
 30
0.0
 11
-0.0978341608076621
 21
-0.0721595906937704
 31
0.0
  0
LWPOLYLINE
  5
482
330
18
100
AcDbEntity
  8
TEXT
100
AcDbPolyline
 90
        2
 70
     0
 43
0.0006660908203125
 10
-0.5614975844971593
 20
-0.1211183354901291
 10
-0.5348539516846583
 20
-0.1211183354901291
  0
LINE
  5
483
330
18
100
AcDbEntity
  8
TEXT
100
AcDbLine
 10
-0.3520646043973858
 20
-0.2059989226920766
 30
0.0
 11
-0.3520646043973841
 21
-0.274355929025516
 31
0.0
  0
LWPOLYLINE
  5
484
330
18
100
AcDbEntity
  8
TEXT
100
AcDbPolyline
 90
        2
 70
     0
 43
0.0006660908203125
 10
-0.5614975844971593
 20
-0.1610837847088771
 10
-0.5348539516846583
 20
-0.1610837847088771
  0
LWPOLYLINE
  5
485
330
18
100
AcDbEntity
  8
TEXT
100
AcDbPolyline
 90
        2
 70
     0
 43
0.0001332181640625
 10
-0.6480893911377841
 20
-0.0078828960370014
 10
-0.6580807534424729
 20
-0.0811528862713811
  0
LWPOLYLINE
  5
486
330
18
100
AcDbEntity
  8
TEXT
100
AcDbPolyline
 90
        2
 70
     0
 43
0.0001332181640625
 10
-0.6480893911377841
 20
-0.0345265288495025
 10
-0.6580807534424729
 20
-0.0944747026776281
  0
LWPOLYLINE
  5
487
330
18
100
AcDbEntity
  8
TEXT
100
AcDbPolyline
 90
        2
 70
     0
 43
0.0006660908203125
 10
-0.6480893911377841
 20
-0.0345265288495025
 10
-0.6480893911377841
 20
-0.0078828960370014
  0
LWPOLYLINE
  5
488
330
18
100
AcDbEntity
  8
TEXT
100
AcDbPolyline
 90
        5
 70
     0
 43
0.0001332181640625
 10
-0.6580807534424729
 20
-0.0811528862713811
 10
-0.6580807534424729
 20
-0.0944747026776281
 10
-0.6214457583252831
 20
-0.0944747026776281
 10
-0.6214457583252831
 20
-0.1311096977948178
 10
-0.6081239419190343
 20
-0.1311096977948178
  0
LWPOLYLINE
  5
489
330
18
100
AcDbEntity
  8
TEXT
100
AcDbPolyline
 90
        2
 70
     0
 43
0.0001332181640625
 10
-0.6880548403565357
 20
-0.0345265288495025
 10
-0.6780634780518451
 20
-0.0944747026776281
  0
LWPOLYLINE
  5
48A
330
18
100
AcDbEntity
  8
TEXT
100
AcDbPolyline
 90
        2
 70
     0
 43
0.0001332181640625
 10
-0.6780634780518451
 20
-0.0811528862713811
 10
-0.6880548403565357
 20
-0.0078828960370014
  0
LWPOLYLINE
  5
48B
330
18
100
AcDbEntity
  8
TEXT
100
AcDbPolyline
 90
        2
 70
     0
 43
0.0006660908203125
 10
-0.6880548403565357
 20
-0.0345265288495025
 10
-0.6880548403565357
 20
-0.0078828960370014
  0
LWPOLYLINE
  5
48C
330
18
100
AcDbEntity
  8
TEXT
100
AcDbPolyline
 90
        5
 70
     0
 43
0.0001332181640625
 10
-0.7280202895752837
 20
-0.1311096977948178
 10
-0.7146984731690349
 20
-0.1311096977948178
 10
-0.7146984731690349
 20
-0.0944747026776281
 10
-0.6780634780518451
 20
-0.0944747026776281
 10
-0.6780634780518451
 20
-0.0811528862713811
  0
LWPOLYLINE
  5
48D
330
18
100
AcDbEntity
  8
TEXT
100
AcDbPolyline
 90
        2
 70
     0
 43
0.0006660908203125
 10
-0.7746466469971605
 20
-0.1211183354901291
 10
-0.8012902798096579
 20
-0.1211183354901291
  0
LWPOLYLINE
  5
48E
330
18
100
AcDbEntity
  8
TEXT
100
AcDbPolyline
 90
        2
 70
     0
 43
0.0001332181640625
 10
-0.8012902798096579
 20
-0.1211183354901291
 10
-0.7280202895752837
 20
-0.1311096977948178
  0
LWPOLYLINE
  5
48F
330
18
100
AcDbEntity
  8
TEXT
100
AcDbPolyline
 90
        2
 70
     0
 43
0.0001332181640625
 10
-0.7746466469971605
 20
-0.1211183354901291
 10
-0.7146984731690349
 20
-0.1311096977948178
  0
LWPOLYLINE
  5
490
330
18
100
AcDbEntity
  8
TEXT
100
AcDbPolyline
 90
        2
 70
     0
 43
0.0001332181640625
 10
-0.7746466469971605
 20
-0.0345265288495025
 10
-0.7146984731690349
 20
-0.0944747026776281
  0
LWPOLYLINE
  5
491
330
18
100
AcDbEntity
  8
TEXT
100
AcDbPolyline
 90
        3
 70
     0
 43
0.0006660908203125
 10
-0.6880548403565357
 20
-0.0345265288495025
 10
-0.7746466469971605
 20
-0.0345265288495025
 10
-0.7746466469971605
 20
-0.1211183354901291
  0
LWPOLYLINE
  5
492
330
18
100
AcDbEntity
  8
TEXT
100
AcDbPolyline
 90
        3
 70
     0
 43
0.0006660908203125
 10
-0.6880548403565357
 20
-0.0078828960370014
 10
-0.8012902798096579
 20
-0.0078828960370014
 10
-0.8012902798096579
 20
-0.1211183354901291
  0
LWPOLYLINE
  5
493
330
18
100
AcDbEntity
  8
TEXT
100
AcDbPolyline
 90
        5
 70
     0
 43
0.0001332181640625
 10
-0.6081239419190343
 20
-0.1510924224041918
 10
-0.6214457583252831
 20
-0.1510924224041918
 10
-0.6214457583252831
 20
-0.1877274175213781
 10
-0.6580807534424729
 20
-0.1877274175213781
 10
-0.6580807534424729
 20
-0.2010492339276286
  0
LWPOLYLINE
  5
494
330
18
100
AcDbEntity
  8
TEXT
100
AcDbPolyline
 90
        2
 70
     0
 43
0.0006660908203125
 10
-0.6480893911377841
 20
-0.2476755913495037
 10
-0.6480893911377841
 20
-0.2743192241620047
  0
LWPOLYLINE
  5
495
330
18
100
AcDbEntity
  8
TEXT
100
AcDbPolyline
 90
        2
 70
     0
 43
0.0001332181640625
 10
-0.6580807534424729
 20
-0.2010492339276286
 10
-0.6480893911377841
 20
-0.2743192241620047
  0
LWPOLYLINE
  5
496
330
18
100
AcDbEntity
  8
TEXT
100
AcDbPolyline
 90
        2
 70
     0
 43
0.0001332181640625
 10
-0.6480893911377841
 20
-0.2476755913495037
 10
-0.6580807534424729
 20
-0.1877274175213781
  0
LWPOLYLINE
  5
497
330
18
100
AcDbEntity
  8
TEXT
100
AcDbPolyline
 90
        2
 70
     0
 43
0.0001332181640625
 10
-0.6880548403565357
 20
-0.2743192241620047
 10
-0.6780634780518451
 20
-0.2010492339276286
  0
LWPOLYLINE
  5
498
330
18
100
AcDbEntity
  8
TEXT
100
AcDbPolyline
 90
        2
 70
     0
 43
0.0001332181640625
 10
-0.6880548403565357
 20
-0.2476755913495037
 10
-0.6780634780518451
 20
-0.1877274175213781
  0
LWPOLYLINE
  5
499
330
18
100
AcDbEntity
  8
TEXT
100
AcDbPolyline
 90
        2
 70
     0
 43
0.0006660908203125
 10
-0.6880548403565357
 20
-0.2476755913495037
 10
-0.6880548403565357
 20
-0.2743192241620047
  0
LWPOLYLINE
  5
49A
330
18
100
AcDbEntity
  8
TEXT
100
AcDbPolyline
 90
        5
 70
     0
 43
0.0001332181640625
 10
-0.6780634780518451
 20
-0.2010492339276286
 10
-0.6780634780518451
 20
-0.1877274175213781
 10
-0.7146984731690332
 20
-0.1877274175213781
 10
-0.7146984731690332
 20
-0.1510924224041918
 10
-0.7280202895752837
 20
-0.1510924224041918
  0
LWPOLYLINE
  5
49B
330
18
100
AcDbEntity
  8
TEXT
100
AcDbPolyline
 90
        2
 70
     0
 43
0.0006660908203125
 10
-0.7746466469971605
 20
-0.1610837847088771
 10
-0.8012902798096579
 20
-0.1610837847088771
  0
LWPOLYLINE
  5
49C
330
18
100
AcDbEntity
  8
TEXT
100
AcDbPolyline
 90
        2
 70
     0
 43
0.0001332181640625
 10
-0.7746466469971605
 20
-0.2476755913495037
 10
-0.7146984731690332
 20
-0.1877274175213781
  0
LWPOLYLINE
  5
49D
330
18
100
AcDbEntity
  8
TEXT
100
AcDbPolyline
 90
        2
 70
     0
 43
0.0001332181640625
 10
-0.7746466469971605
 20
-0.1610837847088771
 10
-0.7146984731690332
 20
-0.1510924224041918
  0
LWPOLYLINE
  5
49E
330
18
100
AcDbEntity
  8
TEXT
100
AcDbPolyline
 90
        2
 70
     0
 43
0.0001332181640625
 10
-0.7280202895752837
 20
-0.1510924224041918
 10
-0.8012902798096579
 20
-0.1610837847088771
  0
LWPOLYLINE
  5
49F
330
18
100
AcDbEntity
  8
TEXT
100
AcDbPolyline
 90
        3
 70
     0
 43
0.0006660908203125
 10
-0.7746466469971605
 20
-0.1610837847088771
 10
-0.7746466469971605
 20
-0.2476755913495037
 10
-0.6880548403565357
 20
-0.2476755913495037
  0
LWPOLYLINE
  5
4A0
330
18
100
AcDbEntity
  8
TEXT
100
AcDbPolyline
 90
        3
 70
     0
 43
0.0006660908203125
 10
-0.8012902798096579
 20
-0.1610837847088771
 10
-0.8012902798096579
 20
-0.2743192241620047
 10
-0.6880548403565357
 20
-0.2743192241620047
  0
LWPOLYLINE
  5
4A1
330
18
100
AcDbEntity
  8
TEXT
100
AcDbPolyline
 90
        3
 70
     0
 43
0.0006660908203125
 10
-0.6480893911377841
 20
-0.2743192241620047
 10
-0.5348539516846583
 20
-0.2743192241620047
 10
-0.5348539516846583
 20
-0.1610837847088771
  0
LWPOLYLINE
  5
4A2
330
18
100
AcDbEntity
  8
TEXT
100
AcDbPolyline
 90
        3
 70
     0
 43
0.0006660908203125
 10
-0.6480893911377841
 20
-0.2476755913495037
 10
-0.5614975844971593
 20
-0.2476755913495037
 10
-0.5614975844971593
 20
-0.1610837847088771
  0
LWPOLYLINE
  5
4A3
330
18
100
AcDbEntity
  8
TEXT
100
AcDbPolyline
 90
        2
 70
     0
 43
0.0001332181640625
 10
-0.5614975844971593
 20
-0.2476755913495037
 10
-0.6214457583252831
 20
-0.1877274175213781
  0
LWPOLYLINE
  5
4A4
330
18
100
AcDbEntity
  8
TEXT
100
AcDbPolyline
 90
        2
 70
     0
 43
0.0001332181640625
 10
-0.5614975844971593
 20
-0.1610837847088771
 10
-0.6214457583252831
 20
-0.1510924224041918
  0
LWPOLYLINE
  5
4A5
330
18
100
AcDbEntity
  8
TEXT
100
AcDbPolyline
 90
        2
 70
     0
 43
0.0001332181640625
 10
-0.5348539516846583
 20
-0.1610837847088771
 10
-0.6081239419190343
 20
-0.1510924224041918
  0
LWPOLYLINE
  5
4A6
330
18
100
AcDbEntity
  8
TEXT
100
AcDbPolyline
 90
        2
 70
     0
 43
0.0001332181640625
 10
-0.5614975844971593
 20
-0.0345265288495025
 10
-0.6214457583252831
 20
-0.0944747026776281
  0
LWPOLYLINE
  5
4A7
330
18
100
AcDbEntity
  8
TEXT
100
AcDbPolyline
 90
        2
 70
     0
 43
0.0001332181640625
 10
-0.5614975844971593
 20
-0.1211183354901291
 10
-0.6214457583252831
 20
-0.1311096977948178
  0
LWPOLYLINE
  5
4A8
330
18
100
AcDbEntity
  8
TEXT
100
AcDbPolyline
 90
        2
 70
     0
 43
0.0001332181640625
 10
-0.6081239419190343
 20
-0.1311096977948178
 10
-0.5348539516846583
 20
-0.1211183354901291
  0
LWPOLYLINE
  5
4A9
330
18
100
AcDbEntity
  8
TEXT
100
AcDbPolyline
 90
        3
 70
     0
 43
0.0006660908203125
 10
-0.5614975844971593
 20
-0.1211183354901291
 10
-0.5614975844971593
 20
-0.0345265288495025
 10
-0.6480893911377841
 20
-0.0345265288495025
  0
LWPOLYLINE
  5
4AA
330
18
100
AcDbEntity
  8
TEXT
100
AcDbPolyline
 90
        3
 70
     0
 43
0.0006660908203125
 10
-0.5348539516846583
 20
-0.1211183354901291
 10
-0.5348539516846583
 20
-0.0078828960370014
 10
-0.6480893911377841
 20
-0.0078828960370014
  0
ENDSEC
  0
SECTION
  2
OBJECTS
  0
DICTIONARY
  5
C
330
0
100
AcDbDictionary
  3
ACAD_GROUP
350
D
  3
ACAD_LAYOUT
350
4AF
  3
ACAD_MLINESTYLE
350
E
  3
ACAD_PLOTSETTINGS
350
4B0
  3
ACAD_PLOTSTYLENAME
350
4AD
  3
ACDBHEADERROUNDTRIPXREC
350
4BB
  3
ACDBVARIABLEDICTIONARY
350
4B8
  0
DICTIONARY
  5
4DD
330
18
100
AcDbDictionary
280
     1
  3
ACAD_LAYOUTSELFREF
360
4DE
  0
DICTIONARY
  5
4DB
330
15
100
AcDbDictionary
280
     1
  3
ACAD_LAYOUTSELFREF
360
4DC
  0
DICTIONARY
  5
D
102
{ACAD_REACTORS
330
C
102
}
330
C
100
AcDbDictionary
  0
DICTIONARY
  5
4AF
102
{ACAD_REACTORS
330
C
102
}
330
C
100
AcDbDictionary
  0
DICTIONARY
  5
E
102
{ACAD_REACTORS
330
C
102
}
330
C
100
AcDbDictionary
  3
STANDARD
350
1B
  0
DICTIONARY
  5
4B0
102
{ACAD_REACTORS
330
C
102
}
330
C
100
AcDbDictionary
  0
ACDBDICTIONARYWDFLT
  5
4AD
102
{ACAD_REACTORS
330
C
102
}
330
C
100
AcDbDictionary
281
     1
  3
Normal
350
4AE
100
AcDbDictionaryWithDefault
340
4AE
  0
DICTIONARY
  5
4BB
102
{ACAD_REACTORS
330
C
102
}
330
C
100
AcDbDictionary
  3
CEPSNTYPE
350
4C5
  3
FINGERPRINTGUID
350
4C6
  3
HYPERLINKBASE
350
4BE
  3
INSUNITS
350
4C4
  3
LAYOUTDICT
350
4C0
  3
LWETCUNION
350
4C3
  3
PLOTSETDICT
350
4C1
  3
PLOTSTYLNAMDICT
350
4C2
  3
PSVPSCALE
350
4C8
  3
PUCSBASE
350
4CB
  3
PUCSORGBACK
350
4D1
  3
PUCSORGBOTTOM
350
4CD
  3
PUCSORGFRONT
350
4D0
  3
PUCSORGLEFT
350
4CE
  3
PUCSORGRIGHT
350
4CF
  3
PUCSORGTOP
350
4CC
  3
PUCSORTHOREF
350
4C9
  3
PUCSORTHOVIEW
350
4CA
  3
STYLESHEET
350
4BF
  3
TSTACKALIGN
350
4BC
  3
TSTACKSIZE
350
4BD
  3
UCSBASE
350
4D4
  3
UCSORGBACK
350
4DA
  3
UCSORGBOTTOM
350
4D6
  3
UCSORGFRONT
350
4D9
  3
UCSORGLEFT
350
4D7
  3
UCSORGRIGHT
350
4D8
  3
UCSORGTOP
350
4D5
  3
UCSORTHOREF
350
4D2
  3
UCSORTHOVIEW
350
4D3
  3
VERSIONGUID
350
4C7
  0
DICTIONARY
  5
4B8
102
{ACAD_REACTORS
330
C
102
}
330
C
100
AcDbDictionary
  3
DIMASSOC
350
4B9
  0
XRECORD
  5
4DE
102
{ACAD_REACTORS
330
4DD
102
}
330
4DD
100
AcDbXrecord
340
18
  0
XRECORD
  5
4DC
102
{ACAD_REACTORS
330
4DB
102
}
330
4DB
100
AcDbXrecord
340
15
  0
MLINESTYLE
  5
1B
102
{ACAD_REACTORS
330
E
102
}
330
E
100
AcDbMlineStyle
  2
STANDARD
 70
     0
  3

 62
     0
 51
90.0
 52
90.0
 71
     2
 49
0.5
 62
   256
  6
BYLAYER
 49
-0.5
 62
   256
  6
BYLAYER
  0
ACDBPLACEHOLDER
  5
4AE
102
{ACAD_REACTORS
330
4AD
102
}
330
4AD
100
AcDbPlaceHolder
280
     0
  0
XRECORD
  5
4C5
102
{ACAD_REACTORS
330
4BB
102
}
330
4BB
100
AcDbXrecord
 90
        0
  0
XRECORD
  5
4C6
102
{ACAD_REACTORS
330
4BB
102
}
330
4BB
100
AcDbXrecord
  1
{38C7B810-8DB4-11D6-88E6-0090279574E7}
  0
XRECORD
  5
4BE
102
{ACAD_REACTORS
330
4BB
102
}
330
4BB
100
AcDbXrecord
  1

  0
XRECORD
  5
4C4
102
{ACAD_REACTORS
330
4BB
102
}
330
4BB
100
AcDbXrecord
 90
        0
  0
XRECORD
  5
4C0
102
{ACAD_REACTORS
330
4BB
102
}
330
4BB
100
AcDbXrecord
340
4AF
  0
XRECORD
  5
4C3
102
{ACAD_REACTORS
330
4BB
102
}
330
4BB
100
AcDbXrecord
 90
    14877
  0
XRECORD
  5
4C1
102
{ACAD_REACTORS
330
4BB
102
}
330
4BB
100
AcDbXrecord
340
4B0
  0
XRECORD
  5
4C2
102
{ACAD_REACTORS
330
4BB
102
}
330
4BB
100
AcDbXrecord
340
4AD
  0
XRECORD
  5
4C8
102
{ACAD_REACTORS
330
4BB
102
}
330
4BB
100
AcDbXrecord
 40
0.0
  0
XRECORD
  5
4CB
102
{ACAD_REACTORS
330
4BB
102
}
330
4BB
100
AcDbXrecord
340
0
  0
XRECORD
  5
4D1
102
{ACAD_REACTORS
330
4BB
102
}
330
4BB
100
AcDbXrecord
 10
0.0
 20
0.0
 30
0.0
  0
XRECORD
  5
4CD
102
{ACAD_REACTORS
330
4BB
102
}
330
4BB
100
AcDbXrecord
 10
0.0
 20
0.0
 30
0.0
  0
XRECORD
  5
4D0
102
{ACAD_REACTORS
330
4BB
102
}
330
4BB
100
AcDbXrecord
 10
0.0
 20
0.0
 30
0.0
  0
XRECORD
  5
4CE
102
{ACAD_REACTORS
330
4BB
102
}
330
4BB
100
AcDbXrecord
 10
0.0
 20
0.0
 30
0.0
  0
XRECORD
  5
4CF
102
{ACAD_REACTORS
330
4BB
102
}
330
4BB
100
AcDbXrecord
 10
0.0
 20
0.0
 30
0.0
  0
XRECORD
  5
4CC
102
{ACAD_REACTORS
330
4BB
102
}
330
4BB
100
AcDbXrecord
 10
0.0
 20
0.0
 30
0.0
  0
XRECORD
  5
4C9
102
{ACAD_REACTORS
330
4BB
102
}
330
4BB
100
AcDbXrecord
340
0
  0
XRECORD
  5
4CA
102
{ACAD_REACTORS
330
4BB
102
}
330
4BB
100
AcDbXrecord
 70
     0
  0
XRECORD
  5
4BF
102
{ACAD_REACTORS
330
4BB
102
}
330
4BB
100
AcDbXrecord
  1

  0
XRECORD
  5
4BC
102
{ACAD_REACTORS
330
4BB
102
}
330
4BB
100
AcDbXrecord
 90
        1
  0
XRECORD
  5
4BD
102
{ACAD_REACTORS
330
4BB
102
}
330
4BB
100
AcDbXrecord
 90
       70
  0
XRECORD
  5
4D4
102
{ACAD_REACTORS
330
4BB
102
}
330
4BB
100
AcDbXrecord
340
0
  0
XRECORD
  5
4DA
102
{ACAD_REACTORS
330
4BB
102
}
330
4BB
100
AcDbXrecord
 10
0.0
 20
0.0
 30
0.0
  0
XRECORD
  5
4D6
102
{ACAD_REACTORS
330
4BB
102
}
330
4BB
100
AcDbXrecord
 10
0.0
 20
0.0
 30
0.0
  0
XRECORD
  5
4D9
102
{ACAD_REACTORS
330
4BB
102
}
330
4BB
100
AcDbXrecord
 10
0.0
 20
0.0
 30
0.0
  0
XRECORD
  5
4D7
102
{ACAD_REACTORS
330
4BB
102
}
330
4BB
100
AcDbXrecord
 10
0.0
 20
0.0
 30
0.0
  0
XRECORD
  5
4D8
102
{ACAD_REACTORS
330
4BB
102
}
330
4BB
100
AcDbXrecord
 10
0.0
 20
0.0
 30
0.0
  0
XRECORD
  5
4D5
102
{ACAD_REACTORS
330
4BB
102
}
330
4BB
100
AcDbXrecord
 10
0.0
 20
0.0
 30
0.0
  0
XRECORD
  5
4D2
102
{ACAD_REACTORS
330
4BB
102
}
330
4BB
100
AcDbXrecord
340
0
  0
XRECORD
  5
4D3
102
{ACAD_REACTORS
330
4BB
102
}
330
4BB
100
AcDbXrecord
 70
     0
  0
XRECORD
  5
4C7
102
{ACAD_REACTORS
330
4BB
102
}
330
4BB
100
AcDbXrecord
  1
{38C7B812-8DB4-11D6-88E6-0090279574E7}
  0
DICTIONARYVAR
  5
4B9
102
{ACAD_REACTORS
330
4B8
102
}
330
4B8
100
DictionaryVariables
280
     0
  1
1
  0
ENDSEC
  0
EOF
