  0
SECTION
  2
HEADER
  9
$ACADVER
  1
AC1014
  9
$ACADMAINTVER
 70
     9
  9
$DWGCODEPAGE
  3
ANSI_1252
  9
$INSBASE
 10
0.0
 20
0.0
 30
0.0
  9
$EXTMIN
 10
-0.7436654410926339
 20
0.0091483334487734
 30
0.0
  9
$EXTMAX
 10
2.741553880654494
 20
1.664765929882719
 30
0.0
  9
$LIMMIN
 10
0.0
 20
0.0
  9
$LIMMAX
 10
12.0
 20
9.0
  9
$ORTHOMODE
 70
     1
  9
$REGENMODE
 70
     1
  9
$FILLMODE
 70
     1
  9
$QTEXTMODE
 70
     0
  9
$MIRRTEXT
 70
     0
  9
$DRAGMODE
 70
     2
  9
$LTSCALE
 40
0.5
  9
$OSMODE
 70
    39
  9
$ATTMODE
 70
     1
  9
$TEXTSIZE
 40
0.125
  9
$TRACEWID
 40
0.05
  9
$TEXTSTYLE
  7
ROMANS
  9
$CLAYER
  8
SCALE
  9
$CELTYPE
  6
BYLAYER
  9
$CECOLOR
 62
   256
  9
$CELTSCALE
 40
1.0
  9
$DELOBJ
 70
     1
  9
$DISPSILH
 70
     1
  9
$DIMSCALE
 40
1.0
  9
$DIMASZ
 40
0.125
  9
$DIMEXO
 40
0.125
  9
$DIMDLI
 40
0.38
  9
$DIMRND
 40
0.0
  9
$DIMDLE
 40
0.0
  9
$DIMEXE
 40
0.125
  9
$DIMTP
 40
0.005
  9
$DIMTM
 40
0.005
  9
$DIMTXT
 40
0.125
  9
$DIMCEN
 40
-0.03125
  9
$DIMTSZ
 40
0.0
  9
$DIMTOL
 70
     0
  9
$DIMLIM
 70
     0
  9
$DIMTIH
 70
     1
  9
$DIMTOH
 70
     1
  9
$DIMSE1
 70
     0
  9
$DIMSE2
 70
     0
  9
$DIMTAD
 70
     0
  9
$DIMZIN
 70
     4
  9
$DIMBLK
  1

  9
$DIMASO
 70
     1
  9
$DIMSHO
 70
     1
  9
$DIMPOST
  1

  9
$DIMAPOST
  1

  9
$DIMALT
 70
     0
  9
$DIMALTD
 70
     2
  9
$DIMALTF
 40
25.4
  9
$DIMLFAC
 40
0.5
  9
$DIMTOFL
 70
     0
  9
$DIMTVP
 40
0.0
  9
$DIMTIX
 70
     1
  9
$DIMSOXD
 70
     0
  9
$DIMSAH
 70
     0
  9
$DIMBLK1
  1

  9
$DIMBLK2
  1

  9
$DIMSTYLE
  2
STANDARD
  9
$DIMCLRD
 70
     0
  9
$DIMCLRE
 70
     0
  9
$DIMCLRT
 70
     0
  9
$DIMTFAC
 40
1.0
  9
$DIMGAP
 40
0.09
  9
$DIMJUST
 70
     0
  9
$DIMSD1
 70
     0
  9
$DIMSD2
 70
     0
  9
$DIMTOLJ
 70
     1
  9
$DIMTZIN
 70
     0
  9
$DIMALTZ
 70
     0
  9
$DIMALTTZ
 70
     0
  9
$DIMFIT
 70
     3
  9
$DIMUPT
 70
     0
  9
$DIMUNIT
 70
     2
  9
$DIMDEC
 70
     3
  9
$DIMTDEC
 70
     4
  9
$DIMALTU
 70
     2
  9
$DIMALTTD
 70
     2
  9
$DIMTXSTY
  7
ROMANS
  9
$DIMAUNIT
 70
     0
  9
$LUNITS
 70
     2
  9
$LUPREC
 70
     3
  9
$SKETCHINC
 40
0.1
  9
$FILLETRAD
 40
0.0
  9
$AUNITS
 70
     0
  9
$AUPREC
 70
     0
  9
$MENU
  1
ACAD
  9
$ELEVATION
 40
0.0
  9
$PELEVATION
 40
0.0
  9
$THICKNESS
 40
0.0
  9
$LIMCHECK
 70
     0
  9
$BLIPMODE
 70
     0
  9
$CHAMFERA
 40
0.0
  9
$CHAMFERB
 40
0.0
  9
$CHAMFERC
 40
0.0
  9
$CHAMFERD
 40
0.0
  9
$SKPOLY
 70
     0
  9
$TDCREATE
 40
2448089.502988425
  9
$TDUPDATE
 40
2452458.296522303
  9
$TDINDWG
 40
0.0627851736
  9
$TDUSRTIMER
 40
0.0627851736
  9
$USRTIMER
 70
     1
  9
$ANGBASE
 50
0.0
  9
$ANGDIR
 70
     0
  9
$PDMODE
 70
     0
  9
$PDSIZE
 40
0.0
  9
$PLINEWID
 40
0.0
  9
$COORDS
 70
     2
  9
$SPLFRAME
 70
     0
  9
$SPLINETYPE
 70
     6
  9
$SPLINESEGS
 70
     8
  9
$ATTDIA
 70
     0
  9
$ATTREQ
 70
     1
  9
$HANDLING
 70
 22529
  9
$HANDSEED
  5
3BA
  9
$SURFTAB1
 70
     6
  9
$SURFTAB2
 70
     6
  9
$SURFTYPE
 70
     6
  9
$SURFU
 70
     6
  9
$SURFV
 70
     6
  9
$UCSNAME
  2

  9
$UCSORG
 10
0.0
 20
0.0
 30
0.0
  9
$UCSXDIR
 10
1.0
 20
0.0
 30
0.0
  9
$UCSYDIR
 10
0.0
 20
1.0
 30
0.0
  9
$PUCSNAME
  2

  9
$PUCSORG
 10
0.0
 20
0.0
 30
0.0
  9
$PUCSXDIR
 10
1.0
 20
0.0
 30
0.0
  9
$PUCSYDIR
 10
0.0
 20
1.0
 30
0.0
  9
$USERI1
 70
     0
  9
$USERI2
 70
     0
  9
$USERI3
 70
     0
  9
$USERI4
 70
     0
  9
$USERI5
 70
     0
  9
$USERR1
 40
0.0
  9
$USERR2
 40
0.0
  9
$USERR3
 40
0.0
  9
$USERR4
 40
0.0
  9
$USERR5
 40
0.0
  9
$WORLDVIEW
 70
     1
  9
$SHADEDGE
 70
     3
  9
$SHADEDIF
 70
    70
  9
$TILEMODE
 70
     1
  9
$MAXACTVP
 70
    16
  9
$PINSBASE
 10
0.0
 20
0.0
 30
0.0
  9
$PLIMCHECK
 70
     0
  9
$PEXTMIN
 10
1.000000000000000E+20
 20
1.000000000000000E+20
 30
1.000000000000000E+20
  9
$PEXTMAX
 10
-1.000000000000000E+20
 20
-1.000000000000000E+20
 30
-1.000000000000000E+20
  9
$PLIMMIN
 10
0.0
 20
0.0
  9
$PLIMMAX
 10
12.0
 20
9.0
  9
$UNITMODE
 70
     0
  9
$VISRETAIN
 70
     0
  9
$PLINEGEN
 70
     1
  9
$PSLTSCALE
 70
     0
  9
$TREEDEPTH
 70
  3020
  9
$PICKSTYLE
 70
     1
  9
$CMLSTYLE
  2
STANDARD
  9
$CMLJUST
 70
     0
  9
$CMLSCALE
 40
1.0
  9
$PROXYGRAPHICS
 70
     1
  9
$MEASUREMENT
 70
     0
  0
ENDSEC
  0
SECTION
  2
CLASSES
  0
CLASS
  1
LWPOLYLINE
  2
AcDbPolyline
  3
AutoCAD 2000
 90
        0
280
     0
281
     1
  0
CLASS
  1
ACDBDICTIONARYWDFLT
  2
AcDbDictionaryWithDefault
  3
AutoCAD 2000
 90
        0
280
     0
281
     0
  0
CLASS
  1
ACDBPLACEHOLDER
  2
AcDbPlaceHolder
  3
AutoCAD 2000
 90
        0
280
     0
281
     0
  0
CLASS
  1
LAYOUT
  2
AcDbLayout
  3
AutoCAD 2000
 90
        0
280
     0
281
     0
  0
CLASS
  1
DICTIONARYVAR
  2
AcDbDictionaryVar
  3
AutoCAD 2000
 90
        0
280
     0
281
     0
  0
CLASS
  1
LONG_TRANSACTION
  2
AcDbLongTransaction
  3
AutoCAD 2000
 90
        0
280
     0
281
     0
  0
CLASS
  1
LWPOLYLINE
  2
AcDbPolyline
  3
AutoCAD 2000
 90
        0
280
     0
281
     1
  0
CLASS
  1
HATCH
  2
AcDbHatch
  3
AutoCAD 2000
 90
        0
280
     0
281
     1
  0
CLASS
  1
XRECORD
  2
AcDbXrecord
  3
AutoCAD 2000
 90
        0
280
     0
281
     0
  0
ENDSEC
  0
SECTION
  2
TABLES
  0
TABLE
  2
VPORT
  5
8
330
0
100
AcDbSymbolTable
 70
     2
  0
VPORT
  5
395
330
8
100
AcDbSymbolTableRecord
100
AcDbViewportTableRecord
  2
*ACTIVE
 70
     0
 10
0.0
 20
0.0
 11
1.0
 21
1.0
 12
3.920911153611664
 22
0.8370407844111209
 13
0.0
 23
0.0
 14
0.015625
 24
0.015625
 15
0.125
 25
0.125
 16
0.0
 26
0.0
 36
1.0
 17
0.0
 27
0.0
 37
0.0
 40
2.163588541909629
 41
4.320930232558139
 42
50.0
 43
0.0
 44
0.0
 50
0.0
 51
0.0
 71
     0
 72
  2000
 73
     1
 74
     1
 75
     0
 76
     0
 77
     0
 78
     0
  0
ENDTAB
  0
TABLE
  2
LTYPE
  5
5
330
0
100
AcDbSymbolTable
 70
     1
  0
LTYPE
  5
12
330
5
100
AcDbSymbolTableRecord
100
AcDbLinetypeTableRecord
  2
BYBLOCK
 70
     0
  3

 72
    65
 73
     0
 40
0.0
  0
LTYPE
  5
13
330
5
100
AcDbSymbolTableRecord
100
AcDbLinetypeTableRecord
  2
BYLAYER
 70
     0
  3

 72
    65
 73
     0
 40
0.0
  0
LTYPE
  5
14
330
5
100
AcDbSymbolTableRecord
100
AcDbLinetypeTableRecord
  2
CONTINUOUS
 70
     0
  3
Solid line
 72
    65
 73
     0
 40
0.0
  0
ENDTAB
  0
TABLE
  2
LAYER
  5
2
330
0
100
AcDbSymbolTable
 70
     3
  0
LAYER
  5
F
330
2
100
AcDbSymbolTableRecord
100
AcDbLayerTableRecord
  2
0
 70
     0
 62
     7
  6
CONTINUOUS
  0
LAYER
  5
2C
330
2
100
AcDbSymbolTableRecord
100
AcDbLayerTableRecord
  2
SCALE
 70
     0
 62
     7
  6
CONTINUOUS
  0
LAYER
  5
2E
330
2
100
AcDbSymbolTableRecord
100
AcDbLayerTableRecord
  2
TEXT
 70
     0
 62
     3
  6
CONTINUOUS
  0
ENDTAB
  0
TABLE
  2
STYLE
  5
3
330
0
100
AcDbSymbolTable
 70
     3
  0
STYLE
  5
10
330
3
100
AcDbSymbolTableRecord
100
AcDbTextStyleTableRecord
  2
STANDARD
 70
     0
 40
0.0
 41
1.0
 50
0.0
 71
     0
 42
0.1322418782877452
  3
txt
  4

  0
STYLE
  5
281
330
3
100
AcDbSymbolTableRecord
100
AcDbTextStyleTableRecord
  2
ITALICC
 70
     0
 40
0.0
 41
1.0
 50
0.0
 71
     0
 42
0.125
  3
italicc
  4

  0
STYLE
  5
391
330
3
100
AcDbSymbolTableRecord
100
AcDbTextStyleTableRecord
  2
ROMANS
 70
     0
 40
0.0
 41
1.0
 50
0.0
 71
     0
 42
0.125
  3
romans.shx
  4

  0
ENDTAB
  0
TABLE
  2
VIEW
  5
6
330
0
100
AcDbSymbolTable
 70
     0
  0
ENDTAB
  0
TABLE
  2
UCS
  5
7
330
0
100
AcDbSymbolTable
 70
     0
  0
ENDTAB
  0
TABLE
  2
APPID
  5
9
330
0
100
AcDbSymbolTable
 70
     1
  0
APPID
  5
11
330
9
100
AcDbSymbolTableRecord
100
AcDbRegAppTableRecord
  2
ACAD
 70
     0
  0
ENDTAB
  0
TABLE
  2
DIMSTYLE
  5
A
330
0
100
AcDbSymbolTable
 70
     1
  0
DIMSTYLE
105
275
330
A
100
AcDbSymbolTableRecord
100
AcDbDimStyleTableRecord
  2
STANDARD
 70
     0
  3

  4

  5

  6

  7

 40
1.0
 41
0.18
 42
0.0625
 43
0.38
 44
0.18
 45
0.0
 46
0.0
 47
0.0
 48
0.0
140
0.18
141
0.09
142
0.0
143
25.4
144
1.0
145
0.0
146
1.0
147
0.09
 71
     0
 72
     0
 73
     1
 74
     1
 75
     0
 76
     0
 77
     0
 78
     0
170
     0
171
     2
172
     0
173
     0
174
     0
175
     0
176
     0
177
     0
178
     0
270
     2
271
     4
272
     4
273
     2
274
     2
340
10
275
     0
280
     0
281
     0
282
     0
283
     1
284
     0
285
     0
286
     0
287
     3
288
     0
  0
ENDTAB
  0
TABLE
  2
BLOCK_RECORD
  5
1
330
0
100
AcDbSymbolTable
 70
     0
  0
BLOCK_RECORD
  5
18
102
{ACAD_XDICTIONARY
360
3B8
102
}
330
1
100
AcDbSymbolTableRecord
100
AcDbBlockTableRecord
  2
*MODEL_SPACE
  0
BLOCK_RECORD
  5
15
102
{ACAD_XDICTIONARY
360
3B6
102
}
330
1
100
AcDbSymbolTableRecord
100
AcDbBlockTableRecord
  2
*PAPER_SPACE
  0
ENDTAB
  0
ENDSEC
  0
SECTION
  2
BLOCKS
  0
BLOCK
  5
36
330
18
100
AcDbEntity
  8
0
100
AcDbBlockBegin
  2
*MODEL_SPACE
 70
     0
 10
0.0
 20
0.0
 30
0.0
  3
*MODEL_SPACE
  1

  0
ENDBLK
  5
37
330
18
100
AcDbEntity
  8
0
100
AcDbBlockEnd
  0
BLOCK
  5
34
330
15
100
AcDbEntity
 67
     1
  8
0
100
AcDbBlockBegin
  2
*PAPER_SPACE
 70
     0
 10
0.0
 20
0.0
 30
0.0
  3
*PAPER_SPACE
  1

  0
ENDBLK
  5
35
330
15
100
AcDbEntity
 67
     1
  8
0
100
AcDbBlockEnd
  0
ENDSEC
  0
SECTION
  2
ENTITIES
  0
LWPOLYLINE
  5
226
330
18
100
AcDbEntity
  8
0
100
AcDbPolyline
 90
       22
 70
     1
 43
0.0
 10
0.9067243180244954
 20
0.9772659298827191
 10
0.9067243180244954
 20
1.227265929882719
 10
0.9412311554640282
 20
1.227265929882719
 10
1.021497668352828
 20
1.180924037059456
 42
0.5489171555600083
 10
1.11038242520123
 20
1.092039280211061
 10
1.162655775529572
 20
1.039765929882719
 10
1.219224318024495
 20
1.039765929882719
 10
1.219224318024495
 20
1.096334472377642
 10
1.166950967696159
 20
1.148607822705983
 42
0.548917155560003
 10
1.078066210847757
 20
1.237492579554384
 10
1.031724318024495
 20
1.31775909244318
 10
1.031724318024496
 20
1.352265929882719
 10
1.146724318024497
 20
1.352265929882719
 10
1.156724318024497
 20
1.342265929882719
 10
1.166724318024495
 20
1.352265929882719
 10
1.281724318024495
 20
1.352265929882719
 10
1.281724318024495
 20
1.633515929882718
 42
-0.9999999999999998
 10
1.344224318024497
 20
1.633515929882718
 10
1.344224318024495
 20
0.9697659298827188
 42
-0.4142135623730951
 10
1.289224318024494
 20
0.9147659298827191
 10
0.6254743180244955
 20
0.9147659298827191
 42
-0.9999999999999998
 10
0.6254743180244955
 20
0.9772659298827191
  0
TEXT
  5
307
330
18
100
AcDbEntity
  8
TEXT
100
AcDbText
 10
0.2582447095630806
 20
0.467166937531355
 30
0.0
 40
0.125
  1
PART #110131
  7
ITALICC
 72
     1
 11
0.9993161381345094
 21
0.467166937531355
 31
0.0
100
AcDbText
  0
LINE
  5
308
330
18
100
AcDbEntity
  8
TEXT
100
AcDbLine
 10
1.154630768157892
 20
0.2870899461682867
 30
0.0
 11
1.107532609601908
 21
0.2112246197567487
 31
0.0
  0
LINE
  5
309
330
18
100
AcDbEntity
  8
TEXT
100
AcDbLine
 10
1.107532609601908
 20
0.2112246197567487
 30
0.0
 11
1.107532609601908
 21
0.3525541519358875
 31
0.0
  0
LINE
  5
30A
330
18
100
AcDbEntity
  8
TEXT
100
AcDbLine
 10
1.107532609601908
 20
0.3525541519358875
 30
0.0
 11
1.039217731052635
 21
0.3525541519358875
 31
0.0
  0
LINE
  5
30B
330
18
100
AcDbEntity
  8
TEXT
100
AcDbLine
 10
1.039217731052635
 20
0.3525541519358875
 30
0.0
 11
1.039217731052629
 21
0.2870899461682867
 31
0.0
  0
LINE
  5
30C
330
18
100
AcDbEntity
  8
TEXT
100
AcDbLine
 10
1.165065484921815
 20
0.1771967032273132
 30
0.0
 11
1.229622600887521
 21
0.2870899461682867
 31
0.0
  0
LINE
  5
30D
330
18
100
AcDbEntity
  8
TEXT
100
AcDbLine
 10
1.229622600887521
 20
0.2870899461682867
 30
0.0
 11
1.154630768157894
 21
0.2870899461682867
 31
0.0
  0
LINE
  5
30E
330
18
100
AcDbEntity
  8
TEXT
100
AcDbLine
 10
1.043697618379135
 20
0.0206169131797758
 30
0.0
 11
1.108075802697755
 21
0.0206169131797758
 31
0.0
  0
LINE
  5
30F
330
18
100
AcDbEntity
  8
TEXT
100
AcDbLine
 10
1.108075802697755
 20
0.0206169131797758
 30
0.0
 11
1.108075802697755
 21
0.152196481655956
 31
0.0
  0
LINE
  5
310
330
18
100
AcDbEntity
  8
TEXT
100
AcDbLine
 10
1.108075802697755
 20
0.152196481655956
 30
0.0
 11
1.18397933590922
 21
0.0206169131797758
 31
0.0
  0
LINE
  5
311
330
18
100
AcDbEntity
  8
TEXT
100
AcDbLine
 10
1.18397933590922
 20
0.0206169131797758
 30
0.0
 11
1.260557708285426
 21
0.0206169131797758
 31
0.0
  0
LINE
  5
312
330
18
100
AcDbEntity
  8
TEXT
100
AcDbLine
 10
1.043697618379129
 20
0.2228132515115213
 30
0.0
 11
1.043697618379135
 21
0.0206169131797758
 31
0.0
  0
LINE
  5
313
330
18
100
AcDbEntity
  8
TEXT
100
AcDbLine
 10
1.260557708285426
 20
0.0206169131797758
 30
0.0
 11
1.165065484921815
 21
0.1771967032273132
 31
0.0
  0
ARC
  5
314
330
18
100
AcDbEntity
  8
TEXT
100
AcDbCircle
 10
0.9670496370865713
 20
0.1979073762288586
 30
0.0
 40
0.0249058752826653
100
AcDbArc
 50
89.99971217465335
 51
179.9999999999985
  0
ARC
  5
315
330
18
100
AcDbEntity
  8
TEXT
100
AcDbCircle
 10
0.974938594026149
 20
0.2558442188860219
 30
0.0
 40
0.0314112657011332
100
AcDbArc
 50
95.88484768694724
 51
173.2388340632136
  0
LINE
  5
316
330
18
100
AcDbEntity
  8
TEXT
100
AcDbLine
 10
0.9437457769630404
 20
0.2595422963074121
 30
0.0
 11
0.9437457769630404
 21
0.2870899461682867
 31
0.0
  0
LINE
  5
317
330
18
100
AcDbEntity
  8
TEXT
100
AcDbLine
 10
0.9437457769630404
 20
0.2870899461682867
 30
0.0
 11
0.8798488706635394
 21
0.2870899461682867
 31
0.0
  0
LINE
  5
318
330
18
100
AcDbEntity
  8
TEXT
100
AcDbLine
 10
0.8798488706635394
 20
0.2870899461682867
 30
0.0
 11
0.8798488706635394
 21
0.1818779676148594
 31
0.0
  0
LINE
  5
319
330
18
100
AcDbEntity
  8
TEXT
100
AcDbLine
 10
0.8008889317884984
 20
0.2870899461682867
 30
0.0
 11
0.6660570225714393
 21
0.2870899461682867
 31
0.0
  0
LINE
  5
31A
330
18
100
AcDbEntity
  8
TEXT
100
AcDbLine
 10
0.6660570225714393
 20
0.2870899461682867
 30
0.0
 11
0.6660570225714393
 21
0.2587674003986429
 31
0.0
  0
LINE
  5
31B
330
18
100
AcDbEntity
  8
TEXT
100
AcDbLine
 10
0.7253711189647581
 20
0.185538278049389
 30
0.0
 11
0.8076591087481412
 21
0.185538278049389
 31
0.0
  0
LINE
  5
31C
330
18
100
AcDbEntity
  8
TEXT
100
AcDbLine
 10
0.8076591087481412
 20
0.185538278049389
 30
0.0
 11
0.7973943483345769
 21
0.2067888176220833
 31
0.0
  0
LINE
  5
31D
330
18
100
AcDbEntity
  8
TEXT
100
AcDbLine
 10
0.77185803344402
 20
0.2228132515115213
 30
0.0
 11
0.6646517600567306
 21
0.2228132515115213
 31
0.0
  0
ARC
  5
31E
330
18
100
AcDbEntity
  8
TEXT
100
AcDbCircle
 10
0.7718580334440191
 20
0.194453876511524
 30
0.0
 40
0.028359375
100
AcDbArc
 50
25.78218179591245
 51
90.0
  0
LINE
  5
31F
330
18
100
AcDbEntity
  8
TEXT
100
AcDbLine
 10
0.8798488706635394
 20
0.1818779676148594
 30
0.0
 11
0.8360980994816378
 21
0.2641282436110046
 31
0.0
  0
ARC
  5
320
330
18
100
AcDbEntity
  8
TEXT
100
AcDbCircle
 10
0.79886199201143
 20
0.2455063790473844
 30
0.0
 40
0.0416329381542859
100
AcDbArc
 50
26.56974201007528
 51
87.20939649401342
  0
LWPOLYLINE
  5
321
330
18
100
AcDbEntity
  8
TEXT
100
AcDbPolyline
 90
        2
 70
     0
 43
0.0
 10
0.883788547968578
 20
0.0641078581302139
 42
-0.2901071551932486
 10
0.8407126151009336
 20
0.0206169131797758
 42
-5.328517124445184
  0
LWPOLYLINE
  5
322
330
18
100
AcDbEntity
  8
TEXT
100
AcDbPolyline
 90
        2
 70
     0
 43
0.0
 10
0.883788547968578
 20
0.0641078581302139
 10
0.883788547968578
 20
0.0206169131797758
  0
LWPOLYLINE
  5
323
330
18
100
AcDbEntity
  8
TEXT
100
AcDbPolyline
 90
        2
 70
     0
 43
0.0
 10
0.883788547968578
 20
0.0206169131797758
 10
0.9421437618039121
 20
0.0206169131797758
  0
LWPOLYLINE
  5
324
330
18
100
AcDbEntity
  8
TEXT
100
AcDbPolyline
 90
        2
 70
     0
 43
0.0
 10
0.6636192646019215
 20
0.0641078581302139
 42
0.2901071551932823
 10
0.706695197469557
 20
0.0206169131797758
 42
5.328517124445801
  0
LWPOLYLINE
  5
325
330
18
100
AcDbEntity
  8
TEXT
100
AcDbPolyline
 90
        2
 70
     0
 43
0.0
 10
0.706695197469557
 20
0.0206169131797758
 10
0.8407126151009336
 20
0.0206169131797758
 42
0.9999999999999998
  0
LWPOLYLINE
  5
326
330
18
100
AcDbEntity
  8
TEXT
100
AcDbPolyline
 90
        4
 70
     1
 43
0.0
 10
0.820590150031041
 20
0.123580891163801
 10
0.7319298313711827
 20
0.123580891163801
 42
0.9999999999999998
 10
0.7319298313711827
 20
0.0811823506599403
 10
0.820590150031041
 20
0.0811823506599403
 42
1.0
  0
ARC
  5
327
330
18
100
AcDbEntity
  8
TEXT
100
AcDbCircle
 10
0.7253711189647572
 20
0.1178526969052704
 30
0.0
 40
0.0676855811441166
100
AcDbArc
 50
90.0
 51
153.7768192527749
  0
LINE
  5
328
330
18
100
AcDbEntity
  8
TEXT
100
AcDbLine
 10
0.942143761803913
 20
0.0206169131797758
 30
0.0
 11
0.9421437618039076
 21
0.1979074186112442
 31
0.0
  0
LINE
  5
329
330
18
100
AcDbEntity
  8
TEXT
100
AcDbLine
 10
0.6646517600567306
 20
0.2228132515115213
 30
0.0
 11
0.6646517600567306
 21
0.1477608454373147
 31
0.0
  0
LINE
  5
32A
330
18
100
AcDbEntity
  8
TEXT
100
AcDbLine
 10
0.9670496370865722
 20
0.2228132515115213
 30
0.0
 11
1.043697618379129
 21
0.2228132515115213
 31
0.0
  0
LINE
  5
32B
330
18
100
AcDbEntity
  8
TEXT
100
AcDbLine
 10
1.039217731052629
 20
0.2870899461682867
 30
0.0
 11
0.9717180134031133
 21
0.2870899461682867
 31
0.0
  0
LWPOLYLINE
  5
32C
330
18
100
AcDbEntity
  8
TEXT
100
AcDbPolyline
 90
        2
 70
     0
 43
0.0
 10
0.4588417592790464
 20
0.2228132515115213
 42
-0.4142135623731017
 10
0.4663955484451599
 20
0.2152594623454114
 42
-0.9999999999999998
  0
LWPOLYLINE
  5
32D
330
18
100
AcDbEntity
  8
TEXT
100
AcDbPolyline
 90
        2
 70
     0
 43
0.0
 10
0.5875871921479501
 20
0.2228132515115213
 42
-0.4142135623731017
 10
0.5951409813140636
 20
0.2152594623454114
 42
-0.9999999999999998
  0
LWPOLYLINE
  5
32E
330
18
100
AcDbEntity
  8
TEXT
100
AcDbPolyline
 90
        2
 70
     0
 43
0.0
 10
0.4761934823290677
 20
0.2870899461682903
 42
-0.3328679258950098
 10
0.5119751730422291
 20
0.2599224494073944
 42
6.772930709997214
  0
LWPOLYLINE
  5
32F
330
18
100
AcDbEntity
  8
TEXT
100
AcDbPolyline
 90
        3
 70
     0
 43
0.0
 10
0.6302753318582735
 20
0.2870899461682903
 10
0.5119751730422291
 20
0.2870899461682903
 10
0.5119751730422291
 20
0.2599224494073944
 42
-1.960274751411753
  0
LINE
  5
330
330
18
100
AcDbEntity
  8
TEXT
100
AcDbLine
 10
0.5334535952270008
 20
0.2228132515115213
 30
0.0
 11
0.587587192147951
 21
0.2228132515115213
 31
0.0
  0
LINE
  5
331
330
18
100
AcDbEntity
  8
TEXT
100
AcDbLine
 10
0.4090064794558997
 20
0.2228132515115213
 30
0.0
 11
0.4588417592790473
 21
0.2228132515115213
 31
0.0
  0
LINE
  5
332
330
18
100
AcDbEntity
  8
TEXT
100
AcDbLine
 10
0.4761934823290668
 20
0.2870899461682867
 30
0.0
 11
0.3421754263979304
 21
0.2870899461682867
 31
0.0
  0
LINE
  5
333
330
18
100
AcDbEntity
  8
TEXT
100
AcDbLine
 10
0.4663955484451608
 20
0.0206169131797758
 30
0.0
 11
0.5334535952270008
 21
0.0206169131797758
 31
0.0
  0
LINE
  5
334
330
18
100
AcDbEntity
  8
TEXT
100
AcDbLine
 10
0.311003145756465
 20
0.0206169131797758
 30
0.0
 11
0.4090064794558997
 21
0.0206169131797758
 31
0.0
  0
LINE
  5
335
330
18
100
AcDbEntity
  8
TEXT
100
AcDbLine
 10
0.3421754263979304
 20
0.0862257394358785
 30
0.0
 11
0.3251817895133291
 21
0.0862257394358785
 31
0.0
  0
ARC
  5
336
330
18
100
AcDbEntity
  8
TEXT
100
AcDbCircle
 10
0.3251817895133282
 20
0.101607545679304
 30
0.0
 40
0.0153818062434269
100
AcDbArc
 50
174.7883570302258
 51
270.0
  0
LINE
  5
337
330
18
100
AcDbEntity
  8
TEXT
100
AcDbLine
 10
0.4090064794558997
 20
0.0206169131797758
 30
0.0
 11
0.4090064794558997
 21
0.2228132515115213
 31
0.0
  0
LINE
  5
338
330
18
100
AcDbEntity
  8
TEXT
100
AcDbLine
 10
0.4663955484451608
 20
0.2152594623454114
 30
0.0
 11
0.4663955484451608
 21
0.0206169131797758
 31
0.0
  0
LINE
  5
339
330
18
100
AcDbEntity
  8
TEXT
100
AcDbLine
 10
0.5334535952270008
 20
0.0206169131797758
 30
0.0
 11
0.5334535952270008
 21
0.2228132515115213
 31
0.0
  0
LINE
  5
33A
330
18
100
AcDbEntity
  8
TEXT
100
AcDbLine
 10
0.3421754263979304
 20
0.2870899461682867
 30
0.0
 11
0.3421754263979304
 21
0.0862257394358785
 31
0.0
  0
LINE
  5
33B
330
18
100
AcDbEntity
  8
TEXT
100
AcDbLine
 10
0.3098635722602703
 20
0.103004751282775
 30
0.0
 11
0.3098635722602703
 21
0.3551014239070973
 31
0.0
  0
LINE
  5
33C
330
18
100
AcDbEntity
  8
TEXT
100
AcDbLine
 10
0.2430548596939053
 20
0.3551014239070973
 30
0.0
 11
0.2430548596939053
 21
0.2870899461682867
 31
0.0
  0
LINE
  5
33D
330
18
100
AcDbEntity
  8
TEXT
100
AcDbLine
 10
0.2430548596939053
 20
0.2870899461682867
 30
0.0
 11
0.212932946900529
 21
0.2870899461682867
 31
0.0
  0
LINE
  5
33E
330
18
100
AcDbEntity
  8
TEXT
100
AcDbLine
 10
0.212932946900529
 20
0.2870899461682867
 30
0.0
 11
0.1541843840946635
 21
0.1862179500551662
 31
0.0
  0
LINE
  5
33F
330
18
100
AcDbEntity
  8
TEXT
100
AcDbLine
 10
0.1541843840946635
 20
0.1862179500551662
 30
0.0
 11
0.0955540630627256
 21
0.2870899461682867
 31
0.0
  0
LINE
  5
340
330
18
100
AcDbEntity
  8
TEXT
100
AcDbLine
 10
0.0237550969188183
 20
0.2870899461682867
 30
0.0
 11
0.0237550969188183
 21
0.3214778637624249
 31
0.0
  0
LINE
  5
341
330
18
100
AcDbEntity
  8
TEXT
100
AcDbLine
 10
0.0237550969188183
 20
0.3214778637624249
 30
0.0
 11
-0.0362875079251888
 21
0.3214778637624249
 31
0.0
  0
LINE
  5
342
330
18
100
AcDbEntity
  8
TEXT
100
AcDbLine
 10
-0.0362875079251888
 20
0.3214778637624249
 30
0.0
 11
-0.0362875079251888
 21
0.2870899461682867
 31
0.0
  0
LINE
  5
343
330
18
100
AcDbEntity
  8
TEXT
100
AcDbLine
 10
0.0955540630627256
 20
0.2870899461682867
 30
0.0
 11
0.0237550969188183
 21
0.2870899461682867
 31
0.0
  0
ARC
  5
344
330
18
100
AcDbEntity
  8
TEXT
100
AcDbCircle
 10
0.1105405871854952
 20
0.0601646354534715
 30
0.0
 40
0.0392772371940762
100
AcDbArc
 50
270.1604552698595
 51
330.0831797321295
  0
ARC
  5
345
330
18
100
AcDbEntity
  8
TEXT
100
AcDbCircle
 10
0.0202397412932705
 20
0.0804093045178256
 30
0.0
 40
0.0601160179737537
100
AcDbArc
 50
180.0000000000003
 51
264.0521544866073
  0
LINE
  5
346
330
18
100
AcDbEntity
  8
TEXT
100
AcDbLine
 10
0.014010330799624
 20
0.0206169131797758
 30
0.0
 11
0.1106505818746184
 21
0.0208875522780581
 31
0.0
  0
LWPOLYLINE
  5
347
330
18
100
AcDbEntity
  8
TEXT
100
AcDbPolyline
 90
        6
 70
     1
 43
0.0
 10
0.0565341343747736
 20
0.2228132515115213
 10
0.0262175401545655
 20
0.2228132515115213
 10
0.0262175401545655
 20
0.099702253456627
 42
0.407328721240804
 10
0.0377611913160418
 20
0.0878833387802409
 10
0.0983828903607727
 20
0.0878833387802409
 10
0.1158482307680906
 20
0.12069556782372
  0
LINE
  5
348
330
18
100
AcDbEntity
  8
TEXT
100
AcDbLine
 10
-0.0398762766804817
 20
0.2228132515115213
 30
0.0
 11
-0.0398762766804817
 21
0.0804093045178256
 31
0.0
  0
LINE
  5
349
330
18
100
AcDbEntity
  8
TEXT
100
AcDbLine
 10
0.1445841470977092
 20
0.0405754192847887
 30
0.0
 11
0.2418838531911538
 21
0.2049256302200568
 31
0.0
  0
LINE
  5
34A
330
18
100
AcDbEntity
  8
TEXT
100
AcDbLine
 10
0.2418838531911538
 20
0.2049256302200568
 30
0.0
 11
0.2418838531911538
 21
0.0721682553947005
 31
0.0
  0
LWPOLYLINE
  5
34B
330
18
100
AcDbEntity
  8
TEXT
100
AcDbPolyline
 90
        2
 70
     0
 43
0.0
 10
0.2418838531911529
 20
0.0721682553947041
 42
0.3318488747599744
 10
0.3110031457564659
 20
0.0206169131797758
 42
-6.868794160588311
  0
LINE
  5
34C
330
18
100
AcDbEntity
  8
TEXT
100
AcDbLine
 10
0.3098635722602703
 20
0.3551014239070973
 30
0.0
 11
0.2430548596939053
 21
0.3551014239070973
 31
0.0
  0
LWPOLYLINE
  5
34D
330
18
100
AcDbEntity
  8
TEXT
100
AcDbPolyline
 90
        4
 70
     0
 43
0.0
 10
0.5951409813140636
 20
0.2152594623454114
 10
0.5951409813140636
 20
0.0206169131797758
 10
0.6636192646019215
 20
0.0206169131797758
 10
0.6636192646019215
 20
0.0641078581302139
 42
-1.714843617202739
  0
LWPOLYLINE
  5
34E
330
18
100
AcDbEntity
  8
TEXT
100
AcDbPolyline
 90
        2
 70
     0
 43
0.0
 10
0.6302753318582735
 20
0.2870899461682903
 42
-0.3277054968067132
 10
0.6660570225714384
 20
0.2587674003986464
 42
6.667889725900311
  0
TEXT
  5
34F
330
18
100
AcDbEntity
  8
TEXT
100
AcDbText
 10
1.412621296384831
 20
0.113502721825272
 30
0.0
 40
0.0522247191011236
  1
Minneapolis, MN 55432-0008
 41
1.11444212721585
 72
     5
 11
2.741553880654494
 21
0.113502721825272
 31
0.0
100
AcDbText
  0
TEXT
  5
350
330
18
100
AcDbEntity
  8
TEXT
100
AcDbText
 10
1.412621296384831
 20
0.2067611487915641
 30
0.0
 40
0.0522247191011236
  1
6536 Main St. N.E. * P.O. Box 32008
 41
0.8388932496075353
 72
     5
 11
2.741553880654494
 21
0.2067611487915641
 31
0.0
100
AcDbText
  0
TEXT
  5
351
330
18
100
AcDbEntity
  8
TEXT
100
AcDbText
 10
1.412621296384831
 20
0.3000195757578563
 30
0.0
 40
0.0522247191011236
  1
Stylmark  Incorporated
 41
1.221428571428571
 72
     5
 11
2.741553880654494
 21
0.3000195757578563
 31
0.0
100
AcDbText
  0
TEXT
  5
352
330
18
100
AcDbEntity
  8
TEXT
100
AcDbText
 10
1.412621296384831
 20
0.0202442948589798
 30
0.0
 40
0.0522247191011236
  1
Phone  1-800-328-2495
 41
1.272321428571429
 72
     5
 11
2.741553880654494
 21
0.0202442948589798
 31
0.0
100
AcDbText
  0
LINE
  5
353
330
18
100
AcDbEntity
  8
TEXT
100
AcDbLine
 10
-0.141181794465151
 20
0.1870085299008934
 30
0.0
 11
-0.206781930709452
 21
0.1870085299008934
 31
0.0
  0
ARC
  5
354
330
18
100
AcDbEntity
  8
TEXT
100
AcDbCircle
 10
-0.206781930709452
 20
0.2049108907062092
 30
0.0
 40
0.017902360805315
100
AcDbArc
 50
90.0
 51
270.0
  0
LINE
  5
355
330
18
100
AcDbEntity
  8
TEXT
100
AcDbLine
 10
-0.2120192608237001
 20
0.1229150272752797
 30
0.0
 11
-0.1362414205588713
 21
0.1229150272752797
 31
0.0
  0
LINE
  5
356
330
18
100
AcDbEntity
  8
TEXT
100
AcDbLine
 10
-0.1362414205588713
 20
0.0889739195132151
 30
0.0
 11
-0.2941067202702054
 21
0.0889739195132151
 31
0.0
  0
LINE
  5
357
330
18
100
AcDbEntity
  8
TEXT
100
AcDbLine
 10
-0.2941067202702037
 20
0.0206169131797758
 30
0.0
 11
-0.141181794465151
 21
0.0206169131797758
 31
0.0
  0
ARC
  5
358
330
18
100
AcDbEntity
  8
TEXT
100
AcDbCircle
 10
-0.2120192608237001
 20
0.205002486721785
 30
0.0
 40
0.0820874594465043
100
AcDbArc
 50
90.0
 51
270.0
  0
LINE
  5
359
330
18
100
AcDbEntity
  8
TEXT
100
AcDbLine
 10
-0.0362875079251888
 20
0.2870899461682867
 30
0.0
 11
-0.2120192608237001
 21
0.2870899461682867
 31
0.0
  0
ARC
  5
35A
330
18
100
AcDbEntity
  8
TEXT
100
AcDbCircle
 10
-0.1362414205588713
 20
0.1059444733942492
 30
0.0
 40
0.0169705538810321
100
AcDbArc
 50
270.0
 51
90.0
  0
ARC
  5
35B
330
18
100
AcDbEntity
  8
TEXT
100
AcDbCircle
 10
-0.141181794465151
 20
0.1038127215403328
 30
0.0
 40
0.0831958083605586
100
AcDbArc
 50
270.0
 51
90.0
  0
LINE
  5
35C
330
18
100
AcDbEntity
  8
TEXT
100
AcDbLine
 10
-0.206781930709452
 20
0.2228132515115213
 30
0.0
 11
-0.0398762766804817
 21
0.2228132515115213
 31
0.0
  0
LWPOLYLINE
  5
35D
330
18
100
AcDbEntity
  8
TEXT
100
AcDbPolyline
 90
        2
 70
     0
 43
0.0006660908203125
 10
-0.5035397003699789
 20
0.1738545067151627
 10
-0.4768960675574779
 20
0.1738545067151627
  0
LINE
  5
35E
330
18
100
AcDbEntity
  8
TEXT
100
AcDbLine
 10
-0.2941067202702054
 20
0.0889739195132151
 30
0.0
 11
-0.2941067202702037
 21
0.0206169131797758
 31
0.0
  0
LWPOLYLINE
  5
35F
330
18
100
AcDbEntity
  8
TEXT
100
AcDbPolyline
 90
        2
 70
     0
 43
0.0006660908203125
 10
-0.5035397003699789
 20
0.1338890574964147
 10
-0.4768960675574779
 20
0.1338890574964147
  0
LWPOLYLINE
  5
360
330
18
100
AcDbEntity
  8
TEXT
100
AcDbPolyline
 90
        2
 70
     0
 43
0.0001332181640625
 10
-0.5901315070106037
 20
0.2870899461682903
 10
-0.6001228693152925
 20
0.2138199559339107
  0
LWPOLYLINE
  5
361
330
18
100
AcDbEntity
  8
TEXT
100
AcDbPolyline
 90
        2
 70
     0
 43
0.0001332181640625
 10
-0.5901315070106037
 20
0.2604463133557893
 10
-0.6001228693152925
 20
0.2004981395276637
  0
LWPOLYLINE
  5
362
330
18
100
AcDbEntity
  8
TEXT
100
AcDbPolyline
 90
        2
 70
     0
 43
0.0006660908203125
 10
-0.5901315070106037
 20
0.2604463133557893
 10
-0.5901315070106037
 20
0.2870899461682903
  0
LWPOLYLINE
  5
363
330
18
100
AcDbEntity
  8
TEXT
100
AcDbPolyline
 90
        5
 70
     0
 43
0.0001332181640625
 10
-0.6001228693152925
 20
0.2138199559339107
 10
-0.6001228693152925
 20
0.2004981395276637
 10
-0.5634878741981027
 20
0.2004981395276637
 10
-0.5634878741981027
 20
0.1638631444104739
 10
-0.5501660577918539
 20
0.1638631444104739
  0
LWPOLYLINE
  5
364
330
18
100
AcDbEntity
  8
TEXT
100
AcDbPolyline
 90
        2
 70
     0
 43
0.0001332181640625
 10
-0.6300969562293553
 20
0.2604463133557893
 10
-0.6201055939246647
 20
0.2004981395276637
  0
LWPOLYLINE
  5
365
330
18
100
AcDbEntity
  8
TEXT
100
AcDbPolyline
 90
        2
 70
     0
 43
0.0001332181640625
 10
-0.6201055939246647
 20
0.2138199559339107
 10
-0.6300969562293553
 20
0.2870899461682903
  0
LWPOLYLINE
  5
366
330
18
100
AcDbEntity
  8
TEXT
100
AcDbPolyline
 90
        2
 70
     0
 43
0.0006660908203125
 10
-0.6300969562293553
 20
0.2604463133557893
 10
-0.6300969562293553
 20
0.2870899461682903
  0
LWPOLYLINE
  5
367
330
18
100
AcDbEntity
  8
TEXT
100
AcDbPolyline
 90
        5
 70
     0
 43
0.0001332181640625
 10
-0.6700624054481033
 20
0.1638631444104739
 10
-0.6567405890418545
 20
0.1638631444104739
 10
-0.6567405890418545
 20
0.2004981395276637
 10
-0.6201055939246647
 20
0.2004981395276637
 10
-0.6201055939246647
 20
0.2138199559339107
  0
LWPOLYLINE
  5
368
330
18
100
AcDbEntity
  8
TEXT
100
AcDbPolyline
 90
        2
 70
     0
 43
0.0006660908203125
 10
-0.7166887628699801
 20
0.1738545067151627
 10
-0.7433323956824776
 20
0.1738545067151627
  0
LWPOLYLINE
  5
369
330
18
100
AcDbEntity
  8
TEXT
100
AcDbPolyline
 90
        2
 70
     0
 43
0.0001332181640625
 10
-0.7433323956824776
 20
0.1738545067151627
 10
-0.6700624054481033
 20
0.1638631444104739
  0
LWPOLYLINE
  5
36A
330
18
100
AcDbEntity
  8
TEXT
100
AcDbPolyline
 90
        2
 70
     0
 43
0.0001332181640625
 10
-0.7166887628699801
 20
0.1738545067151627
 10
-0.6567405890418545
 20
0.1638631444104739
  0
LWPOLYLINE
  5
36B
330
18
100
AcDbEntity
  8
TEXT
100
AcDbPolyline
 90
        2
 70
     0
 43
0.0001332181640625
 10
-0.7166887628699801
 20
0.2604463133557893
 10
-0.6567405890418545
 20
0.2004981395276637
  0
LWPOLYLINE
  5
36C
330
18
100
AcDbEntity
  8
TEXT
100
AcDbPolyline
 90
        3
 70
     0
 43
0.0006660908203125
 10
-0.6300969562293553
 20
0.2604463133557893
 10
-0.7166887628699801
 20
0.2604463133557893
 10
-0.7166887628699801
 20
0.1738545067151627
  0
LWPOLYLINE
  5
36D
330
18
100
AcDbEntity
  8
TEXT
100
AcDbPolyline
 90
        3
 70
     0
 43
0.0006660908203125
 10
-0.6300969562293553
 20
0.2870899461682903
 10
-0.7433323956824776
 20
0.2870899461682903
 10
-0.7433323956824776
 20
0.1738545067151627
  0
LWPOLYLINE
  5
36E
330
18
100
AcDbEntity
  8
TEXT
100
AcDbPolyline
 90
        5
 70
     0
 43
0.0001332181640625
 10
-0.5501660577918539
 20
0.1438804198010999
 10
-0.5634878741981027
 20
0.1438804198010999
 10
-0.5634878741981027
 20
0.1072454246839136
 10
-0.6001228693152925
 20
0.1072454246839136
 10
-0.6001228693152925
 20
0.0939236082776631
  0
LWPOLYLINE
  5
36F
330
18
100
AcDbEntity
  8
TEXT
100
AcDbPolyline
 90
        2
 70
     0
 43
0.0006660908203125
 10
-0.5901315070106037
 20
0.0472972508557881
 10
-0.5901315070106037
 20
0.020653618043287
  0
LWPOLYLINE
  5
370
330
18
100
AcDbEntity
  8
TEXT
100
AcDbPolyline
 90
        2
 70
     0
 43
0.0001332181640625
 10
-0.6001228693152925
 20
0.0939236082776631
 10
-0.5901315070106037
 20
0.020653618043287
  0
LWPOLYLINE
  5
371
330
18
100
AcDbEntity
  8
TEXT
100
AcDbPolyline
 90
        2
 70
     0
 43
0.0001332181640625
 10
-0.5901315070106037
 20
0.0472972508557881
 10
-0.6001228693152925
 20
0.1072454246839136
  0
LWPOLYLINE
  5
372
330
18
100
AcDbEntity
  8
TEXT
100
AcDbPolyline
 90
        2
 70
     0
 43
0.0001332181640625
 10
-0.6300969562293553
 20
0.020653618043287
 10
-0.6201055939246647
 20
0.0939236082776631
  0
LWPOLYLINE
  5
373
330
18
100
AcDbEntity
  8
TEXT
100
AcDbPolyline
 90
        2
 70
     0
 43
0.0001332181640625
 10
-0.6300969562293553
 20
0.0472972508557881
 10
-0.6201055939246647
 20
0.1072454246839136
  0
LWPOLYLINE
  5
374
330
18
100
AcDbEntity
  8
TEXT
100
AcDbPolyline
 90
        2
 70
     0
 43
0.0006660908203125
 10
-0.6300969562293553
 20
0.0472972508557881
 10
-0.6300969562293553
 20
0.020653618043287
  0
LWPOLYLINE
  5
375
330
18
100
AcDbEntity
  8
TEXT
100
AcDbPolyline
 90
        5
 70
     0
 43
0.0001332181640625
 10
-0.6201055939246647
 20
0.0939236082776631
 10
-0.6201055939246647
 20
0.1072454246839136
 10
-0.6567405890418528
 20
0.1072454246839136
 10
-0.6567405890418528
 20
0.1438804198010999
 10
-0.6700624054481033
 20
0.1438804198010999
  0
LWPOLYLINE
  5
376
330
18
100
AcDbEntity
  8
TEXT
100
AcDbPolyline
 90
        2
 70
     0
 43
0.0006660908203125
 10
-0.7166887628699801
 20
0.1338890574964147
 10
-0.7433323956824776
 20
0.1338890574964147
  0
LWPOLYLINE
  5
377
330
18
100
AcDbEntity
  8
TEXT
100
AcDbPolyline
 90
        2
 70
     0
 43
0.0001332181640625
 10
-0.7166887628699801
 20
0.0472972508557881
 10
-0.6567405890418528
 20
0.1072454246839136
  0
LWPOLYLINE
  5
378
330
18
100
AcDbEntity
  8
TEXT
100
AcDbPolyline
 90
        2
 70
     0
 43
0.0001332181640625
 10
-0.7166887628699801
 20
0.1338890574964147
 10
-0.6567405890418528
 20
0.1438804198010999
  0
LWPOLYLINE
  5
379
330
18
100
AcDbEntity
  8
TEXT
100
AcDbPolyline
 90
        2
 70
     0
 43
0.0001332181640625
 10
-0.6700624054481033
 20
0.1438804198010999
 10
-0.7433323956824776
 20
0.1338890574964147
  0
LWPOLYLINE
  5
37A
330
18
100
AcDbEntity
  8
TEXT
100
AcDbPolyline
 90
        3
 70
     0
 43
0.0006660908203125
 10
-0.7166887628699801
 20
0.1338890574964147
 10
-0.7166887628699801
 20
0.0472972508557881
 10
-0.6300969562293553
 20
0.0472972508557881
  0
LWPOLYLINE
  5
37B
330
18
100
AcDbEntity
  8
TEXT
100
AcDbPolyline
 90
        3
 70
     0
 43
0.0006660908203125
 10
-0.7433323956824776
 20
0.1338890574964147
 10
-0.7433323956824776
 20
0.020653618043287
 10
-0.6300969562293553
 20
0.020653618043287
  0
LWPOLYLINE
  5
37C
330
18
100
AcDbEntity
  8
TEXT
100
AcDbPolyline
 90
        3
 70
     0
 43
0.0006660908203125
 10
-0.5901315070106037
 20
0.020653618043287
 10
-0.4768960675574779
 20
0.020653618043287
 10
-0.4768960675574779
 20
0.1338890574964147
  0
LWPOLYLINE
  5
37D
330
18
100
AcDbEntity
  8
TEXT
100
AcDbPolyline
 90
        3
 70
     0
 43
0.0006660908203125
 10
-0.5901315070106037
 20
0.0472972508557881
 10
-0.5035397003699789
 20
0.0472972508557881
 10
-0.5035397003699789
 20
0.1338890574964147
  0
LWPOLYLINE
  5
37E
330
18
100
AcDbEntity
  8
TEXT
100
AcDbPolyline
 90
        2
 70
     0
 43
0.0001332181640625
 10
-0.5035397003699789
 20
0.0472972508557881
 10
-0.5634878741981027
 20
0.1072454246839136
  0
LWPOLYLINE
  5
37F
330
18
100
AcDbEntity
  8
TEXT
100
AcDbPolyline
 90
        2
 70
     0
 43
0.0001332181640625
 10
-0.5035397003699789
 20
0.1338890574964147
 10
-0.5634878741981027
 20
0.1438804198010999
  0
LWPOLYLINE
  5
380
330
18
100
AcDbEntity
  8
TEXT
100
AcDbPolyline
 90
        2
 70
     0
 43
0.0001332181640625
 10
-0.4768960675574779
 20
0.1338890574964147
 10
-0.5501660577918539
 20
0.1438804198010999
  0
LWPOLYLINE
  5
381
330
18
100
AcDbEntity
  8
TEXT
100
AcDbPolyline
 90
        2
 70
     0
 43
0.0001332181640625
 10
-0.5035397003699789
 20
0.2604463133557893
 10
-0.5634878741981027
 20
0.2004981395276637
  0
LWPOLYLINE
  5
382
330
18
100
AcDbEntity
  8
TEXT
100
AcDbPolyline
 90
        2
 70
     0
 43
0.0001332181640625
 10
-0.5035397003699789
 20
0.1738545067151627
 10
-0.5634878741981027
 20
0.1638631444104739
  0
LWPOLYLINE
  5
383
330
18
100
AcDbEntity
  8
TEXT
100
AcDbPolyline
 90
        2
 70
     0
 43
0.0001332181640625
 10
-0.5501660577918539
 20
0.1638631444104739
 10
-0.4768960675574779
 20
0.1738545067151627
  0
LWPOLYLINE
  5
384
330
18
100
AcDbEntity
  8
TEXT
100
AcDbPolyline
 90
        3
 70
     0
 43
0.0006660908203125
 10
-0.5035397003699789
 20
0.1738545067151627
 10
-0.5035397003699789
 20
0.2604463133557893
 10
-0.5901315070106037
 20
0.2604463133557893
  0
LWPOLYLINE
  5
385
330
18
100
AcDbEntity
  8
TEXT
100
AcDbPolyline
 90
        3
 70
     0
 43
0.0006660908203125
 10
-0.4768960675574779
 20
0.1738545067151627
 10
-0.4768960675574779
 20
0.2870899461682903
 10
-0.5901315070106037
 20
0.2870899461682903
  0
ENDSEC
  0
SECTION
  2
OBJECTS
  0
DICTIONARY
  5
C
330
0
100
AcDbDictionary
  3
ACAD_GROUP
350
D
  3
ACAD_LAYOUT
350
38A
  3
ACAD_MLINESTYLE
350
E
  3
ACAD_PLOTSETTINGS
350
38B
  3
ACAD_PLOTSTYLENAME
350
388
  3
ACDBHEADERROUNDTRIPXREC
350
396
  3
ACDBVARIABLEDICTIONARY
350
393
  0
DICTIONARY
  5
3B8
330
18
100
AcDbDictionary
280
     1
  3
ACAD_LAYOUTSELFREF
360
3B9
  0
DICTIONARY
  5
3B6
330
15
100
AcDbDictionary
280
     1
  3
ACAD_LAYOUTSELFREF
360
3B7
  0
DICTIONARY
  5
D
102
{ACAD_REACTORS
330
C
102
}
330
C
100
AcDbDictionary
  0
DICTIONARY
  5
38A
102
{ACAD_REACTORS
330
C
102
}
330
C
100
AcDbDictionary
  0
DICTIONARY
  5
E
102
{ACAD_REACTORS
330
C
102
}
330
C
100
AcDbDictionary
  3
STANDARD
350
1B
  0
DICTIONARY
  5
38B
102
{ACAD_REACTORS
330
C
102
}
330
C
100
AcDbDictionary
  0
ACDBDICTIONARYWDFLT
  5
388
102
{ACAD_REACTORS
330
C
102
}
330
C
100
AcDbDictionary
281
     1
  3
Normal
350
389
100
AcDbDictionaryWithDefault
340
389
  0
DICTIONARY
  5
396
102
{ACAD_REACTORS
330
C
102
}
330
C
100
AcDbDictionary
  3
CEPSNTYPE
350
3A0
  3
FINGERPRINTGUID
350
3A1
  3
HYPERLINKBASE
350
399
  3
INSUNITS
350
39F
  3
LAYOUTDICT
350
39B
  3
LWETCUNION
350
39E
  3
PLOTSETDICT
350
39C
  3
PLOTSTYLNAMDICT
350
39D
  3
PSVPSCALE
350
3A3
  3
PUCSBASE
350
3A6
  3
PUCSORGBACK
350
3AC
  3
PUCSORGBOTTOM
350
3A8
  3
PUCSORGFRONT
350
3AB
  3
PUCSORGLEFT
350
3A9
  3
PUCSORGRIGHT
350
3AA
  3
PUCSORGTOP
350
3A7
  3
PUCSORTHOREF
350
3A4
  3
PUCSORTHOVIEW
350
3A5
  3
STYLESHEET
350
39A
  3
TSTACKALIGN
350
397
  3
TSTACKSIZE
350
398
  3
UCSBASE
350
3AF
  3
UCSORGBACK
350
3B5
  3
UCSORGBOTTOM
350
3B1
  3
UCSORGFRONT
350
3B4
  3
UCSORGLEFT
350
3B2
  3
UCSORGRIGHT
350
3B3
  3
UCSORGTOP
350
3B0
  3
UCSORTHOREF
350
3AD
  3
UCSORTHOVIEW
350
3AE
  3
VERSIONGUID
350
3A2
  0
DICTIONARY
  5
393
102
{ACAD_REACTORS
330
C
102
}
330
C
100
AcDbDictionary
  3
DIMASSOC
350
394
  0
XRECORD
  5
3B9
102
{ACAD_REACTORS
330
3B8
102
}
330
3B8
100
AcDbXrecord
340
18
  0
XRECORD
  5
3B7
102
{ACAD_REACTORS
330
3B6
102
}
330
3B6
100
AcDbXrecord
340
15
  0
MLINESTYLE
  5
1B
102
{ACAD_REACTORS
330
E
102
}
330
E
100
AcDbMlineStyle
  2
STANDARD
 70
     0
  3

 62
     0
 51
90.0
 52
90.0
 71
     2
 49
0.5
 62
   256
  6
BYLAYER
 49
-0.5
 62
   256
  6
BYLAYER
  0
ACDBPLACEHOLDER
  5
389
102
{ACAD_REACTORS
330
388
102
}
330
388
100
AcDbPlaceHolder
280
     0
  0
XRECORD
  5
3A0
102
{ACAD_REACTORS
330
396
102
}
330
396
100
AcDbXrecord
 90
        0
  0
XRECORD
  5
3A1
102
{ACAD_REACTORS
330
396
102
}
330
396
100
AcDbXrecord
  1
{348F5E80-8DB4-11D6-88E6-0090279574E7}
  0
XRECORD
  5
399
102
{ACAD_REACTORS
330
396
102
}
330
396
100
AcDbXrecord
  1

  0
XRECORD
  5
39F
102
{ACAD_REACTORS
330
396
102
}
330
396
100
AcDbXrecord
 90
        0
  0
XRECORD
  5
39B
102
{ACAD_REACTORS
330
396
102
}
330
396
100
AcDbXrecord
340
38A
  0
XRECORD
  5
39E
102
{ACAD_REACTORS
330
396
102
}
330
396
100
AcDbXrecord
 90
    14877
  0
XRECORD
  5
39C
102
{ACAD_REACTORS
330
396
102
}
330
396
100
AcDbXrecord
340
38B
  0
XRECORD
  5
39D
102
{ACAD_REACTORS
330
396
102
}
330
396
100
AcDbXrecord
340
388
  0
XRECORD
  5
3A3
102
{ACAD_REACTORS
330
396
102
}
330
396
100
AcDbXrecord
 40
0.0
  0
XRECORD
  5
3A6
102
{ACAD_REACTORS
330
396
102
}
330
396
100
AcDbXrecord
340
0
  0
XRECORD
  5
3AC
102
{ACAD_REACTORS
330
396
102
}
330
396
100
AcDbXrecord
 10
0.0
 20
0.0
 30
0.0
  0
XRECORD
  5
3A8
102
{ACAD_REACTORS
330
396
102
}
330
396
100
AcDbXrecord
 10
0.0
 20
0.0
 30
0.0
  0
XRECORD
  5
3AB
102
{ACAD_REACTORS
330
396
102
}
330
396
100
AcDbXrecord
 10
0.0
 20
0.0
 30
0.0
  0
XRECORD
  5
3A9
102
{ACAD_REACTORS
330
396
102
}
330
396
100
AcDbXrecord
 10
0.0
 20
0.0
 30
0.0
  0
XRECORD
  5
3AA
102
{ACAD_REACTORS
330
396
102
}
330
396
100
AcDbXrecord
 10
0.0
 20
0.0
 30
0.0
  0
XRECORD
  5
3A7
102
{ACAD_REACTORS
330
396
102
}
330
396
100
AcDbXrecord
 10
0.0
 20
0.0
 30
0.0
  0
XRECORD
  5
3A4
102
{ACAD_REACTORS
330
396
102
}
330
396
100
AcDbXrecord
340
0
  0
XRECORD
  5
3A5
102
{ACAD_REACTORS
330
396
102
}
330
396
100
AcDbXrecord
 70
     0
  0
XRECORD
  5
39A
102
{ACAD_REACTORS
330
396
102
}
330
396
100
AcDbXrecord
  1

  0
XRECORD
  5
397
102
{ACAD_REACTORS
330
396
102
}
330
396
100
AcDbXrecord
 90
        1
  0
XRECORD
  5
398
102
{ACAD_REACTORS
330
396
102
}
330
396
100
AcDbXrecord
 90
       70
  0
XRECORD
  5
3AF
102
{ACAD_REACTORS
330
396
102
}
330
396
100
AcDbXrecord
340
0
  0
XRECORD
  5
3B5
102
{ACAD_REACTORS
330
396
102
}
330
396
100
AcDbXrecord
 10
0.0
 20
0.0
 30
0.0
  0
XRECORD
  5
3B1
102
{ACAD_REACTORS
330
396
102
}
330
396
100
AcDbXrecord
 10
0.0
 20
0.0
 30
0.0
  0
XRECORD
  5
3B4
102
{ACAD_REACTORS
330
396
102
}
330
396
100
AcDbXrecord
 10
0.0
 20
0.0
 30
0.0
  0
XRECORD
  5
3B2
102
{ACAD_REACTORS
330
396
102
}
330
396
100
AcDbXrecord
 10
0.0
 20
0.0
 30
0.0
  0
XRECORD
  5
3B3
102
{ACAD_REACTORS
330
396
102
}
330
396
100
AcDbXrecord
 10
0.0
 20
0.0
 30
0.0
  0
XRECORD
  5
3B0
102
{ACAD_REACTORS
330
396
102
}
330
396
100
AcDbXrecord
 10
0.0
 20
0.0
 30
0.0
  0
XRECORD
  5
3AD
102
{ACAD_REACTORS
330
396
102
}
330
396
100
AcDbXrecord
340
0
  0
XRECORD
  5
3AE
102
{ACAD_REACTORS
330
396
102
}
330
396
100
AcDbXrecord
 70
     0
  0
XRECORD
  5
3A2
102
{ACAD_REACTORS
330
396
102
}
330
396
100
AcDbXrecord
  1
{348F5E82-8DB4-11D6-88E6-0090279574E7}
  0
DICTIONARYVAR
  5
394
102
{ACAD_REACTORS
330
393
102
}
330
393
100
DictionaryVariables
280
     0
  1
1
  0
ENDSEC
  0
EOF
