  0
SECTION
  2
HEADER
  9
$ACADVER
  1
AC1014
  9
$ACADMAINTVER
 70
     9
  9
$DWGCODEPAGE
  3
ANSI_1252
  9
$INSBASE
 10
0.0
 20
0.0
 30
0.0
  9
$EXTMIN
 10
16.2770971706309
 20
0.377458894413989
 30
0.0
  9
$EXTMAX
 10
19.76231649237806
 20
2.376567628976052
 30
0.0
  9
$LIMMIN
 10
0.0
 20
0.0
  9
$LIMMAX
 10
8.5
 20
11.0
  9
$ORTHOMODE
 70
     1
  9
$REGENMODE
 70
     1
  9
$FILLMODE
 70
     1
  9
$QTEXTMODE
 70
     0
  9
$MIRRTEXT
 70
     0
  9
$DRAGMODE
 70
     2
  9
$LTSCALE
 40
0.5
  9
$OSMODE
 70
    39
  9
$ATTMODE
 70
     1
  9
$TEXTSIZE
 40
0.125
  9
$TRACEWID
 40
0.05
  9
$TEXTSTYLE
  7
ROMANS
  9
$CLAYER
  8
TEXT
  9
$CELTYPE
  6
BYLAYER
  9
$CECOLOR
 62
   256
  9
$CELTSCALE
 40
1.0
  9
$DELOBJ
 70
     1
  9
$DISPSILH
 70
     1
  9
$DIMSCALE
 40
1.0
  9
$DIMASZ
 40
0.125
  9
$DIMEXO
 40
0.125
  9
$DIMDLI
 40
0.375
  9
$DIMRND
 40
0.0
  9
$DIMDLE
 40
0.0
  9
$DIMEXE
 40
0.125
  9
$DIMTP
 40
0.005
  9
$DIMTM
 40
0.005
  9
$DIMTXT
 40
0.125
  9
$DIMCEN
 40
-0.125
  9
$DIMTSZ
 40
0.0
  9
$DIMTOL
 70
     0
  9
$DIMLIM
 70
     0
  9
$DIMTIH
 70
     1
  9
$DIMTOH
 70
     1
  9
$DIMSE1
 70
     0
  9
$DIMSE2
 70
     0
  9
$DIMTAD
 70
     0
  9
$DIMZIN
 70
     4
  9
$DIMBLK
  1

  9
$DIMASO
 70
     1
  9
$DIMSHO
 70
     1
  9
$DIMPOST
  1

  9
$DIMAPOST
  1

  9
$DIMALT
 70
     0
  9
$DIMALTD
 70
     2
  9
$DIMALTF
 40
25.4
  9
$DIMLFAC
 40
0.5
  9
$DIMTOFL
 70
     0
  9
$DIMTVP
 40
0.0
  9
$DIMTIX
 70
     0
  9
$DIMSOXD
 70
     0
  9
$DIMSAH
 70
     0
  9
$DIMBLK1
  1

  9
$DIMBLK2
  1

  9
$DIMSTYLE
  2
STANDARD
  9
$DIMCLRD
 70
     0
  9
$DIMCLRE
 70
     0
  9
$DIMCLRT
 70
     0
  9
$DIMTFAC
 40
1.0
  9
$DIMGAP
 40
0.09
  9
$DIMJUST
 70
     0
  9
$DIMSD1
 70
     0
  9
$DIMSD2
 70
     0
  9
$DIMTOLJ
 70
     1
  9
$DIMTZIN
 70
     0
  9
$DIMALTZ
 70
     0
  9
$DIMALTTZ
 70
     0
  9
$DIMFIT
 70
     3
  9
$DIMUPT
 70
     0
  9
$DIMUNIT
 70
     2
  9
$DIMDEC
 70
     3
  9
$DIMTDEC
 70
     4
  9
$DIMALTU
 70
     2
  9
$DIMALTTD
 70
     2
  9
$DIMTXSTY
  7
ROMANS
  9
$DIMAUNIT
 70
     0
  9
$LUNITS
 70
     2
  9
$LUPREC
 70
     3
  9
$SKETCHINC
 40
0.1
  9
$FILLETRAD
 40
0.0
  9
$AUNITS
 70
     0
  9
$AUPREC
 70
     0
  9
$MENU
  1
AUTOMSTR
  9
$ELEVATION
 40
0.0
  9
$PELEVATION
 40
0.0
  9
$THICKNESS
 40
0.0
  9
$LIMCHECK
 70
     0
  9
$BLIPMODE
 70
     0
  9
$CHAMFERA
 40
0.0
  9
$CHAMFERB
 40
0.0
  9
$CHAMFERC
 40
0.0
  9
$CHAMFERD
 40
0.0
  9
$SKPOLY
 70
     0
  9
$TDCREATE
 40
2448050.523881712
  9
$TDUPDATE
 40
2452458.296441516
  9
$TDINDWG
 40
0.3287464815
  9
$TDUSRTIMER
 40
0.3287464815
  9
$USRTIMER
 70
     1
  9
$ANGBASE
 50
0.0
  9
$ANGDIR
 70
     0
  9
$PDMODE
 70
     0
  9
$PDSIZE
 40
0.0
  9
$PLINEWID
 40
0.0
  9
$COORDS
 70
     2
  9
$SPLFRAME
 70
     0
  9
$SPLINETYPE
 70
     6
  9
$SPLINESEGS
 70
     8
  9
$ATTDIA
 70
     0
  9
$ATTREQ
 70
     1
  9
$HANDLING
 70
 22529
  9
$HANDSEED
  5
B2A
  9
$SURFTAB1
 70
     6
  9
$SURFTAB2
 70
     6
  9
$SURFTYPE
 70
     6
  9
$SURFU
 70
     6
  9
$SURFV
 70
     6
  9
$UCSNAME
  2

  9
$UCSORG
 10
0.0
 20
0.0
 30
0.0
  9
$UCSXDIR
 10
1.0
 20
0.0
 30
0.0
  9
$UCSYDIR
 10
0.0
 20
1.0
 30
0.0
  9
$PUCSNAME
  2

  9
$PUCSORG
 10
0.0
 20
0.0
 30
0.0
  9
$PUCSXDIR
 10
1.0
 20
0.0
 30
0.0
  9
$PUCSYDIR
 10
0.0
 20
1.0
 30
0.0
  9
$USERI1
 70
     0
  9
$USERI2
 70
     0
  9
$USERI3
 70
     0
  9
$USERI4
 70
     0
  9
$USERI5
 70
     0
  9
$USERR1
 40
0.0
  9
$USERR2
 40
0.0
  9
$USERR3
 40
0.0
  9
$USERR4
 40
0.0
  9
$USERR5
 40
0.0
  9
$WORLDVIEW
 70
     1
  9
$SHADEDGE
 70
     3
  9
$SHADEDIF
 70
    70
  9
$TILEMODE
 70
     1
  9
$MAXACTVP
 70
    16
  9
$PINSBASE
 10
0.0
 20
0.0
 30
0.0
  9
$PLIMCHECK
 70
     0
  9
$PEXTMIN
 10
1.000000000000000E+20
 20
1.000000000000000E+20
 30
1.000000000000000E+20
  9
$PEXTMAX
 10
-1.000000000000000E+20
 20
-1.000000000000000E+20
 30
-1.000000000000000E+20
  9
$PLIMMIN
 10
0.0
 20
0.0
  9
$PLIMMAX
 10
12.0
 20
9.0
  9
$UNITMODE
 70
     0
  9
$VISRETAIN
 70
     0
  9
$PLINEGEN
 70
     1
  9
$PSLTSCALE
 70
     0
  9
$TREEDEPTH
 70
  3020
  9
$PICKSTYLE
 70
     1
  9
$CMLSTYLE
  2
STANDARD
  9
$CMLJUST
 70
     0
  9
$CMLSCALE
 40
1.0
  9
$PROXYGRAPHICS
 70
     1
  9
$MEASUREMENT
 70
     0
  0
ENDSEC
  0
SECTION
  2
CLASSES
  0
CLASS
  1
LWPOLYLINE
  2
AcDbPolyline
  3
AutoCAD 2000
 90
        0
280
     0
281
     1
  0
CLASS
  1
ACDBDICTIONARYWDFLT
  2
AcDbDictionaryWithDefault
  3
AutoCAD 2000
 90
        0
280
     0
281
     0
  0
CLASS
  1
ACDBPLACEHOLDER
  2
AcDbPlaceHolder
  3
AutoCAD 2000
 90
        0
280
     0
281
     0
  0
CLASS
  1
LAYOUT
  2
AcDbLayout
  3
AutoCAD 2000
 90
        0
280
     0
281
     0
  0
CLASS
  1
DICTIONARYVAR
  2
AcDbDictionaryVar
  3
AutoCAD 2000
 90
        0
280
     0
281
     0
  0
CLASS
  1
LONG_TRANSACTION
  2
AcDbLongTransaction
  3
AutoCAD 2000
 90
        0
280
     0
281
     0
  0
CLASS
  1
LWPOLYLINE
  2
AcDbPolyline
  3
AutoCAD 2000
 90
        0
280
     0
281
     1
  0
CLASS
  1
HATCH
  2
AcDbHatch
  3
AutoCAD 2000
 90
        0
280
     0
281
     1
  0
CLASS
  1
XRECORD
  2
AcDbXrecord
  3
AutoCAD 2000
 90
        0
280
     0
281
     0
  0
ENDSEC
  0
SECTION
  2
TABLES
  0
TABLE
  2
VPORT
  5
8
330
0
100
AcDbSymbolTable
 70
     2
  0
VPORT
  5
B05
330
8
100
AcDbSymbolTableRecord
100
AcDbViewportTableRecord
  2
*ACTIVE
 70
     0
 10
0.0
 20
0.0
 11
1.0
 21
1.0
 12
20.94351304140593
 22
1.376917974331785
 13
0.0
 23
0.0
 14
0.0078125
 24
0.0078125
 15
0.0
 25
0.0
 16
0.0
 26
0.0
 36
1.0
 17
0.0
 27
0.0
 37
0.0
 40
2.164573146377599
 41
4.320930232558139
 42
50.0
 43
0.0
 44
0.0
 50
0.0
 51
0.0
 71
     0
 72
  2000
 73
     1
 74
     1
 75
     0
 76
     0
 77
     0
 78
     0
  0
ENDTAB
  0
TABLE
  2
LTYPE
  5
5
330
0
100
AcDbSymbolTable
 70
     1
  0
LTYPE
  5
12
330
5
100
AcDbSymbolTableRecord
100
AcDbLinetypeTableRecord
  2
BYBLOCK
 70
     0
  3

 72
    65
 73
     0
 40
0.0
  0
LTYPE
  5
13
330
5
100
AcDbSymbolTableRecord
100
AcDbLinetypeTableRecord
  2
BYLAYER
 70
     0
  3

 72
    65
 73
     0
 40
0.0
  0
LTYPE
  5
14
330
5
100
AcDbSymbolTableRecord
100
AcDbLinetypeTableRecord
  2
CONTINUOUS
 70
     0
  3
Solid line
 72
    65
 73
     0
 40
0.0
  0
ENDTAB
  0
TABLE
  2
LAYER
  5
2
330
0
100
AcDbSymbolTable
 70
     2
  0
LAYER
  5
F
330
2
100
AcDbSymbolTableRecord
100
AcDbLayerTableRecord
  2
0
 70
     0
 62
     7
  6
CONTINUOUS
  0
LAYER
  5
3B
330
2
100
AcDbSymbolTableRecord
100
AcDbLayerTableRecord
  2
TEXT
 70
     0
 62
     3
  6
CONTINUOUS
  0
ENDTAB
  0
TABLE
  2
STYLE
  5
3
330
0
100
AcDbSymbolTable
 70
     3
  0
STYLE
  5
10
330
3
100
AcDbSymbolTableRecord
100
AcDbTextStyleTableRecord
  2
STANDARD
 70
     0
 40
0.0
 41
1.0
 50
0.0
 71
     0
 42
0.188
  3
txt
  4

  0
STYLE
  5
9F2
330
3
100
AcDbSymbolTableRecord
100
AcDbTextStyleTableRecord
  2
ITALICC
 70
     0
 40
0.0
 41
1.0
 50
0.0
 71
     0
 42
0.125
  3
italicc
  4

  0
STYLE
  5
B01
330
3
100
AcDbSymbolTableRecord
100
AcDbTextStyleTableRecord
  2
ROMANS
 70
     0
 40
0.0
 41
1.0
 50
0.0
 71
     0
 42
0.125
  3
romans.shx
  4

  0
ENDTAB
  0
TABLE
  2
VIEW
  5
6
330
0
100
AcDbSymbolTable
 70
     0
  0
ENDTAB
  0
TABLE
  2
UCS
  5
7
330
0
100
AcDbSymbolTable
 70
     0
  0
ENDTAB
  0
TABLE
  2
APPID
  5
9
330
0
100
AcDbSymbolTable
 70
     1
  0
APPID
  5
11
330
9
100
AcDbSymbolTableRecord
100
AcDbRegAppTableRecord
  2
ACAD
 70
     0
  0
ENDTAB
  0
TABLE
  2
DIMSTYLE
  5
A
330
0
100
AcDbSymbolTable
 70
     1
  0
DIMSTYLE
105
497
330
A
100
AcDbSymbolTableRecord
100
AcDbDimStyleTableRecord
  2
STANDARD
 70
     0
  3

  4

  5

  6

  7

 40
1.0
 41
0.18
 42
0.0625
 43
0.38
 44
0.18
 45
0.0
 46
0.0
 47
0.0
 48
0.0
140
0.18
141
0.09
142
0.0
143
25.4
144
1.0
145
0.0
146
1.0
147
0.09
 71
     0
 72
     0
 73
     1
 74
     1
 75
     0
 76
     0
 77
     0
 78
     0
170
     0
171
     2
172
     0
173
     0
174
     0
175
     0
176
     0
177
     0
178
     0
270
     2
271
     4
272
     4
273
     2
274
     2
340
10
275
     0
280
     0
281
     0
282
     0
283
     1
284
     0
285
     0
286
     0
287
     3
288
     0
  0
ENDTAB
  0
TABLE
  2
BLOCK_RECORD
  5
1
330
0
100
AcDbSymbolTable
 70
     0
  0
BLOCK_RECORD
  5
18
102
{ACAD_XDICTIONARY
360
B28
102
}
330
1
100
AcDbSymbolTableRecord
100
AcDbBlockTableRecord
  2
*MODEL_SPACE
  0
BLOCK_RECORD
  5
15
102
{ACAD_XDICTIONARY
360
B26
102
}
330
1
100
AcDbSymbolTableRecord
100
AcDbBlockTableRecord
  2
*PAPER_SPACE
  0
ENDTAB
  0
ENDSEC
  0
SECTION
  2
BLOCKS
  0
BLOCK
  5
44
330
18
100
AcDbEntity
  8
0
100
AcDbBlockBegin
  2
*MODEL_SPACE
 70
     0
 10
0.0
 20
0.0
 30
0.0
  3
*MODEL_SPACE
  1

  0
ENDBLK
  5
45
330
18
100
AcDbEntity
  8
0
100
AcDbBlockEnd
  0
BLOCK
  5
42
330
15
100
AcDbEntity
 67
     1
  8
0
100
AcDbBlockBegin
  2
*PAPER_SPACE
 70
     0
 10
0.0
 20
0.0
 30
0.0
  3
*PAPER_SPACE
  1

  0
ENDBLK
  5
43
330
15
100
AcDbEntity
 67
     1
  8
0
100
AcDbBlockEnd
  0
ENDSEC
  0
SECTION
  2
ENTITIES
  0
LWPOLYLINE
  5
381
330
18
100
AcDbEntity
  8
0
100
AcDbPolyline
 90
      118
 70
     1
 43
0.0
 10
18.57677177852446
 20
1.47656762897605
 10
18.63877177852446
 20
1.538567628976051
 10
18.57677177852446
 20
1.538567628976051
 10
18.57677177852446
 20
1.877567628976051
 10
18.51477177852446
 20
1.939567628976051
 10
18.5482717918264
 20
1.939567628976054
 42
0.999999570905024
 10
18.5482717918264
 20
2.001567628976048
 10
18.10027176522251
 20
2.001567628976048
 42
0.9999995709050246
 10
18.10027176522251
 20
1.939567628976054
 10
18.13377177852446
 20
1.939567628976051
 10
18.07177177852446
 20
1.877567628976051
 10
18.07177177852446
 20
1.282567628976051
 42
-1.0
 10
18.00977177852446
 20
1.282567628976051
 10
18.00977177852446
 20
1.877567628976051
 10
17.94777177852446
 20
1.939567628976051
 10
17.98127179182641
 20
1.939567628976051
 42
0.999999570905024
 10
17.98127179182641
 20
2.001567628976048
 10
17.53327176522251
 20
2.001567628976048
 42
0.9999995709050246
 10
17.53327176522251
 20
1.939567628976054
 10
17.56677177852446
 20
1.939567628976051
 10
17.50477177852446
 20
1.877567628976051
 10
17.50477177852446
 20
1.538567628976051
 10
17.44277177852446
 20
1.538567628976051
 10
17.50477177852446
 20
1.476567628976051
 10
17.44477177852446
 20
1.476567628976051
 10
17.44477177852446
 20
1.281567628976052
 42
-0.9999999999999998
 10
17.38477177852446
 20
1.281567628976052
 10
17.38477177852446
 20
2.376567628976051
 10
17.50977177852446
 20
2.376567628976052
 10
17.50977177852446
 20
2.126567628976051
 10
17.60977177852446
 20
2.126567628976051
 10
17.60977177852446
 20
2.376567628976051
 10
17.73477177852446
 20
2.376567628976052
 10
17.73477177852446
 20
2.126567628976051
 10
17.83477177852446
 20
2.126567628976051
 10
17.83477177852446
 20
2.376567628976051
 10
17.97477177852446
 20
2.376567628976051
 10
17.96074216698315
 20
2.36846762897605
 10
17.96074216698315
 20
2.360467628976051
 10
17.97477177852446
 20
2.35236762897605
 10
17.97477177852446
 20
2.344367628976051
 10
17.96074216698315
 20
2.336267628976051
 10
17.96074216698315
 20
2.328267628976051
 10
17.97477177852446
 20
2.320167628976051
 10
17.97477177852446
 20
2.312167628976051
 10
17.96074216698315
 20
2.304067628976051
 10
17.96074216698315
 20
2.29606762897605
 10
17.97477177852446
 20
2.287967628976051
 10
17.97477177852446
 20
2.27996762897605
 10
17.96074216698315
 20
2.271867628976051
 10
17.96074216698315
 20
2.263867628976051
 10
17.97477177852446
 20
2.255767628976051
 10
17.97477177852446
 20
2.247767628976051
 10
17.96074216698315
 20
2.23966762897605
 10
17.96074216698315
 20
2.231667628976051
 10
17.97477177852446
 20
2.22356762897605
 10
17.97477177852446
 20
2.215567628976051
 10
17.96074216698315
 20
2.207467628976051
 10
17.96074216698315
 20
2.199467628976051
 10
17.97477177852446
 20
2.191367628976051
 10
17.97477177852446
 20
2.183367628976051
 10
17.96074216698315
 20
2.175267628976051
 10
17.96074216698315
 20
2.16726762897605
 10
17.97477177852446
 20
2.159167628976051
 10
17.97477177852446
 20
2.15116762897605
 10
17.96074216698315
 20
2.143067628976051
 10
17.96074216698315
 20
2.135067628976051
 10
17.97546459884748
 20
2.126567628976051
 10
18.10677177852446
 20
2.126567628976051
 10
18.12146459884749
 20
2.126567628976051
 10
18.10674216698315
 20
2.135067628976051
 10
18.10674216698315
 20
2.143067628976051
 10
18.12077177852446
 20
2.15116762897605
 10
18.12077177852446
 20
2.159167628976051
 10
18.10674216698315
 20
2.16726762897605
 10
18.10674216698315
 20
2.175267628976051
 10
18.12077177852446
 20
2.183367628976051
 10
18.12077177852446
 20
2.191367628976051
 10
18.10674216698315
 20
2.199467628976051
 10
18.10674216698315
 20
2.207467628976051
 10
18.12077177852446
 20
2.215567628976051
 10
18.12077177852446
 20
2.22356762897605
 10
18.10674216698315
 20
2.231667628976051
 10
18.10674216698315
 20
2.23966762897605
 10
18.12077177852446
 20
2.247767628976051
 10
18.12077177852446
 20
2.255767628976051
 10
18.10674216698315
 20
2.263867628976051
 10
18.10674216698315
 20
2.271867628976051
 10
18.12077177852446
 20
2.27996762897605
 10
18.12077177852446
 20
2.287967628976051
 10
18.10674216698315
 20
2.29606762897605
 10
18.10674216698315
 20
2.304067628976051
 10
18.12077177852446
 20
2.312167628976051
 10
18.12077177852446
 20
2.320167628976051
 10
18.10674216698315
 20
2.328267628976051
 10
18.10674216698315
 20
2.336267628976051
 10
18.12077177852446
 20
2.344367628976051
 10
18.12077177852446
 20
2.35236762897605
 10
18.10674216698315
 20
2.360467628976051
 10
18.10674216698315
 20
2.36846762897605
 10
18.12077177852446
 20
2.376567628976051
 10
18.24677177852446
 20
2.376567628976051
 10
18.24677177852446
 20
2.126567628976051
 10
18.34677177852446
 20
2.126567628976051
 10
18.34677177852446
 20
2.376567628976051
 10
18.47177177852446
 20
2.376567628976051
 10
18.47177177852446
 20
2.126567628976051
 10
18.57177177852446
 20
2.126567628976051
 10
18.57177177852446
 20
2.376567628976051
 10
18.63427177852446
 20
2.376567628976051
 10
18.63427177852446
 20
2.074067628976051
 10
18.62427177852446
 20
2.064067628976051
 10
18.63427177852446
 20
2.054067628976051
 10
18.63427177852446
 20
2.001567628976051
 10
18.69677177852446
 20
2.001567628976051
 10
18.69677177852446
 20
1.281567628976051
 42
-0.9999999999999998
 10
18.63677177852446
 20
1.281567628976051
 10
18.63677177852446
 20
1.47656762897605
  0
TEXT
  5
A77
330
18
100
AcDbEntity
  8
TEXT
100
AcDbText
 10
17.26710255938186
 20
0.8354774984965715
 30
0.0
 40
0.125
  1
PART #110130
  7
ITALICC
 72
     1
 11
18.02007874985805
 21
0.8354774984965715
 31
0.0
100
AcDbText
  0
LINE
  5
A78
330
18
100
AcDbEntity
  8
TEXT
100
AcDbLine
 10
18.17539337988143
 20
0.6554005071335034
 30
0.0
 11
18.12829522132545
 21
0.5795351807219653
 31
0.0
  0
LINE
  5
A79
330
18
100
AcDbEntity
  8
TEXT
100
AcDbLine
 10
18.12829522132545
 20
0.5795351807219653
 30
0.0
 11
18.12829522132545
 21
0.7208647129011041
 31
0.0
  0
LINE
  5
A7A
330
18
100
AcDbEntity
  8
TEXT
100
AcDbLine
 10
18.12829522132545
 20
0.7208647129011041
 30
0.0
 11
18.05998034277617
 21
0.7208647129011041
 31
0.0
  0
LINE
  5
A7B
330
18
100
AcDbEntity
  8
TEXT
100
AcDbLine
 10
18.05998034277617
 20
0.7208647129011041
 30
0.0
 11
18.05998034277617
 21
0.6554005071335034
 31
0.0
  0
LINE
  5
A7C
330
18
100
AcDbEntity
  8
TEXT
100
AcDbLine
 10
18.18582809664535
 20
0.5455072641925299
 30
0.0
 11
18.25038521261106
 21
0.6554005071335034
 31
0.0
  0
LINE
  5
A7D
330
18
100
AcDbEntity
  8
TEXT
100
AcDbLine
 10
18.25038521261106
 20
0.6554005071335034
 30
0.0
 11
18.17539337988143
 21
0.6554005071335034
 31
0.0
  0
LINE
  5
A7E
330
18
100
AcDbEntity
  8
TEXT
100
AcDbLine
 10
18.06446023010267
 20
0.3889274741449924
 30
0.0
 11
18.12883841442129
 21
0.3889274741449924
 31
0.0
  0
LINE
  5
A7F
330
18
100
AcDbEntity
  8
TEXT
100
AcDbLine
 10
18.12883841442129
 20
0.3889274741449924
 30
0.0
 11
18.12883841442129
 21
0.5205070426211727
 31
0.0
  0
LINE
  5
A80
330
18
100
AcDbEntity
  8
TEXT
100
AcDbLine
 10
18.12883841442129
 20
0.5205070426211727
 30
0.0
 11
18.20474194763276
 21
0.3889274741449924
 31
0.0
  0
LINE
  5
A81
330
18
100
AcDbEntity
  8
TEXT
100
AcDbLine
 10
18.20474194763276
 20
0.3889274741449924
 30
0.0
 11
18.28132032000896
 21
0.3889274741449924
 31
0.0
  0
LINE
  5
A82
330
18
100
AcDbEntity
  8
TEXT
100
AcDbLine
 10
18.06446023010267
 20
0.591123812476738
 30
0.0
 11
18.06446023010267
 21
0.3889274741449924
 31
0.0
  0
LINE
  5
A83
330
18
100
AcDbEntity
  8
TEXT
100
AcDbLine
 10
18.28132032000896
 20
0.3889274741449924
 30
0.0
 11
18.18582809664535
 21
0.5455072641925299
 31
0.0
  0
ARC
  5
A84
330
18
100
AcDbEntity
  8
TEXT
100
AcDbCircle
 10
17.98781224881011
 20
0.5662179371940752
 30
0.0
 40
0.0249058752826653
100
AcDbArc
 50
89.99971217465335
 51
179.9999999999985
  0
ARC
  5
A85
330
18
100
AcDbEntity
  8
TEXT
100
AcDbCircle
 10
17.99570120574968
 20
0.6241547798512386
 30
0.0
 40
0.0314112657011332
100
AcDbArc
 50
95.88484768694724
 51
173.2388340632136
  0
LINE
  5
A86
330
18
100
AcDbEntity
  8
TEXT
100
AcDbLine
 10
17.96450838868658
 20
0.6278528572726288
 30
0.0
 11
17.96450838868658
 21
0.6554005071335034
 31
0.0
  0
LINE
  5
A87
330
18
100
AcDbEntity
  8
TEXT
100
AcDbLine
 10
17.96450838868658
 20
0.6554005071335034
 30
0.0
 11
17.90061148238708
 21
0.6554005071335034
 31
0.0
  0
LINE
  5
A88
330
18
100
AcDbEntity
  8
TEXT
100
AcDbLine
 10
17.90061148238708
 20
0.6554005071335034
 30
0.0
 11
17.90061148238708
 21
0.5501885285800761
 31
0.0
  0
LINE
  5
A89
330
18
100
AcDbEntity
  8
TEXT
100
AcDbLine
 10
17.82165154351203
 20
0.6554005071335034
 30
0.0
 11
17.68681963429498
 21
0.6554005071335034
 31
0.0
  0
LINE
  5
A8A
330
18
100
AcDbEntity
  8
TEXT
100
AcDbLine
 10
17.68681963429498
 20
0.6554005071335034
 30
0.0
 11
17.68681963429498
 21
0.6270779613638596
 31
0.0
  0
LINE
  5
A8B
330
18
100
AcDbEntity
  8
TEXT
100
AcDbLine
 10
17.7461337306883
 20
0.5538488390146057
 30
0.0
 11
17.82842172047168
 21
0.5538488390146057
 31
0.0
  0
LINE
  5
A8C
330
18
100
AcDbEntity
  8
TEXT
100
AcDbLine
 10
17.82842172047168
 20
0.5538488390146057
 30
0.0
 11
17.81815696005812
 21
0.5750993785873
 31
0.0
  0
LINE
  5
A8D
330
18
100
AcDbEntity
  8
TEXT
100
AcDbLine
 10
17.79262064516756
 20
0.591123812476738
 30
0.0
 11
17.68541437178027
 21
0.591123812476738
 31
0.0
  0
ARC
  5
A8E
330
18
100
AcDbEntity
  8
TEXT
100
AcDbCircle
 10
17.79262064516756
 20
0.5627644374767407
 30
0.0
 40
0.028359375
100
AcDbArc
 50
25.78218179591245
 51
90.0
  0
LINE
  5
A8F
330
18
100
AcDbEntity
  8
TEXT
100
AcDbLine
 10
17.90061148238708
 20
0.5501885285800761
 30
0.0
 11
17.85686071120518
 21
0.6324388045762213
 31
0.0
  0
ARC
  5
A90
330
18
100
AcDbEntity
  8
TEXT
100
AcDbCircle
 10
17.81962460373497
 20
0.613816940012601
 30
0.0
 40
0.0416329381542859
100
AcDbArc
 50
26.56974201007528
 51
87.20939649401342
  0
LWPOLYLINE
  5
A91
330
18
100
AcDbEntity
  8
TEXT
100
AcDbPolyline
 90
        2
 70
     0
 43
0.0
 10
17.90455115969211
 20
0.4324184190954306
 42
-0.2901071551932486
 10
17.86147522682447
 20
0.3889274741449924
 42
-5.328517124445184
  0
LWPOLYLINE
  5
A92
330
18
100
AcDbEntity
  8
TEXT
100
AcDbPolyline
 90
        2
 70
     0
 43
0.0
 10
17.90455115969211
 20
0.4324184190954306
 10
17.90455115969211
 20
0.3889274741449924
  0
LWPOLYLINE
  5
A93
330
18
100
AcDbEntity
  8
TEXT
100
AcDbPolyline
 90
        2
 70
     0
 43
0.0
 10
17.90455115969211
 20
0.3889274741449924
 10
17.96290637352745
 20
0.3889274741449924
  0
LWPOLYLINE
  5
A94
330
18
100
AcDbEntity
  8
TEXT
100
AcDbPolyline
 90
        2
 70
     0
 43
0.0
 10
17.68438187632546
 20
0.4324184190954306
 42
0.2901071551932823
 10
17.72745780919309
 20
0.3889274741449924
 42
5.328517124445801
  0
LWPOLYLINE
  5
A95
330
18
100
AcDbEntity
  8
TEXT
100
AcDbPolyline
 90
        2
 70
     0
 43
0.0
 10
17.72745780919309
 20
0.3889274741449924
 10
17.86147522682447
 20
0.3889274741449924
 42
0.9999999999999998
  0
LWPOLYLINE
  5
A96
330
18
100
AcDbEntity
  8
TEXT
100
AcDbPolyline
 90
        4
 70
     1
 43
0.0
 10
17.84135276175458
 20
0.4918914521290177
 10
17.75269244309472
 20
0.4918914521290177
 42
0.9999999999999998
 10
17.75269244309472
 20
0.449492911625157
 10
17.84135276175458
 20
0.449492911625157
 42
1.0
  0
ARC
  5
A97
330
18
100
AcDbEntity
  8
TEXT
100
AcDbCircle
 10
17.7461337306883
 20
0.4861632578704871
 30
0.0
 40
0.0676855811441166
100
AcDbArc
 50
90.0
 51
153.7768192527749
  0
LINE
  5
A98
330
18
100
AcDbEntity
  8
TEXT
100
AcDbLine
 10
17.96290637352745
 20
0.3889274741449924
 30
0.0
 11
17.96290637352744
 21
0.5662179795764608
 31
0.0
  0
LINE
  5
A99
330
18
100
AcDbEntity
  8
TEXT
100
AcDbLine
 10
17.68541437178027
 20
0.591123812476738
 30
0.0
 11
17.68541437178027
 21
0.5160714064025314
 31
0.0
  0
LINE
  5
A9A
330
18
100
AcDbEntity
  8
TEXT
100
AcDbLine
 10
17.98781224881011
 20
0.591123812476738
 30
0.0
 11
18.06446023010267
 21
0.591123812476738
 31
0.0
  0
LINE
  5
A9B
330
18
100
AcDbEntity
  8
TEXT
100
AcDbLine
 10
18.05998034277617
 20
0.6554005071335034
 30
0.0
 11
17.99248062512665
 21
0.6554005071335034
 31
0.0
  0
LWPOLYLINE
  5
A9C
330
18
100
AcDbEntity
  8
TEXT
100
AcDbPolyline
 90
        2
 70
     0
 43
0.0
 10
17.47960437100258
 20
0.591123812476738
 42
-0.4142135623731017
 10
17.4871581601687
 20
0.5835700233106281
 42
-0.9999999999999998
  0
LWPOLYLINE
  5
A9D
330
18
100
AcDbEntity
  8
TEXT
100
AcDbPolyline
 90
        2
 70
     0
 43
0.0
 10
17.60834980387149
 20
0.591123812476738
 42
-0.4142135623731017
 10
17.6159035930376
 20
0.5835700233106281
 42
-0.9999999999999998
  0
LWPOLYLINE
  5
A9E
330
18
100
AcDbEntity
  8
TEXT
100
AcDbPolyline
 90
        2
 70
     0
 43
0.0
 10
17.4969560940526
 20
0.655400507133507
 42
-0.3328679258950098
 10
17.53273778476577
 20
0.6282330103726111
 42
6.772930709997214
  0
LWPOLYLINE
  5
A9F
330
18
100
AcDbEntity
  8
TEXT
100
AcDbPolyline
 90
        3
 70
     0
 43
0.0
 10
17.65103794358181
 20
0.655400507133507
 10
17.53273778476577
 20
0.655400507133507
 10
17.53273778476577
 20
0.6282330103726111
 42
-1.960274751411753
  0
LINE
  5
AA0
330
18
100
AcDbEntity
  8
TEXT
100
AcDbLine
 10
17.55421620695054
 20
0.591123812476738
 30
0.0
 11
17.60834980387149
 21
0.591123812476738
 31
0.0
  0
LINE
  5
AA1
330
18
100
AcDbEntity
  8
TEXT
100
AcDbLine
 10
17.42976909117944
 20
0.591123812476738
 30
0.0
 11
17.47960437100258
 21
0.591123812476738
 31
0.0
  0
LINE
  5
AA2
330
18
100
AcDbEntity
  8
TEXT
100
AcDbLine
 10
17.4969560940526
 20
0.6554005071335034
 30
0.0
 11
17.36293803812147
 21
0.6554005071335034
 31
0.0
  0
LINE
  5
AA3
330
18
100
AcDbEntity
  8
TEXT
100
AcDbLine
 10
17.4871581601687
 20
0.3889274741449924
 30
0.0
 11
17.55421620695054
 21
0.3889274741449924
 31
0.0
  0
LINE
  5
AA4
330
18
100
AcDbEntity
  8
TEXT
100
AcDbLine
 10
17.33176575748
 20
0.3889274741449924
 30
0.0
 11
17.42976909117944
 21
0.3889274741449924
 31
0.0
  0
LINE
  5
AA5
330
18
100
AcDbEntity
  8
TEXT
100
AcDbLine
 10
17.36293803812147
 20
0.4545363004010952
 30
0.0
 11
17.34594440123687
 21
0.4545363004010952
 31
0.0
  0
ARC
  5
AA6
330
18
100
AcDbEntity
  8
TEXT
100
AcDbCircle
 10
17.34594440123687
 20
0.4699181066445206
 30
0.0
 40
0.0153818062434269
100
AcDbArc
 50
174.7883570302258
 51
270.0
  0
LINE
  5
AA7
330
18
100
AcDbEntity
  8
TEXT
100
AcDbLine
 10
17.42976909117944
 20
0.3889274741449924
 30
0.0
 11
17.42976909117944
 21
0.591123812476738
 31
0.0
  0
LINE
  5
AA8
330
18
100
AcDbEntity
  8
TEXT
100
AcDbLine
 10
17.4871581601687
 20
0.5835700233106281
 30
0.0
 11
17.4871581601687
 21
0.3889274741449924
 31
0.0
  0
LINE
  5
AA9
330
18
100
AcDbEntity
  8
TEXT
100
AcDbLine
 10
17.55421620695054
 20
0.3889274741449924
 30
0.0
 11
17.55421620695054
 21
0.591123812476738
 31
0.0
  0
LINE
  5
AAA
330
18
100
AcDbEntity
  8
TEXT
100
AcDbLine
 10
17.36293803812147
 20
0.6554005071335034
 30
0.0
 11
17.36293803812147
 21
0.4545363004010952
 31
0.0
  0
LINE
  5
AAB
330
18
100
AcDbEntity
  8
TEXT
100
AcDbLine
 10
17.33062618398381
 20
0.4713153122479917
 30
0.0
 11
17.33062618398381
 21
0.723411984872314
 31
0.0
  0
LINE
  5
AAC
330
18
100
AcDbEntity
  8
TEXT
100
AcDbLine
 10
17.26381747141744
 20
0.723411984872314
 30
0.0
 11
17.26381747141744
 21
0.6554005071335034
 31
0.0
  0
LINE
  5
AAD
330
18
100
AcDbEntity
  8
TEXT
100
AcDbLine
 10
17.26381747141744
 20
0.6554005071335034
 30
0.0
 11
17.23369555862407
 21
0.6554005071335034
 31
0.0
  0
LINE
  5
AAE
330
18
100
AcDbEntity
  8
TEXT
100
AcDbLine
 10
17.23369555862407
 20
0.6554005071335034
 30
0.0
 11
17.1749469958182
 21
0.5545285110203828
 31
0.0
  0
LINE
  5
AAF
330
18
100
AcDbEntity
  8
TEXT
100
AcDbLine
 10
17.1749469958182
 20
0.5545285110203828
 30
0.0
 11
17.11631667478626
 21
0.6554005071335034
 31
0.0
  0
LINE
  5
AB0
330
18
100
AcDbEntity
  8
TEXT
100
AcDbLine
 10
17.04451770864236
 20
0.6554005071335034
 30
0.0
 11
17.04451770864236
 21
0.6897884247276416
 31
0.0
  0
LINE
  5
AB1
330
18
100
AcDbEntity
  8
TEXT
100
AcDbLine
 10
17.04451770864236
 20
0.6897884247276416
 30
0.0
 11
16.98447510379835
 21
0.6897884247276416
 31
0.0
  0
LINE
  5
AB2
330
18
100
AcDbEntity
  8
TEXT
100
AcDbLine
 10
16.98447510379835
 20
0.6897884247276416
 30
0.0
 11
16.98447510379835
 21
0.6554005071335034
 31
0.0
  0
LINE
  5
AB3
330
18
100
AcDbEntity
  8
TEXT
100
AcDbLine
 10
17.11631667478626
 20
0.6554005071335034
 30
0.0
 11
17.04451770864236
 21
0.6554005071335034
 31
0.0
  0
ARC
  5
AB4
330
18
100
AcDbEntity
  8
TEXT
100
AcDbCircle
 10
17.13130319890903
 20
0.4284751964186882
 30
0.0
 40
0.0392772371940762
100
AcDbArc
 50
270.1604552698595
 51
330.0831797321295
  0
ARC
  5
AB5
330
18
100
AcDbEntity
  8
TEXT
100
AcDbCircle
 10
17.04100235301681
 20
0.4487198654830423
 30
0.0
 40
0.0601160179737537
100
AcDbArc
 50
180.0000000000003
 51
264.0521544866073
  0
LINE
  5
AB6
330
18
100
AcDbEntity
  8
TEXT
100
AcDbLine
 10
17.03477294252316
 20
0.3889274741449924
 30
0.0
 11
17.13141319359816
 21
0.3891981132432747
 31
0.0
  0
LWPOLYLINE
  5
AB7
330
18
100
AcDbEntity
  8
TEXT
100
AcDbPolyline
 90
        6
 70
     1
 43
0.0
 10
17.07729674609831
 20
0.591123812476738
 10
17.0469801518781
 20
0.591123812476738
 10
17.0469801518781
 20
0.4680128144218437
 42
0.407328721240804
 10
17.05852380303958
 20
0.4561938997454576
 10
17.11914550208431
 20
0.4561938997454576
 10
17.13661084249163
 20
0.4890061287889367
  0
LINE
  5
AB8
330
18
100
AcDbEntity
  8
TEXT
100
AcDbLine
 10
16.98088633504306
 20
0.591123812476738
 30
0.0
 11
16.98088633504306
 21
0.4487198654830423
 31
0.0
  0
LINE
  5
AB9
330
18
100
AcDbEntity
  8
TEXT
100
AcDbLine
 10
17.16534675882125
 20
0.4088859802500054
 30
0.0
 11
17.26264646491469
 21
0.5732361911852735
 31
0.0
  0
LINE
  5
ABA
330
18
100
AcDbEntity
  8
TEXT
100
AcDbLine
 10
17.26264646491469
 20
0.5732361911852735
 30
0.0
 11
17.26264646491469
 21
0.4404788163599172
 31
0.0
  0
LWPOLYLINE
  5
ABB
330
18
100
AcDbEntity
  8
TEXT
100
AcDbPolyline
 90
        2
 70
     0
 43
0.0
 10
17.26264646491469
 20
0.4404788163599207
 42
0.3318488747599744
 10
17.33176575748
 20
0.3889274741449924
 42
-6.868794160588311
  0
LINE
  5
ABC
330
18
100
AcDbEntity
  8
TEXT
100
AcDbLine
 10
17.33062618398381
 20
0.723411984872314
 30
0.0
 11
17.26381747141744
 21
0.723411984872314
 31
0.0
  0
LWPOLYLINE
  5
ABD
330
18
100
AcDbEntity
  8
TEXT
100
AcDbPolyline
 90
        4
 70
     0
 43
0.0
 10
17.6159035930376
 20
0.5835700233106281
 10
17.6159035930376
 20
0.3889274741449924
 10
17.68438187632546
 20
0.3889274741449924
 10
17.68438187632546
 20
0.4324184190954306
 42
-1.714843617202739
  0
LWPOLYLINE
  5
ABE
330
18
100
AcDbEntity
  8
TEXT
100
AcDbPolyline
 90
        2
 70
     0
 43
0.0
 10
17.65103794358181
 20
0.655400507133507
 42
-0.3277054968067132
 10
17.68681963429497
 20
0.6270779613638631
 42
6.667889725900311
  0
TEXT
  5
ABF
330
18
100
AcDbEntity
  8
TEXT
100
AcDbText
 10
18.43338390810837
 20
0.4818132827904887
 30
0.0
 40
0.0522247191011236
  1
Minneapolis, MN 55432-0008
 41
1.114442127215848
 72
     5
 11
19.76231649237803
 21
0.4818132827904887
 31
0.0
100
AcDbText
  0
TEXT
  5
AC0
330
18
100
AcDbEntity
  8
TEXT
100
AcDbText
 10
18.43338390810837
 20
0.5750717097567808
 30
0.0
 40
0.0522247191011236
  1
6536 Main St. N.E. * P.O. Box 32008
 41
0.8388932496075343
 72
     5
 11
19.76231649237803
 21
0.5750717097567808
 31
0.0
100
AcDbText
  0
TEXT
  5
AC1
330
18
100
AcDbEntity
  8
TEXT
100
AcDbText
 10
18.43338390810837
 20
0.668330136723073
 30
0.0
 40
0.0522247191011236
  1
Stylmark  Incorporated
 41
1.221428571428569
 72
     5
 11
19.76231649237803
 21
0.668330136723073
 31
0.0
100
AcDbText
  0
TEXT
  5
AC2
330
18
100
AcDbEntity
  8
TEXT
100
AcDbText
 10
18.43338390810837
 20
0.3885548558241965
 30
0.0
 40
0.0522247191011236
  1
Phone  1-800-328-2495
 41
1.272321428571428
 72
     5
 11
19.76231649237803
 21
0.3885548558241965
 31
0.0
100
AcDbText
  0
LINE
  5
AC3
330
18
100
AcDbEntity
  8
TEXT
100
AcDbLine
 10
16.87958081725839
 20
0.5553190908661101
 30
0.0
 11
16.81398068101408
 21
0.5553190908661101
 31
0.0
  0
ARC
  5
AC4
330
18
100
AcDbEntity
  8
TEXT
100
AcDbCircle
 10
16.81398068101408
 20
0.5732214516714258
 30
0.0
 40
0.017902360805315
100
AcDbArc
 50
90.0
 51
270.0
  0
LINE
  5
AC5
330
18
100
AcDbEntity
  8
TEXT
100
AcDbLine
 10
16.80874335089983
 20
0.4912255882404964
 30
0.0
 11
16.88452119116466
 21
0.4912255882404964
 31
0.0
  0
LINE
  5
AC6
330
18
100
AcDbEntity
  8
TEXT
100
AcDbLine
 10
16.88452119116466
 20
0.4572844804784318
 30
0.0
 11
16.72665589145333
 21
0.4572844804784318
 31
0.0
  0
LINE
  5
AC7
330
18
100
AcDbEntity
  8
TEXT
100
AcDbLine
 10
16.72665589145333
 20
0.3889274741449924
 30
0.0
 11
16.87958081725839
 21
0.3889274741449924
 31
0.0
  0
ARC
  5
AC8
330
18
100
AcDbEntity
  8
TEXT
100
AcDbCircle
 10
16.80874335089983
 20
0.5733130476870017
 30
0.0
 40
0.0820874594465043
100
AcDbArc
 50
90.0
 51
270.0
  0
LINE
  5
AC9
330
18
100
AcDbEntity
  8
TEXT
100
AcDbLine
 10
16.98447510379835
 20
0.6554005071335034
 30
0.0
 11
16.80874335089983
 21
0.6554005071335034
 31
0.0
  0
ARC
  5
ACA
330
18
100
AcDbEntity
  8
TEXT
100
AcDbCircle
 10
16.88452119116466
 20
0.4742550343594658
 30
0.0
 40
0.0169705538810321
100
AcDbArc
 50
270.0
 51
90.0
  0
ARC
  5
ACB
330
18
100
AcDbEntity
  8
TEXT
100
AcDbCircle
 10
16.87958081725839
 20
0.4721232825055495
 30
0.0
 40
0.0831958083605586
100
AcDbArc
 50
270.0
 51
90.0
  0
LINE
  5
ACC
330
18
100
AcDbEntity
  8
TEXT
100
AcDbLine
 10
16.81398068101408
 20
0.591123812476738
 30
0.0
 11
16.98088633504306
 21
0.591123812476738
 31
0.0
  0
LWPOLYLINE
  5
ACD
330
18
100
AcDbEntity
  8
TEXT
100
AcDbPolyline
 90
        2
 70
     0
 43
0.0006660908203125
 10
16.51722291135356
 20
0.5421650676803793
 10
16.54386654416606
 20
0.5421650676803793
  0
LINE
  5
ACE
330
18
100
AcDbEntity
  8
TEXT
100
AcDbLine
 10
16.72665589145333
 20
0.4572844804784318
 30
0.0
 11
16.72665589145333
 21
0.3889274741449924
 31
0.0
  0
LWPOLYLINE
  5
ACF
330
18
100
AcDbEntity
  8
TEXT
100
AcDbPolyline
 90
        2
 70
     0
 43
0.0006660908203125
 10
16.51722291135356
 20
0.5021996184616313
 10
16.54386654416606
 20
0.5021996184616313
  0
LWPOLYLINE
  5
AD0
330
18
100
AcDbEntity
  8
TEXT
100
AcDbPolyline
 90
        2
 70
     0
 43
0.0001332181640625
 10
16.43063110471293
 20
0.655400507133507
 10
16.42063974240824
 20
0.5821305168991274
  0
LWPOLYLINE
  5
AD1
330
18
100
AcDbEntity
  8
TEXT
100
AcDbPolyline
 90
        2
 70
     0
 43
0.0001332181640625
 10
16.43063110471293
 20
0.6287568743210059
 10
16.42063974240824
 20
0.5688087004928804
  0
LWPOLYLINE
  5
AD2
330
18
100
AcDbEntity
  8
TEXT
100
AcDbPolyline
 90
        2
 70
     0
 43
0.0006660908203125
 10
16.43063110471293
 20
0.6287568743210059
 10
16.43063110471293
 20
0.655400507133507
  0
LWPOLYLINE
  5
AD3
330
18
100
AcDbEntity
  8
TEXT
100
AcDbPolyline
 90
        5
 70
     0
 43
0.0001332181640625
 10
16.42063974240824
 20
0.5821305168991274
 10
16.42063974240824
 20
0.5688087004928804
 10
16.45727473752543
 20
0.5688087004928804
 10
16.45727473752543
 20
0.5321737053756906
 10
16.47059655393168
 20
0.5321737053756906
  0
LWPOLYLINE
  5
AD4
330
18
100
AcDbEntity
  8
TEXT
100
AcDbPolyline
 90
        2
 70
     0
 43
0.0001332181640625
 10
16.39066565549418
 20
0.6287568743210059
 10
16.40065701779887
 20
0.5688087004928804
  0
LWPOLYLINE
  5
AD5
330
18
100
AcDbEntity
  8
TEXT
100
AcDbPolyline
 90
        2
 70
     0
 43
0.0001332181640625
 10
16.40065701779887
 20
0.5821305168991274
 10
16.39066565549418
 20
0.655400507133507
  0
LWPOLYLINE
  5
AD6
330
18
100
AcDbEntity
  8
TEXT
100
AcDbPolyline
 90
        2
 70
     0
 43
0.0006660908203125
 10
16.39066565549418
 20
0.6287568743210059
 10
16.39066565549418
 20
0.655400507133507
  0
LWPOLYLINE
  5
AD7
330
18
100
AcDbEntity
  8
TEXT
100
AcDbPolyline
 90
        5
 70
     0
 43
0.0001332181640625
 10
16.35070020627543
 20
0.5321737053756906
 10
16.36402202268168
 20
0.5321737053756906
 10
16.36402202268168
 20
0.5688087004928804
 10
16.40065701779887
 20
0.5688087004928804
 10
16.40065701779887
 20
0.5821305168991274
  0
LWPOLYLINE
  5
AD8
330
18
100
AcDbEntity
  8
TEXT
100
AcDbPolyline
 90
        2
 70
     0
 43
0.0006660908203125
 10
16.30407384885356
 20
0.5421650676803793
 10
16.27743021604106
 20
0.5421650676803793
  0
LWPOLYLINE
  5
AD9
330
18
100
AcDbEntity
  8
TEXT
100
AcDbPolyline
 90
        2
 70
     0
 43
0.0001332181640625
 10
16.27743021604106
 20
0.5421650676803793
 10
16.35070020627543
 20
0.5321737053756906
  0
LWPOLYLINE
  5
ADA
330
18
100
AcDbEntity
  8
TEXT
100
AcDbPolyline
 90
        2
 70
     0
 43
0.0001332181640625
 10
16.30407384885356
 20
0.5421650676803793
 10
16.36402202268168
 20
0.5321737053756906
  0
LWPOLYLINE
  5
ADB
330
18
100
AcDbEntity
  8
TEXT
100
AcDbPolyline
 90
        2
 70
     0
 43
0.0001332181640625
 10
16.30407384885356
 20
0.6287568743210059
 10
16.36402202268168
 20
0.5688087004928804
  0
LWPOLYLINE
  5
ADC
330
18
100
AcDbEntity
  8
TEXT
100
AcDbPolyline
 90
        3
 70
     0
 43
0.0006660908203125
 10
16.39066565549418
 20
0.6287568743210059
 10
16.30407384885356
 20
0.6287568743210059
 10
16.30407384885356
 20
0.5421650676803793
  0
LWPOLYLINE
  5
ADD
330
18
100
AcDbEntity
  8
TEXT
100
AcDbPolyline
 90
        3
 70
     0
 43
0.0006660908203125
 10
16.39066565549418
 20
0.655400507133507
 10
16.27743021604106
 20
0.655400507133507
 10
16.27743021604106
 20
0.5421650676803793
  0
LWPOLYLINE
  5
ADE
330
18
100
AcDbEntity
  8
TEXT
100
AcDbPolyline
 90
        5
 70
     0
 43
0.0001332181640625
 10
16.47059655393168
 20
0.5121909807663166
 10
16.45727473752543
 20
0.5121909807663166
 10
16.45727473752543
 20
0.4755559856491303
 10
16.42063974240824
 20
0.4755559856491303
 10
16.42063974240824
 20
0.4622341692428798
  0
LWPOLYLINE
  5
ADF
330
18
100
AcDbEntity
  8
TEXT
100
AcDbPolyline
 90
        2
 70
     0
 43
0.0006660908203125
 10
16.43063110471293
 20
0.4156078118210047
 10
16.43063110471293
 20
0.3889641790085036
  0
LWPOLYLINE
  5
AE0
330
18
100
AcDbEntity
  8
TEXT
100
AcDbPolyline
 90
        2
 70
     0
 43
0.0001332181640625
 10
16.42063974240824
 20
0.4622341692428798
 10
16.43063110471293
 20
0.3889641790085036
  0
LWPOLYLINE
  5
AE1
330
18
100
AcDbEntity
  8
TEXT
100
AcDbPolyline
 90
        2
 70
     0
 43
0.0001332181640625
 10
16.43063110471293
 20
0.4156078118210047
 10
16.42063974240824
 20
0.4755559856491303
  0
LWPOLYLINE
  5
AE2
330
18
100
AcDbEntity
  8
TEXT
100
AcDbPolyline
 90
        2
 70
     0
 43
0.0001332181640625
 10
16.39066565549418
 20
0.3889641790085036
 10
16.40065701779887
 20
0.4622341692428798
  0
LWPOLYLINE
  5
AE3
330
18
100
AcDbEntity
  8
TEXT
100
AcDbPolyline
 90
        2
 70
     0
 43
0.0001332181640625
 10
16.39066565549418
 20
0.4156078118210047
 10
16.40065701779887
 20
0.4755559856491303
  0
LWPOLYLINE
  5
AE4
330
18
100
AcDbEntity
  8
TEXT
100
AcDbPolyline
 90
        2
 70
     0
 43
0.0006660908203125
 10
16.39066565549418
 20
0.4156078118210047
 10
16.39066565549418
 20
0.3889641790085036
  0
LWPOLYLINE
  5
AE5
330
18
100
AcDbEntity
  8
TEXT
100
AcDbPolyline
 90
        5
 70
     0
 43
0.0001332181640625
 10
16.40065701779887
 20
0.4622341692428798
 10
16.40065701779887
 20
0.4755559856491303
 10
16.36402202268168
 20
0.4755559856491303
 10
16.36402202268168
 20
0.5121909807663166
 10
16.35070020627543
 20
0.5121909807663166
  0
LWPOLYLINE
  5
AE6
330
18
100
AcDbEntity
  8
TEXT
100
AcDbPolyline
 90
        2
 70
     0
 43
0.0006660908203125
 10
16.30407384885356
 20
0.5021996184616313
 10
16.27743021604106
 20
0.5021996184616313
  0
LWPOLYLINE
  5
AE7
330
18
100
AcDbEntity
  8
TEXT
100
AcDbPolyline
 90
        2
 70
     0
 43
0.0001332181640625
 10
16.30407384885356
 20
0.4156078118210047
 10
16.36402202268168
 20
0.4755559856491303
  0
LWPOLYLINE
  5
AE8
330
18
100
AcDbEntity
  8
TEXT
100
AcDbPolyline
 90
        2
 70
     0
 43
0.0001332181640625
 10
16.30407384885356
 20
0.5021996184616313
 10
16.36402202268168
 20
0.5121909807663166
  0
LWPOLYLINE
  5
AE9
330
18
100
AcDbEntity
  8
TEXT
100
AcDbPolyline
 90
        2
 70
     0
 43
0.0001332181640625
 10
16.35070020627543
 20
0.5121909807663166
 10
16.27743021604106
 20
0.5021996184616313
  0
LWPOLYLINE
  5
AEA
330
18
100
AcDbEntity
  8
TEXT
100
AcDbPolyline
 90
        3
 70
     0
 43
0.0006660908203125
 10
16.30407384885356
 20
0.5021996184616313
 10
16.30407384885356
 20
0.4156078118210047
 10
16.39066565549418
 20
0.4156078118210047
  0
LWPOLYLINE
  5
AEB
330
18
100
AcDbEntity
  8
TEXT
100
AcDbPolyline
 90
        3
 70
     0
 43
0.0006660908203125
 10
16.27743021604106
 20
0.5021996184616313
 10
16.27743021604106
 20
0.3889641790085036
 10
16.39066565549418
 20
0.3889641790085036
  0
LWPOLYLINE
  5
AEC
330
18
100
AcDbEntity
  8
TEXT
100
AcDbPolyline
 90
        3
 70
     0
 43
0.0006660908203125
 10
16.43063110471293
 20
0.3889641790085036
 10
16.54386654416606
 20
0.3889641790085036
 10
16.54386654416606
 20
0.5021996184616313
  0
LWPOLYLINE
  5
AED
330
18
100
AcDbEntity
  8
TEXT
100
AcDbPolyline
 90
        3
 70
     0
 43
0.0006660908203125
 10
16.43063110471293
 20
0.4156078118210047
 10
16.51722291135356
 20
0.4156078118210047
 10
16.51722291135356
 20
0.5021996184616313
  0
LWPOLYLINE
  5
AEE
330
18
100
AcDbEntity
  8
TEXT
100
AcDbPolyline
 90
        2
 70
     0
 43
0.0001332181640625
 10
16.51722291135356
 20
0.4156078118210047
 10
16.45727473752543
 20
0.4755559856491303
  0
LWPOLYLINE
  5
AEF
330
18
100
AcDbEntity
  8
TEXT
100
AcDbPolyline
 90
        2
 70
     0
 43
0.0001332181640625
 10
16.51722291135356
 20
0.5021996184616313
 10
16.45727473752543
 20
0.5121909807663166
  0
LWPOLYLINE
  5
AF0
330
18
100
AcDbEntity
  8
TEXT
100
AcDbPolyline
 90
        2
 70
     0
 43
0.0001332181640625
 10
16.54386654416606
 20
0.5021996184616313
 10
16.47059655393168
 20
0.5121909807663166
  0
LWPOLYLINE
  5
AF1
330
18
100
AcDbEntity
  8
TEXT
100
AcDbPolyline
 90
        2
 70
     0
 43
0.0001332181640625
 10
16.51722291135356
 20
0.6287568743210059
 10
16.45727473752543
 20
0.5688087004928804
  0
LWPOLYLINE
  5
AF2
330
18
100
AcDbEntity
  8
TEXT
100
AcDbPolyline
 90
        2
 70
     0
 43
0.0001332181640625
 10
16.51722291135356
 20
0.5421650676803793
 10
16.45727473752543
 20
0.5321737053756906
  0
LWPOLYLINE
  5
AF3
330
18
100
AcDbEntity
  8
TEXT
100
AcDbPolyline
 90
        2
 70
     0
 43
0.0001332181640625
 10
16.47059655393168
 20
0.5321737053756906
 10
16.54386654416606
 20
0.5421650676803793
  0
LWPOLYLINE
  5
AF4
330
18
100
AcDbEntity
  8
TEXT
100
AcDbPolyline
 90
        3
 70
     0
 43
0.0006660908203125
 10
16.51722291135356
 20
0.5421650676803793
 10
16.51722291135356
 20
0.6287568743210059
 10
16.43063110471293
 20
0.6287568743210059
  0
LWPOLYLINE
  5
AF5
330
18
100
AcDbEntity
  8
TEXT
100
AcDbPolyline
 90
        3
 70
     0
 43
0.0006660908203125
 10
16.54386654416606
 20
0.5421650676803793
 10
16.54386654416606
 20
0.655400507133507
 10
16.43063110471293
 20
0.655400507133507
  0
ENDSEC
  0
SECTION
  2
OBJECTS
  0
DICTIONARY
  5
C
330
0
100
AcDbDictionary
  3
ACAD_GROUP
350
D
  3
ACAD_LAYOUT
350
AFA
  3
ACAD_MLINESTYLE
350
E
  3
ACAD_PLOTSETTINGS
350
AFB
  3
ACAD_PLOTSTYLENAME
350
AF8
  3
ACDBHEADERROUNDTRIPXREC
350
B06
  3
ACDBVARIABLEDICTIONARY
350
B03
  0
DICTIONARY
  5
B28
330
18
100
AcDbDictionary
280
     1
  3
ACAD_LAYOUTSELFREF
360
B29
  0
DICTIONARY
  5
B26
330
15
100
AcDbDictionary
280
     1
  3
ACAD_LAYOUTSELFREF
360
B27
  0
DICTIONARY
  5
D
102
{ACAD_REACTORS
330
C
102
}
330
C
100
AcDbDictionary
  3
*A1
350
4A2
  3
*A2
350
80E
  0
DICTIONARY
  5
AFA
102
{ACAD_REACTORS
330
C
102
}
330
C
100
AcDbDictionary
  0
DICTIONARY
  5
E
102
{ACAD_REACTORS
330
C
102
}
330
C
100
AcDbDictionary
  3
STANDARD
350
1B
  0
DICTIONARY
  5
AFB
102
{ACAD_REACTORS
330
C
102
}
330
C
100
AcDbDictionary
  0
ACDBDICTIONARYWDFLT
  5
AF8
102
{ACAD_REACTORS
330
C
102
}
330
C
100
AcDbDictionary
281
     1
  3
Normal
350
AF9
100
AcDbDictionaryWithDefault
340
AF9
  0
DICTIONARY
  5
B06
102
{ACAD_REACTORS
330
C
102
}
330
C
100
AcDbDictionary
  3
CEPSNTYPE
350
B10
  3
FINGERPRINTGUID
350
B11
  3
HYPERLINKBASE
350
B09
  3
INSUNITS
350
B0F
  3
LAYOUTDICT
350
B0B
  3
LWETCUNION
350
B0E
  3
PLOTSETDICT
350
B0C
  3
PLOTSTYLNAMDICT
350
B0D
  3
PSVPSCALE
350
B13
  3
PUCSBASE
350
B16
  3
PUCSORGBACK
350
B1C
  3
PUCSORGBOTTOM
350
B18
  3
PUCSORGFRONT
350
B1B
  3
PUCSORGLEFT
350
B19
  3
PUCSORGRIGHT
350
B1A
  3
PUCSORGTOP
350
B17
  3
PUCSORTHOREF
350
B14
  3
PUCSORTHOVIEW
350
B15
  3
STYLESHEET
350
B0A
  3
TSTACKALIGN
350
B07
  3
TSTACKSIZE
350
B08
  3
UCSBASE
350
B1F
  3
UCSORGBACK
350
B25
  3
UCSORGBOTTOM
350
B21
  3
UCSORGFRONT
350
B24
  3
UCSORGLEFT
350
B22
  3
UCSORGRIGHT
350
B23
  3
UCSORGTOP
350
B20
  3
UCSORTHOREF
350
B1D
  3
UCSORTHOVIEW
350
B1E
  3
VERSIONGUID
350
B12
  0
DICTIONARY
  5
B03
102
{ACAD_REACTORS
330
C
102
}
330
C
100
AcDbDictionary
  3
DIMASSOC
350
B04
  0
XRECORD
  5
B29
102
{ACAD_REACTORS
330
B28
102
}
330
B28
100
AcDbXrecord
340
18
  0
XRECORD
  5
B27
102
{ACAD_REACTORS
330
B26
102
}
330
B26
100
AcDbXrecord
340
15
  0
GROUP
  5
4A2
102
{ACAD_REACTORS
330
D
102
}
330
D
100
AcDbGroup
300
BORDER FRAME 10-1-95
 70
     3
 71
     1
  0
GROUP
  5
80E
102
{ACAD_REACTORS
330
D
102
}
330
D
100
AcDbGroup
300

 70
     1
 71
     1
  0
MLINESTYLE
  5
1B
102
{ACAD_REACTORS
330
E
102
}
330
E
100
AcDbMlineStyle
  2
STANDARD
 70
     0
  3

 62
     0
 51
90.0
 52
90.0
 71
     2
 49
0.5
 62
   256
  6
BYLAYER
 49
-0.5
 62
   256
  6
BYLAYER
  0
ACDBPLACEHOLDER
  5
AF9
102
{ACAD_REACTORS
330
AF8
102
}
330
AF8
100
AcDbPlaceHolder
280
     0
  0
XRECORD
  5
B10
102
{ACAD_REACTORS
330
B06
102
}
330
B06
100
AcDbXrecord
 90
        0
  0
XRECORD
  5
B11
102
{ACAD_REACTORS
330
B06
102
}
330
B06
100
AcDbXrecord
  1
{30633E70-8DB4-11D6-88E6-0090279574E7}
  0
XRECORD
  5
B09
102
{ACAD_REACTORS
330
B06
102
}
330
B06
100
AcDbXrecord
  1

  0
XRECORD
  5
B0F
102
{ACAD_REACTORS
330
B06
102
}
330
B06
100
AcDbXrecord
 90
        0
  0
XRECORD
  5
B0B
102
{ACAD_REACTORS
330
B06
102
}
330
B06
100
AcDbXrecord
340
AFA
  0
XRECORD
  5
B0E
102
{ACAD_REACTORS
330
B06
102
}
330
B06
100
AcDbXrecord
 90
    14877
  0
XRECORD
  5
B0C
102
{ACAD_REACTORS
330
B06
102
}
330
B06
100
AcDbXrecord
340
AFB
  0
XRECORD
  5
B0D
102
{ACAD_REACTORS
330
B06
102
}
330
B06
100
AcDbXrecord
340
AF8
  0
XRECORD
  5
B13
102
{ACAD_REACTORS
330
B06
102
}
330
B06
100
AcDbXrecord
 40
0.0
  0
XRECORD
  5
B16
102
{ACAD_REACTORS
330
B06
102
}
330
B06
100
AcDbXrecord
340
0
  0
XRECORD
  5
B1C
102
{ACAD_REACTORS
330
B06
102
}
330
B06
100
AcDbXrecord
 10
0.0
 20
0.0
 30
0.0
  0
XRECORD
  5
B18
102
{ACAD_REACTORS
330
B06
102
}
330
B06
100
AcDbXrecord
 10
0.0
 20
0.0
 30
0.0
  0
XRECORD
  5
B1B
102
{ACAD_REACTORS
330
B06
102
}
330
B06
100
AcDbXrecord
 10
0.0
 20
0.0
 30
0.0
  0
XRECORD
  5
B19
102
{ACAD_REACTORS
330
B06
102
}
330
B06
100
AcDbXrecord
 10
0.0
 20
0.0
 30
0.0
  0
XRECORD
  5
B1A
102
{ACAD_REACTORS
330
B06
102
}
330
B06
100
AcDbXrecord
 10
0.0
 20
0.0
 30
0.0
  0
XRECORD
  5
B17
102
{ACAD_REACTORS
330
B06
102
}
330
B06
100
AcDbXrecord
 10
0.0
 20
0.0
 30
0.0
  0
XRECORD
  5
B14
102
{ACAD_REACTORS
330
B06
102
}
330
B06
100
AcDbXrecord
340
0
  0
XRECORD
  5
B15
102
{ACAD_REACTORS
330
B06
102
}
330
B06
100
AcDbXrecord
 70
     0
  0
XRECORD
  5
B0A
102
{ACAD_REACTORS
330
B06
102
}
330
B06
100
AcDbXrecord
  1

  0
XRECORD
  5
B07
102
{ACAD_REACTORS
330
B06
102
}
330
B06
100
AcDbXrecord
 90
        1
  0
XRECORD
  5
B08
102
{ACAD_REACTORS
330
B06
102
}
330
B06
100
AcDbXrecord
 90
       70
  0
XRECORD
  5
B1F
102
{ACAD_REACTORS
330
B06
102
}
330
B06
100
AcDbXrecord
340
0
  0
XRECORD
  5
B25
102
{ACAD_REACTORS
330
B06
102
}
330
B06
100
AcDbXrecord
 10
0.0
 20
0.0
 30
0.0
  0
XRECORD
  5
B21
102
{ACAD_REACTORS
330
B06
102
}
330
B06
100
AcDbXrecord
 10
0.0
 20
0.0
 30
0.0
  0
XRECORD
  5
B24
102
{ACAD_REACTORS
330
B06
102
}
330
B06
100
AcDbXrecord
 10
0.0
 20
0.0
 30
0.0
  0
XRECORD
  5
B22
102
{ACAD_REACTORS
330
B06
102
}
330
B06
100
AcDbXrecord
 10
0.0
 20
0.0
 30
0.0
  0
XRECORD
  5
B23
102
{ACAD_REACTORS
330
B06
102
}
330
B06
100
AcDbXrecord
 10
0.0
 20
0.0
 30
0.0
  0
XRECORD
  5
B20
102
{ACAD_REACTORS
330
B06
102
}
330
B06
100
AcDbXrecord
 10
0.0
 20
0.0
 30
0.0
  0
XRECORD
  5
B1D
102
{ACAD_REACTORS
330
B06
102
}
330
B06
100
AcDbXrecord
340
0
  0
XRECORD
  5
B1E
102
{ACAD_REACTORS
330
B06
102
}
330
B06
100
AcDbXrecord
 70
     0
  0
XRECORD
  5
B12
102
{ACAD_REACTORS
330
B06
102
}
330
B06
100
AcDbXrecord
  1
{30633E72-8DB4-11D6-88E6-0090279574E7}
  0
DICTIONARYVAR
  5
B04
102
{ACAD_REACTORS
330
B03
102
}
330
B03
100
DictionaryVariables
280
     0
  1
1
  0
ENDSEC
  0
EOF
