  0
SECTION
  2
HEADER
  9
$ACADVER
  1
AC1014
  9
$ACADMAINTVER
 70
     9
  9
$DWGCODEPAGE
  3
ANSI_1252
  9
$INSBASE
 10
0.0
 20
0.0
 30
0.0
  9
$EXTMIN
 10
-0.8540146402298411
 20
-0.2683704948366389
 30
0.0
  9
$EXTMAX
 10
2.631204681517287
 20
1.841685913614931
 30
0.0
  9
$LIMMIN
 10
0.0
 20
0.0
  9
$LIMMAX
 10
12.0
 20
9.0
  9
$ORTHOMODE
 70
     1
  9
$REGENMODE
 70
     1
  9
$FILLMODE
 70
     1
  9
$QTEXTMODE
 70
     0
  9
$MIRRTEXT
 70
     0
  9
$DRAGMODE
 70
     2
  9
$LTSCALE
 40
1.0
  9
$OSMODE
 70
    39
  9
$ATTMODE
 70
     1
  9
$TEXTSIZE
 40
0.125
  9
$TRACEWID
 40
0.05
  9
$TEXTSTYLE
  7
ROMANS
  9
$CLAYER
  8
DIM
  9
$CELTYPE
  6
BYLAYER
  9
$CECOLOR
 62
   256
  9
$CELTSCALE
 40
1.0
  9
$DELOBJ
 70
     1
  9
$DISPSILH
 70
     1
  9
$DIMSCALE
 40
1.0
  9
$DIMASZ
 40
0.125
  9
$DIMEXO
 40
0.125
  9
$DIMDLI
 40
0.38
  9
$DIMRND
 40
0.0
  9
$DIMDLE
 40
0.0
  9
$DIMEXE
 40
0.125
  9
$DIMTP
 40
0.01
  9
$DIMTM
 40
0.01
  9
$DIMTXT
 40
0.125
  9
$DIMCEN
 40
0.09
  9
$DIMTSZ
 40
0.0
  9
$DIMTOL
 70
     0
  9
$DIMLIM
 70
     0
  9
$DIMTIH
 70
     1
  9
$DIMTOH
 70
     1
  9
$DIMSE1
 70
     1
  9
$DIMSE2
 70
     0
  9
$DIMTAD
 70
     0
  9
$DIMZIN
 70
     4
  9
$DIMBLK
  1

  9
$DIMASO
 70
     1
  9
$DIMSHO
 70
     1
  9
$DIMPOST
  1

  9
$DIMAPOST
  1

  9
$DIMALT
 70
     0
  9
$DIMALTD
 70
     2
  9
$DIMALTF
 40
25.4
  9
$DIMLFAC
 40
0.5
  9
$DIMTOFL
 70
     0
  9
$DIMTVP
 40
0.0
  9
$DIMTIX
 70
     0
  9
$DIMSOXD
 70
     0
  9
$DIMSAH
 70
     0
  9
$DIMBLK1
  1

  9
$DIMBLK2
  1

  9
$DIMSTYLE
  2
STANDARD
  9
$DIMCLRD
 70
     0
  9
$DIMCLRE
 70
     0
  9
$DIMCLRT
 70
     0
  9
$DIMTFAC
 40
1.0
  9
$DIMGAP
 40
0.09
  9
$DIMJUST
 70
     0
  9
$DIMSD1
 70
     0
  9
$DIMSD2
 70
     0
  9
$DIMTOLJ
 70
     1
  9
$DIMTZIN
 70
     0
  9
$DIMALTZ
 70
     0
  9
$DIMALTTZ
 70
     0
  9
$DIMFIT
 70
     3
  9
$DIMUPT
 70
     0
  9
$DIMUNIT
 70
     2
  9
$DIMDEC
 70
     3
  9
$DIMTDEC
 70
     4
  9
$DIMALTU
 70
     2
  9
$DIMALTTD
 70
     2
  9
$DIMTXSTY
  7
ROMANS
  9
$DIMAUNIT
 70
     0
  9
$LUNITS
 70
     2
  9
$LUPREC
 70
     3
  9
$SKETCHINC
 40
0.1
  9
$FILLETRAD
 40
0.0
  9
$AUNITS
 70
     0
  9
$AUPREC
 70
     0
  9
$MENU
  1
AUTOMSTR
  9
$ELEVATION
 40
0.0
  9
$PELEVATION
 40
0.0
  9
$THICKNESS
 40
0.0
  9
$LIMCHECK
 70
     0
  9
$BLIPMODE
 70
     0
  9
$CHAMFERA
 40
0.0
  9
$CHAMFERB
 40
0.0
  9
$CHAMFERC
 40
0.0
  9
$CHAMFERD
 40
0.0
  9
$SKPOLY
 70
     0
  9
$TDCREATE
 40
2448397.448267013
  9
$TDUPDATE
 40
2452458.296345428
  9
$TDINDWG
 40
0.0118233681
  9
$TDUSRTIMER
 40
0.0118233681
  9
$USRTIMER
 70
     1
  9
$ANGBASE
 50
0.0
  9
$ANGDIR
 70
     0
  9
$PDMODE
 70
     0
  9
$PDSIZE
 40
0.0
  9
$PLINEWID
 40
0.0
  9
$COORDS
 70
     2
  9
$SPLFRAME
 70
     0
  9
$SPLINETYPE
 70
     6
  9
$SPLINESEGS
 70
     8
  9
$ATTDIA
 70
     0
  9
$ATTREQ
 70
     1
  9
$HANDLING
 70
 22529
  9
$HANDSEED
  5
3C2
  9
$SURFTAB1
 70
     6
  9
$SURFTAB2
 70
     6
  9
$SURFTYPE
 70
     6
  9
$SURFU
 70
     6
  9
$SURFV
 70
     6
  9
$UCSNAME
  2

  9
$UCSORG
 10
0.0
 20
0.0
 30
0.0
  9
$UCSXDIR
 10
1.0
 20
0.0
 30
0.0
  9
$UCSYDIR
 10
0.0
 20
1.0
 30
0.0
  9
$PUCSNAME
  2

  9
$PUCSORG
 10
0.0
 20
0.0
 30
0.0
  9
$PUCSXDIR
 10
1.0
 20
0.0
 30
0.0
  9
$PUCSYDIR
 10
0.0
 20
1.0
 30
0.0
  9
$USERI1
 70
     0
  9
$USERI2
 70
     0
  9
$USERI3
 70
     0
  9
$USERI4
 70
     0
  9
$USERI5
 70
     0
  9
$USERR1
 40
0.0
  9
$USERR2
 40
0.0
  9
$USERR3
 40
0.0
  9
$USERR4
 40
0.0
  9
$USERR5
 40
0.0
  9
$WORLDVIEW
 70
     1
  9
$SHADEDGE
 70
     3
  9
$SHADEDIF
 70
    70
  9
$TILEMODE
 70
     1
  9
$MAXACTVP
 70
    16
  9
$PINSBASE
 10
0.0
 20
0.0
 30
0.0
  9
$PLIMCHECK
 70
     0
  9
$PEXTMIN
 10
1.000000000000000E+20
 20
1.000000000000000E+20
 30
1.000000000000000E+20
  9
$PEXTMAX
 10
-1.000000000000000E+20
 20
-1.000000000000000E+20
 30
-1.000000000000000E+20
  9
$PLIMMIN
 10
0.0
 20
0.0
  9
$PLIMMAX
 10
12.0
 20
9.0
  9
$UNITMODE
 70
     0
  9
$VISRETAIN
 70
     0
  9
$PLINEGEN
 70
     1
  9
$PSLTSCALE
 70
     0
  9
$TREEDEPTH
 70
  3020
  9
$PICKSTYLE
 70
     1
  9
$CMLSTYLE
  2
STANDARD
  9
$CMLJUST
 70
     0
  9
$CMLSCALE
 40
1.0
  9
$PROXYGRAPHICS
 70
     1
  9
$MEASUREMENT
 70
     0
  0
ENDSEC
  0
SECTION
  2
CLASSES
  0
CLASS
  1
LWPOLYLINE
  2
AcDbPolyline
  3
AutoCAD 2000
 90
        0
280
     0
281
     1
  0
CLASS
  1
ACDBDICTIONARYWDFLT
  2
AcDbDictionaryWithDefault
  3
AutoCAD 2000
 90
        0
280
     0
281
     0
  0
CLASS
  1
ACDBPLACEHOLDER
  2
AcDbPlaceHolder
  3
AutoCAD 2000
 90
        0
280
     0
281
     0
  0
CLASS
  1
LAYOUT
  2
AcDbLayout
  3
AutoCAD 2000
 90
        0
280
     0
281
     0
  0
CLASS
  1
DICTIONARYVAR
  2
AcDbDictionaryVar
  3
AutoCAD 2000
 90
        0
280
     0
281
     0
  0
CLASS
  1
LONG_TRANSACTION
  2
AcDbLongTransaction
  3
AutoCAD 2000
 90
        0
280
     0
281
     0
  0
CLASS
  1
LWPOLYLINE
  2
AcDbPolyline
  3
AutoCAD 2000
 90
        0
280
     0
281
     1
  0
CLASS
  1
HATCH
  2
AcDbHatch
  3
AutoCAD 2000
 90
        0
280
     0
281
     1
  0
CLASS
  1
XRECORD
  2
AcDbXrecord
  3
AutoCAD 2000
 90
        0
280
     0
281
     0
  0
ENDSEC
  0
SECTION
  2
TABLES
  0
TABLE
  2
VPORT
  5
8
330
0
100
AcDbSymbolTable
 70
     2
  0
VPORT
  5
39D
330
8
100
AcDbSymbolTableRecord
100
AcDbViewportTableRecord
  2
*ACTIVE
 70
     0
 10
0.0
 20
0.0
 11
1.0
 21
1.0
 12
3.810887654948422
 22
0.786474206440877
 13
0.0
 23
0.0
 14
0.015625
 24
0.015625
 15
0.125
 25
0.125
 16
0.0
 26
0.0
 36
1.0
 17
0.0
 27
0.0
 37
0.0
 40
2.163588541909629
 41
4.320930232558139
 42
50.0
 43
0.0
 44
0.0
 50
0.0
 51
0.0
 71
     0
 72
  2000
 73
     1
 74
     1
 75
     0
 76
     0
 77
     0
 78
     1
  0
ENDTAB
  0
TABLE
  2
LTYPE
  5
5
330
0
100
AcDbSymbolTable
 70
     1
  0
LTYPE
  5
12
330
5
100
AcDbSymbolTableRecord
100
AcDbLinetypeTableRecord
  2
BYBLOCK
 70
     0
  3

 72
    65
 73
     0
 40
0.0
  0
LTYPE
  5
13
330
5
100
AcDbSymbolTableRecord
100
AcDbLinetypeTableRecord
  2
BYLAYER
 70
     0
  3

 72
    65
 73
     0
 40
0.0
  0
LTYPE
  5
14
330
5
100
AcDbSymbolTableRecord
100
AcDbLinetypeTableRecord
  2
CONTINUOUS
 70
     0
  3
Solid line
 72
    65
 73
     0
 40
0.0
  0
ENDTAB
  0
TABLE
  2
LAYER
  5
2
330
0
100
AcDbSymbolTable
 70
     3
  0
LAYER
  5
F
330
2
100
AcDbSymbolTableRecord
100
AcDbLayerTableRecord
  2
0
 70
     0
 62
     7
  6
CONTINUOUS
  0
LAYER
  5
2D
330
2
100
AcDbSymbolTableRecord
100
AcDbLayerTableRecord
  2
DIM
 70
     0
 62
     4
  6
CONTINUOUS
  0
LAYER
  5
2E
330
2
100
AcDbSymbolTableRecord
100
AcDbLayerTableRecord
  2
TEXT
 70
     0
 62
     3
  6
CONTINUOUS
  0
ENDTAB
  0
TABLE
  2
STYLE
  5
3
330
0
100
AcDbSymbolTable
 70
     3
  0
STYLE
  5
10
330
3
100
AcDbSymbolTableRecord
100
AcDbTextStyleTableRecord
  2
STANDARD
 70
     0
 40
0.0
 41
1.0
 50
0.0
 71
     0
 42
0.125
  3
txt
  4

  0
STYLE
  5
288
330
3
100
AcDbSymbolTableRecord
100
AcDbTextStyleTableRecord
  2
ITALICC
 70
     0
 40
0.0
 41
1.0
 50
0.0
 71
     0
 42
0.125
  3
italicc
  4

  0
STYLE
  5
399
330
3
100
AcDbSymbolTableRecord
100
AcDbTextStyleTableRecord
  2
ROMANS
 70
     0
 40
0.0
 41
1.0
 50
0.0
 71
     0
 42
0.125
  3
romans.shx
  4

  0
ENDTAB
  0
TABLE
  2
VIEW
  5
6
330
0
100
AcDbSymbolTable
 70
     0
  0
ENDTAB
  0
TABLE
  2
UCS
  5
7
330
0
100
AcDbSymbolTable
 70
     0
  0
ENDTAB
  0
TABLE
  2
APPID
  5
9
330
0
100
AcDbSymbolTable
 70
     1
  0
APPID
  5
11
330
9
100
AcDbSymbolTableRecord
100
AcDbRegAppTableRecord
  2
ACAD
 70
     0
  0
ENDTAB
  0
TABLE
  2
DIMSTYLE
  5
A
330
0
100
AcDbSymbolTable
 70
     1
  0
DIMSTYLE
105
27C
330
A
100
AcDbSymbolTableRecord
100
AcDbDimStyleTableRecord
  2
STANDARD
 70
     0
  3

  4

  5

  6

  7

 40
1.0
 41
0.18
 42
0.0625
 43
0.38
 44
0.18
 45
0.0
 46
0.0
 47
0.0
 48
0.0
140
0.18
141
0.09
142
0.0
143
25.4
144
1.0
145
0.0
146
1.0
147
0.09
 71
     0
 72
     0
 73
     1
 74
     1
 75
     0
 76
     0
 77
     0
 78
     0
170
     0
171
     2
172
     0
173
     0
174
     0
175
     0
176
     0
177
     0
178
     0
270
     2
271
     4
272
     4
273
     2
274
     2
340
10
275
     0
280
     0
281
     0
282
     0
283
     1
284
     0
285
     0
286
     0
287
     3
288
     0
  0
ENDTAB
  0
TABLE
  2
BLOCK_RECORD
  5
1
330
0
100
AcDbSymbolTable
 70
     0
  0
BLOCK_RECORD
  5
18
102
{ACAD_XDICTIONARY
360
3C0
102
}
330
1
100
AcDbSymbolTableRecord
100
AcDbBlockTableRecord
  2
*MODEL_SPACE
  0
BLOCK_RECORD
  5
15
102
{ACAD_XDICTIONARY
360
3BE
102
}
330
1
100
AcDbSymbolTableRecord
100
AcDbBlockTableRecord
  2
*PAPER_SPACE
  0
ENDTAB
  0
ENDSEC
  0
SECTION
  2
BLOCKS
  0
BLOCK
  5
37
330
18
100
AcDbEntity
  8
0
100
AcDbBlockBegin
  2
*MODEL_SPACE
 70
     0
 10
0.0
 20
0.0
 30
0.0
  3
*MODEL_SPACE
  1

  0
ENDBLK
  5
38
330
18
100
AcDbEntity
  8
0
100
AcDbBlockEnd
  0
BLOCK
  5
35
330
15
100
AcDbEntity
 67
     1
  8
0
100
AcDbBlockBegin
  2
*PAPER_SPACE
 70
     0
 10
0.0
 20
0.0
 30
0.0
  3
*PAPER_SPACE
  1

  0
ENDBLK
  5
36
330
15
100
AcDbEntity
 67
     1
  8
0
100
AcDbBlockEnd
  0
ENDSEC
  0
SECTION
  2
ENTITIES
  0
LWPOLYLINE
  5
1D0
330
18
100
AcDbEntity
  8
0
100
AcDbPolyline
 90
       15
 70
     1
 43
0.0
 10
0.4463918833969185
 20
1.341685913614931
 10
1.696391883396918
 20
1.341685913614931
 10
1.696391883396918
 20
1.466685913614931
 10
1.571391883396918
 20
1.466685913614931
 10
1.633900122853809
 20
1.40417767415804
 10
1.050100122853809
 20
1.40417767415804
 10
1.040129917239079
 20
1.39420746854331
 10
1.030159711624348
 20
1.40417767415804
 10
0.4463597116243481
 20
1.40417767415804
 10
0.5088679510812391
 20
1.466685913614931
 10
0.4463918833969185
 20
1.466685913614931
 10
0.4463918833969185
 20
1.841685913614931
 10
0.3838918833969185
 20
1.841685913614931
 10
0.3838918833969185
 20
0.5916859136149315
 10
0.4463918833969185
 20
0.5916859136149315
  0
TEXT
  5
30E
330
18
100
AcDbEntity
  8
TEXT
100
AcDbText
 10
0.1359907485211117
 20
0.1896481092459426
 30
0.0
 40
0.125
  1
PART #110129
  7
ITALICC
 72
     1
 11
0.888966938997302
 21
0.1896481092459426
 31
0.0
100
AcDbText
  0
LINE
  5
30F
330
18
100
AcDbEntity
  8
TEXT
100
AcDbLine
 10
1.044281569020685
 20
0.0095711178828743
 30
0.0
 11
0.997183410464701
 21
-0.0662942085286638
 31
0.0
  0
LINE
  5
310
330
18
100
AcDbEntity
  8
TEXT
100
AcDbLine
 10
0.997183410464701
 20
-0.0662942085286638
 30
0.0
 11
0.997183410464701
 21
0.0750353236504751
 31
0.0
  0
LINE
  5
311
330
18
100
AcDbEntity
  8
TEXT
100
AcDbLine
 10
0.997183410464701
 20
0.0750353236504751
 30
0.0
 11
0.9288685319154277
 21
0.0750353236504751
 31
0.0
  0
LINE
  5
312
330
18
100
AcDbEntity
  8
TEXT
100
AcDbLine
 10
0.9288685319154277
 20
0.0750353236504751
 30
0.0
 11
0.9288685319154224
 21
0.0095711178828743
 31
0.0
  0
LINE
  5
313
330
18
100
AcDbEntity
  8
TEXT
100
AcDbLine
 10
1.054716285784608
 20
-0.1003221250580992
 30
0.0
 11
1.119273401750313
 21
0.0095711178828743
 31
0.0
  0
LINE
  5
314
330
18
100
AcDbEntity
  8
TEXT
100
AcDbLine
 10
1.119273401750313
 20
0.0095711178828743
 30
0.0
 11
1.044281569020687
 21
0.0095711178828743
 31
0.0
  0
LINE
  5
315
330
18
100
AcDbEntity
  8
TEXT
100
AcDbLine
 10
0.9333484192419279
 20
-0.2569019151056366
 30
0.0
 11
0.9977266035605483
 21
-0.2569019151056366
 31
0.0
  0
LINE
  5
316
330
18
100
AcDbEntity
  8
TEXT
100
AcDbLine
 10
0.9977266035605483
 20
-0.2569019151056366
 30
0.0
 11
0.9977266035605483
 21
-0.1253223466294564
 31
0.0
  0
LINE
  5
317
330
18
100
AcDbEntity
  8
TEXT
100
AcDbLine
 10
0.9977266035605483
 20
-0.1253223466294564
 30
0.0
 11
1.073630136772012
 21
-0.2569019151056366
 31
0.0
  0
LINE
  5
318
330
18
100
AcDbEntity
  8
TEXT
100
AcDbLine
 10
1.073630136772012
 20
-0.2569019151056366
 30
0.0
 11
1.150208509148218
 21
-0.2569019151056366
 31
0.0
  0
LINE
  5
319
330
18
100
AcDbEntity
  8
TEXT
100
AcDbLine
 10
0.9333484192419225
 20
-0.0547055767738911
 30
0.0
 11
0.9333484192419279
 21
-0.2569019151056366
 31
0.0
  0
LINE
  5
31A
330
18
100
AcDbEntity
  8
TEXT
100
AcDbLine
 10
1.150208509148218
 20
-0.2569019151056366
 30
0.0
 11
1.054716285784608
 21
-0.1003221250580992
 31
0.0
  0
ARC
  5
31B
330
18
100
AcDbEntity
  8
TEXT
100
AcDbCircle
 10
0.8567004379493639
 20
-0.0796114520565539
 30
0.0
 40
0.0249058752826653
100
AcDbArc
 50
89.99971217465335
 51
179.9999999999985
  0
ARC
  5
31C
330
18
100
AcDbEntity
  8
TEXT
100
AcDbCircle
 10
0.8645893948889415
 20
-0.0216746093993905
 30
0.0
 40
0.0314112657011332
100
AcDbArc
 50
95.88484768694724
 51
173.2388340632136
  0
LINE
  5
31D
330
18
100
AcDbEntity
  8
TEXT
100
AcDbLine
 10
0.8333965778258329
 20
-0.0179765319780003
 30
0.0
 11
0.8333965778258329
 21
0.0095711178828743
 31
0.0
  0
LINE
  5
31E
330
18
100
AcDbEntity
  8
TEXT
100
AcDbLine
 10
0.8333965778258329
 20
0.0095711178828743
 30
0.0
 11
0.7694996715263321
 21
0.0095711178828743
 31
0.0
  0
LINE
  5
31F
330
18
100
AcDbEntity
  8
TEXT
100
AcDbLine
 10
0.7694996715263321
 20
0.0095711178828743
 30
0.0
 11
0.7694996715263321
 21
-0.095640860670553
 31
0.0
  0
LINE
  5
320
330
18
100
AcDbEntity
  8
TEXT
100
AcDbLine
 10
0.690539732651291
 20
0.0095711178828743
 30
0.0
 11
0.5557078234342319
 21
0.0095711178828743
 31
0.0
  0
LINE
  5
321
330
18
100
AcDbEntity
  8
TEXT
100
AcDbLine
 10
0.5557078234342319
 20
0.0095711178828743
 30
0.0
 11
0.5557078234342319
 21
-0.0187514278867695
 31
0.0
  0
LINE
  5
322
330
18
100
AcDbEntity
  8
TEXT
100
AcDbLine
 10
0.6150219198275507
 20
-0.0919805502360234
 30
0.0
 11
0.6973099096109339
 21
-0.0919805502360234
 31
0.0
  0
LINE
  5
323
330
18
100
AcDbEntity
  8
TEXT
100
AcDbLine
 10
0.6973099096109339
 20
-0.0919805502360234
 30
0.0
 11
0.6870451491973695
 21
-0.0707300106633291
 31
0.0
  0
LINE
  5
324
330
18
100
AcDbEntity
  8
TEXT
100
AcDbLine
 10
0.6615088343068125
 20
-0.0547055767738911
 30
0.0
 11
0.5543025609195232
 21
-0.0547055767738911
 31
0.0
  0
ARC
  5
325
330
18
100
AcDbEntity
  8
TEXT
100
AcDbCircle
 10
0.6615088343068117
 20
-0.0830649517738884
 30
0.0
 40
0.028359375
100
AcDbArc
 50
25.78218179591245
 51
90.0
  0
LINE
  5
326
330
18
100
AcDbEntity
  8
TEXT
100
AcDbLine
 10
0.7694996715263321
 20
-0.095640860670553
 30
0.0
 11
0.7257489003444304
 21
-0.0133905846744078
 31
0.0
  0
ARC
  5
327
330
18
100
AcDbEntity
  8
TEXT
100
AcDbCircle
 10
0.6885127928742226
 20
-0.0320124492380281
 30
0.0
 40
0.0416329381542859
100
AcDbArc
 50
26.56974201007528
 51
87.20939649401342
  0
LWPOLYLINE
  5
328
330
18
100
AcDbEntity
  8
TEXT
100
AcDbPolyline
 90
        2
 70
     0
 43
0.0
 10
0.7734393488313707
 20
-0.2134109701551985
 42
-0.2901071551932486
 10
0.7303634159637263
 20
-0.2569019151056366
 42
-5.328517124445184
  0
LWPOLYLINE
  5
329
330
18
100
AcDbEntity
  8
TEXT
100
AcDbPolyline
 90
        2
 70
     0
 43
0.0
 10
0.7734393488313707
 20
-0.2134109701551985
 10
0.7734393488313707
 20
-0.2569019151056366
  0
LWPOLYLINE
  5
32A
330
18
100
AcDbEntity
  8
TEXT
100
AcDbPolyline
 90
        2
 70
     0
 43
0.0
 10
0.7734393488313707
 20
-0.2569019151056366
 10
0.8317945626667047
 20
-0.2569019151056366
  0
LWPOLYLINE
  5
32B
330
18
100
AcDbEntity
  8
TEXT
100
AcDbPolyline
 90
        2
 70
     0
 43
0.0
 10
0.5532700654647141
 20
-0.2134109701551985
 42
0.2901071551932823
 10
0.5963459983323496
 20
-0.2569019151056366
 42
5.328517124445801
  0
LWPOLYLINE
  5
32C
330
18
100
AcDbEntity
  8
TEXT
100
AcDbPolyline
 90
        2
 70
     0
 43
0.0
 10
0.5963459983323496
 20
-0.2569019151056366
 10
0.7303634159637263
 20
-0.2569019151056366
 42
0.9999999999999998
  0
LWPOLYLINE
  5
32D
330
18
100
AcDbEntity
  8
TEXT
100
AcDbPolyline
 90
        4
 70
     1
 43
0.0
 10
0.7102409508938337
 20
-0.1539379371216114
 10
0.6215806322339752
 20
-0.1539379371216114
 42
0.9999999999999998
 10
0.6215806322339752
 20
-0.1963364776254721
 10
0.7102409508938337
 20
-0.1963364776254721
 42
1.0
  0
ARC
  5
32E
330
18
100
AcDbEntity
  8
TEXT
100
AcDbCircle
 10
0.6150219198275498
 20
-0.159666131380142
 30
0.0
 40
0.0676855811441166
100
AcDbArc
 50
90.0
 51
153.7768192527749
  0
LINE
  5
32F
330
18
100
AcDbEntity
  8
TEXT
100
AcDbLine
 10
0.8317945626667055
 20
-0.2569019151056366
 30
0.0
 11
0.8317945626667002
 21
-0.0796114096741683
 31
0.0
  0
LINE
  5
330
330
18
100
AcDbEntity
  8
TEXT
100
AcDbLine
 10
0.5543025609195232
 20
-0.0547055767738911
 30
0.0
 11
0.5543025609195232
 21
-0.1297579828480977
 31
0.0
  0
LINE
  5
331
330
18
100
AcDbEntity
  8
TEXT
100
AcDbLine
 10
0.8567004379493647
 20
-0.0547055767738911
 30
0.0
 11
0.9333484192419225
 21
-0.0547055767738911
 31
0.0
  0
LINE
  5
332
330
18
100
AcDbEntity
  8
TEXT
100
AcDbLine
 10
0.9288685319154224
 20
0.0095711178828743
 30
0.0
 11
0.8613688142659059
 21
0.0095711178828743
 31
0.0
  0
LWPOLYLINE
  5
333
330
18
100
AcDbEntity
  8
TEXT
100
AcDbPolyline
 90
        2
 70
     0
 43
0.0
 10
0.3484925601418389
 20
-0.0547055767738911
 42
-0.4142135623731017
 10
0.3560463493079524
 20
-0.062259365940001
 42
-0.9999999999999998
  0
LWPOLYLINE
  5
334
330
18
100
AcDbEntity
  8
TEXT
100
AcDbPolyline
 90
        2
 70
     0
 43
0.0
 10
0.4772379930107427
 20
-0.0547055767738911
 42
-0.4142135623731017
 10
0.4847917821768562
 20
-0.062259365940001
 42
-0.9999999999999998
  0
LWPOLYLINE
  5
335
330
18
100
AcDbEntity
  8
TEXT
100
AcDbPolyline
 90
        2
 70
     0
 43
0.0
 10
0.3658442831918602
 20
0.0095711178828779
 42
-0.3328679258950098
 10
0.4016259739050217
 20
-0.017596378878018
 42
6.772930709997214
  0
LWPOLYLINE
  5
336
330
18
100
AcDbEntity
  8
TEXT
100
AcDbPolyline
 90
        3
 70
     0
 43
0.0
 10
0.5199261327210661
 20
0.0095711178828779
 10
0.4016259739050217
 20
0.0095711178828779
 10
0.4016259739050217
 20
-0.017596378878018
 42
-1.960274751411753
  0
LINE
  5
337
330
18
100
AcDbEntity
  8
TEXT
100
AcDbLine
 10
0.4231043960897934
 20
-0.0547055767738911
 30
0.0
 11
0.4772379930107436
 21
-0.0547055767738911
 31
0.0
  0
LINE
  5
338
330
18
100
AcDbEntity
  8
TEXT
100
AcDbLine
 10
0.2986572803186922
 20
-0.0547055767738911
 30
0.0
 11
0.3484925601418398
 21
-0.0547055767738911
 31
0.0
  0
LINE
  5
339
330
18
100
AcDbEntity
  8
TEXT
100
AcDbLine
 10
0.3658442831918593
 20
0.0095711178828743
 30
0.0
 11
0.231826227260723
 21
0.0095711178828743
 31
0.0
  0
LINE
  5
33A
330
18
100
AcDbEntity
  8
TEXT
100
AcDbLine
 10
0.3560463493079533
 20
-0.2569019151056366
 30
0.0
 11
0.4231043960897934
 21
-0.2569019151056366
 31
0.0
  0
LINE
  5
33B
330
18
100
AcDbEntity
  8
TEXT
100
AcDbLine
 10
0.2006539466192576
 20
-0.2569019151056366
 30
0.0
 11
0.2986572803186922
 21
-0.2569019151056366
 31
0.0
  0
LINE
  5
33C
330
18
100
AcDbEntity
  8
TEXT
100
AcDbLine
 10
0.231826227260723
 20
-0.1912930888495339
 30
0.0
 11
0.2148325903761217
 21
-0.1912930888495339
 31
0.0
  0
ARC
  5
33D
330
18
100
AcDbEntity
  8
TEXT
100
AcDbCircle
 10
0.2148325903761208
 20
-0.1759112826061084
 30
0.0
 40
0.0153818062434269
100
AcDbArc
 50
174.7883570302258
 51
270.0
  0
LINE
  5
33E
330
18
100
AcDbEntity
  8
TEXT
100
AcDbLine
 10
0.2986572803186922
 20
-0.2569019151056366
 30
0.0
 11
0.2986572803186922
 21
-0.0547055767738911
 31
0.0
  0
LINE
  5
33F
330
18
100
AcDbEntity
  8
TEXT
100
AcDbLine
 10
0.3560463493079533
 20
-0.062259365940001
 30
0.0
 11
0.3560463493079533
 21
-0.2569019151056366
 31
0.0
  0
LINE
  5
340
330
18
100
AcDbEntity
  8
TEXT
100
AcDbLine
 10
0.4231043960897934
 20
-0.2569019151056366
 30
0.0
 11
0.4231043960897934
 21
-0.0547055767738911
 31
0.0
  0
LINE
  5
341
330
18
100
AcDbEntity
  8
TEXT
100
AcDbLine
 10
0.231826227260723
 20
0.0095711178828743
 30
0.0
 11
0.231826227260723
 21
-0.1912930888495339
 31
0.0
  0
LINE
  5
342
330
18
100
AcDbEntity
  8
TEXT
100
AcDbLine
 10
0.1995143731230628
 20
-0.1745140770026374
 30
0.0
 11
0.1995143731230628
 21
0.0775825956216849
 31
0.0
  0
LINE
  5
343
330
18
100
AcDbEntity
  8
TEXT
100
AcDbLine
 10
0.1327056605566979
 20
0.0775825956216849
 30
0.0
 11
0.1327056605566979
 21
0.0095711178828743
 31
0.0
  0
LINE
  5
344
330
18
100
AcDbEntity
  8
TEXT
100
AcDbLine
 10
0.1327056605566979
 20
0.0095711178828743
 30
0.0
 11
0.1025837477633216
 21
0.0095711178828743
 31
0.0
  0
LINE
  5
345
330
18
100
AcDbEntity
  8
TEXT
100
AcDbLine
 10
0.1025837477633216
 20
0.0095711178828743
 30
0.0
 11
0.0438351849574561
 21
-0.0913008782302463
 31
0.0
  0
LINE
  5
346
330
18
100
AcDbEntity
  8
TEXT
100
AcDbLine
 10
0.0438351849574561
 20
-0.0913008782302463
 30
0.0
 11
-0.0147951360744818
 21
0.0095711178828743
 31
0.0
  0
LINE
  5
347
330
18
100
AcDbEntity
  8
TEXT
100
AcDbLine
 10
-0.0865941022183892
 20
0.0095711178828743
 30
0.0
 11
-0.0865941022183892
 21
0.0439590354770125
 31
0.0
  0
LINE
  5
348
330
18
100
AcDbEntity
  8
TEXT
100
AcDbLine
 10
-0.0865941022183892
 20
0.0439590354770125
 30
0.0
 11
-0.1466367070623962
 21
0.0439590354770125
 31
0.0
  0
LINE
  5
349
330
18
100
AcDbEntity
  8
TEXT
100
AcDbLine
 10
-0.1466367070623962
 20
0.0439590354770125
 30
0.0
 11
-0.1466367070623962
 21
0.0095711178828743
 31
0.0
  0
LINE
  5
34A
330
18
100
AcDbEntity
  8
TEXT
100
AcDbLine
 10
-0.0147951360744818
 20
0.0095711178828743
 30
0.0
 11
-0.0865941022183892
 21
0.0095711178828743
 31
0.0
  0
ARC
  5
34B
330
18
100
AcDbEntity
  8
TEXT
100
AcDbCircle
 10
0.0001913880482878
 20
-0.2173541928319409
 30
0.0
 40
0.0392772371940762
100
AcDbArc
 50
270.1604552698595
 51
330.0831797321295
  0
ARC
  5
34C
330
18
100
AcDbEntity
  8
TEXT
100
AcDbCircle
 10
-0.090109457843937
 20
-0.1971095237675868
 30
0.0
 40
0.0601160179737537
100
AcDbArc
 50
180.0000000000003
 51
264.0521544866073
  0
LINE
  5
34D
330
18
100
AcDbEntity
  8
TEXT
100
AcDbLine
 10
-0.0963388683375834
 20
-0.2569019151056366
 30
0.0
 11
0.000301382737411
 21
-0.2566312760073544
 31
0.0
  0
LWPOLYLINE
  5
34E
330
18
100
AcDbEntity
  8
TEXT
100
AcDbPolyline
 90
        6
 70
     1
 43
0.0
 10
-0.0538150647624338
 20
-0.0547055767738911
 10
-0.084131658982642
 20
-0.0547055767738911
 10
-0.084131658982642
 20
-0.1778165748287854
 42
0.407328721240804
 10
-0.0725880078211656
 20
-0.1896354895051715
 10
-0.0119663087764348
 20
-0.1896354895051715
 10
0.0054990316308832
 20
-0.1568232604616924
  0
LINE
  5
34F
330
18
100
AcDbEntity
  8
TEXT
100
AcDbLine
 10
-0.1502254758176891
 20
-0.0547055767738911
 30
0.0
 11
-0.1502254758176891
 21
-0.1971095237675868
 31
0.0
  0
LINE
  5
350
330
18
100
AcDbEntity
  8
TEXT
100
AcDbLine
 10
0.0342349479605018
 20
-0.2369434090006237
 30
0.0
 11
0.1315346540539464
 21
-0.0725931980653556
 31
0.0
  0
LINE
  5
351
330
18
100
AcDbEntity
  8
TEXT
100
AcDbLine
 10
0.1315346540539464
 20
-0.0725931980653556
 30
0.0
 11
0.1315346540539464
 21
-0.2053505728907119
 31
0.0
  0
LWPOLYLINE
  5
352
330
18
100
AcDbEntity
  8
TEXT
100
AcDbPolyline
 90
        2
 70
     0
 43
0.0
 10
0.1315346540539455
 20
-0.2053505728907083
 42
0.3318488747599744
 10
0.2006539466192585
 20
-0.2569019151056366
 42
-6.868794160588311
  0
LINE
  5
353
330
18
100
AcDbEntity
  8
TEXT
100
AcDbLine
 10
0.1995143731230628
 20
0.0775825956216849
 30
0.0
 11
0.1327056605566979
 21
0.0775825956216849
 31
0.0
  0
LWPOLYLINE
  5
354
330
18
100
AcDbEntity
  8
TEXT
100
AcDbPolyline
 90
        4
 70
     0
 43
0.0
 10
0.4847917821768562
 20
-0.062259365940001
 10
0.4847917821768562
 20
-0.2569019151056366
 10
0.5532700654647141
 20
-0.2569019151056366
 10
0.5532700654647141
 20
-0.2134109701551985
 42
-1.714843617202739
  0
LWPOLYLINE
  5
355
330
18
100
AcDbEntity
  8
TEXT
100
AcDbPolyline
 90
        2
 70
     0
 43
0.0
 10
0.5199261327210661
 20
0.0095711178828779
 42
-0.3277054968067132
 10
0.555707823434231
 20
-0.018751427886766
 42
6.667889725900311
  0
TEXT
  5
356
330
18
100
AcDbEntity
  8
TEXT
100
AcDbText
 10
1.302272097247623
 20
-0.1640161064601404
 30
0.0
 40
0.0522247191011236
  1
Minneapolis, MN 55432-0008
 41
1.11444212721585
 72
     5
 11
2.631204681517287
 21
-0.1640161064601404
 31
0.0
100
AcDbText
  0
TEXT
  5
357
330
18
100
AcDbEntity
  8
TEXT
100
AcDbText
 10
1.302272097247623
 20
-0.0707576794938483
 30
0.0
 40
0.0522247191011236
  1
6536 Main St. N.E. * P.O. Box 32008
 41
0.8388932496075353
 72
     5
 11
2.631204681517287
 21
-0.0707576794938483
 31
0.0
100
AcDbText
  0
TEXT
  5
358
330
18
100
AcDbEntity
  8
TEXT
100
AcDbText
 10
1.302272097247623
 20
0.0225007474724439
 30
0.0
 40
0.0522247191011236
  1
Stylmark  Incorporated
 41
1.221428571428571
 72
     5
 11
2.631204681517287
 21
0.0225007474724439
 31
0.0
100
AcDbText
  0
TEXT
  5
359
330
18
100
AcDbEntity
  8
TEXT
100
AcDbText
 10
1.302272097247623
 20
-0.2572745334264326
 30
0.0
 40
0.0522247191011236
  1
Phone  1-800-328-2495
 41
1.272321428571429
 72
     5
 11
2.631204681517287
 21
-0.2572745334264326
 31
0.0
100
AcDbText
  0
LINE
  5
35A
330
18
100
AcDbEntity
  8
TEXT
100
AcDbLine
 10
-0.2515309936023584
 20
-0.090510298384519
 30
0.0
 11
-0.3171311298466595
 21
-0.090510298384519
 31
0.0
  0
ARC
  5
35B
330
18
100
AcDbEntity
  8
TEXT
100
AcDbCircle
 10
-0.3171311298466595
 20
-0.0726079375792033
 30
0.0
 40
0.017902360805315
100
AcDbArc
 50
90.0
 51
270.0
  0
LINE
  5
35C
330
18
100
AcDbEntity
  8
TEXT
100
AcDbLine
 10
-0.3223684599609076
 20
-0.1546038010101327
 30
0.0
 11
-0.2465906196960788
 21
-0.1546038010101327
 31
0.0
  0
LINE
  5
35D
330
18
100
AcDbEntity
  8
TEXT
100
AcDbLine
 10
-0.2465906196960788
 20
-0.1885449087721973
 30
0.0
 11
-0.4044559194074129
 21
-0.1885449087721973
 31
0.0
  0
LINE
  5
35E
330
18
100
AcDbEntity
  8
TEXT
100
AcDbLine
 10
-0.4044559194074111
 20
-0.2569019151056366
 30
0.0
 11
-0.2515309936023584
 21
-0.2569019151056366
 31
0.0
  0
ARC
  5
35F
330
18
100
AcDbEntity
  8
TEXT
100
AcDbCircle
 10
-0.3223684599609076
 20
-0.0725163415636274
 30
0.0
 40
0.0820874594465043
100
AcDbArc
 50
90.0
 51
270.0
  0
LINE
  5
360
330
18
100
AcDbEntity
  8
TEXT
100
AcDbLine
 10
-0.1466367070623962
 20
0.0095711178828743
 30
0.0
 11
-0.3223684599609076
 21
0.0095711178828743
 31
0.0
  0
ARC
  5
361
330
18
100
AcDbEntity
  8
TEXT
100
AcDbCircle
 10
-0.2465906196960788
 20
-0.1715743548911632
 30
0.0
 40
0.0169705538810321
100
AcDbArc
 50
270.0
 51
90.0
  0
ARC
  5
362
330
18
100
AcDbEntity
  8
TEXT
100
AcDbCircle
 10
-0.2515309936023584
 20
-0.1737061067450796
 30
0.0
 40
0.0831958083605586
100
AcDbArc
 50
270.0
 51
90.0
  0
LINE
  5
363
330
18
100
AcDbEntity
  8
TEXT
100
AcDbLine
 10
-0.3171311298466595
 20
-0.0547055767738911
 30
0.0
 11
-0.1502254758176891
 21
-0.0547055767738911
 31
0.0
  0
LWPOLYLINE
  5
364
330
18
100
AcDbEntity
  8
TEXT
100
AcDbPolyline
 90
        2
 70
     0
 43
0.0006660908203125
 10
-0.6138888995071863
 20
-0.1036643215702497
 10
-0.5872452666946853
 20
-0.1036643215702497
  0
LINE
  5
365
330
18
100
AcDbEntity
  8
TEXT
100
AcDbLine
 10
-0.4044559194074129
 20
-0.1885449087721973
 30
0.0
 11
-0.4044559194074111
 21
-0.2569019151056366
 31
0.0
  0
LWPOLYLINE
  5
366
330
18
100
AcDbEntity
  8
TEXT
100
AcDbPolyline
 90
        2
 70
     0
 43
0.0006660908203125
 10
-0.6138888995071863
 20
-0.1436297707889977
 10
-0.5872452666946853
 20
-0.1436297707889977
  0
LWPOLYLINE
  5
367
330
18
100
AcDbEntity
  8
TEXT
100
AcDbPolyline
 90
        2
 70
     0
 43
0.0001332181640625
 10
-0.7004807061478111
 20
0.0095711178828779
 10
-0.7104720684524999
 20
-0.0636988723515017
  0
LWPOLYLINE
  5
368
330
18
100
AcDbEntity
  8
TEXT
100
AcDbPolyline
 90
        2
 70
     0
 43
0.0001332181640625
 10
-0.7004807061478111
 20
-0.0170725149296232
 10
-0.7104720684524999
 20
-0.0770206887577487
  0
LWPOLYLINE
  5
369
330
18
100
AcDbEntity
  8
TEXT
100
AcDbPolyline
 90
        2
 70
     0
 43
0.0006660908203125
 10
-0.7004807061478111
 20
-0.0170725149296232
 10
-0.7004807061478111
 20
0.0095711178828779
  0
LWPOLYLINE
  5
36A
330
18
100
AcDbEntity
  8
TEXT
100
AcDbPolyline
 90
        5
 70
     0
 43
0.0001332181640625
 10
-0.7104720684524999
 20
-0.0636988723515017
 10
-0.7104720684524999
 20
-0.0770206887577487
 10
-0.6738370733353101
 20
-0.0770206887577487
 10
-0.6738370733353101
 20
-0.1136556838749385
 10
-0.6605152569290614
 20
-0.1136556838749385
  0
LWPOLYLINE
  5
36B
330
18
100
AcDbEntity
  8
TEXT
100
AcDbPolyline
 90
        2
 70
     0
 43
0.0001332181640625
 10
-0.7404461553665627
 20
-0.0170725149296232
 10
-0.7304547930618721
 20
-0.0770206887577487
  0
LWPOLYLINE
  5
36C
330
18
100
AcDbEntity
  8
TEXT
100
AcDbPolyline
 90
        2
 70
     0
 43
0.0001332181640625
 10
-0.7304547930618721
 20
-0.0636988723515017
 10
-0.7404461553665627
 20
0.0095711178828779
  0
LWPOLYLINE
  5
36D
330
18
100
AcDbEntity
  8
TEXT
100
AcDbPolyline
 90
        2
 70
     0
 43
0.0006660908203125
 10
-0.7404461553665627
 20
-0.0170725149296232
 10
-0.7404461553665627
 20
0.0095711178828779
  0
LWPOLYLINE
  5
36E
330
18
100
AcDbEntity
  8
TEXT
100
AcDbPolyline
 90
        5
 70
     0
 43
0.0001332181640625
 10
-0.7804116045853107
 20
-0.1136556838749385
 10
-0.767089788179062
 20
-0.1136556838749385
 10
-0.767089788179062
 20
-0.0770206887577487
 10
-0.7304547930618721
 20
-0.0770206887577487
 10
-0.7304547930618721
 20
-0.0636988723515017
  0
LWPOLYLINE
  5
36F
330
18
100
AcDbEntity
  8
TEXT
100
AcDbPolyline
 90
        2
 70
     0
 43
0.0006660908203125
 10
-0.8270379620071874
 20
-0.1036643215702497
 10
-0.8536815948196849
 20
-0.1036643215702497
  0
LWPOLYLINE
  5
370
330
18
100
AcDbEntity
  8
TEXT
100
AcDbPolyline
 90
        2
 70
     0
 43
0.0001332181640625
 10
-0.8536815948196849
 20
-0.1036643215702497
 10
-0.7804116045853107
 20
-0.1136556838749385
  0
LWPOLYLINE
  5
371
330
18
100
AcDbEntity
  8
TEXT
100
AcDbPolyline
 90
        2
 70
     0
 43
0.0001332181640625
 10
-0.8270379620071874
 20
-0.1036643215702497
 10
-0.767089788179062
 20
-0.1136556838749385
  0
LWPOLYLINE
  5
372
330
18
100
AcDbEntity
  8
TEXT
100
AcDbPolyline
 90
        2
 70
     0
 43
0.0001332181640625
 10
-0.8270379620071874
 20
-0.0170725149296232
 10
-0.767089788179062
 20
-0.0770206887577487
  0
LWPOLYLINE
  5
373
330
18
100
AcDbEntity
  8
TEXT
100
AcDbPolyline
 90
        3
 70
     0
 43
0.0006660908203125
 10
-0.7404461553665627
 20
-0.0170725149296232
 10
-0.8270379620071874
 20
-0.0170725149296232
 10
-0.8270379620071874
 20
-0.1036643215702497
  0
LWPOLYLINE
  5
374
330
18
100
AcDbEntity
  8
TEXT
100
AcDbPolyline
 90
        3
 70
     0
 43
0.0006660908203125
 10
-0.7404461553665627
 20
0.0095711178828779
 10
-0.8536815948196849
 20
0.0095711178828779
 10
-0.8536815948196849
 20
-0.1036643215702497
  0
LWPOLYLINE
  5
375
330
18
100
AcDbEntity
  8
TEXT
100
AcDbPolyline
 90
        5
 70
     0
 43
0.0001332181640625
 10
-0.6605152569290614
 20
-0.1336384084843125
 10
-0.6738370733353101
 20
-0.1336384084843125
 10
-0.6738370733353101
 20
-0.1702734036014988
 10
-0.7104720684524999
 20
-0.1702734036014988
 10
-0.7104720684524999
 20
-0.1835952200077493
  0
LWPOLYLINE
  5
376
330
18
100
AcDbEntity
  8
TEXT
100
AcDbPolyline
 90
        2
 70
     0
 43
0.0006660908203125
 10
-0.7004807061478111
 20
-0.2302215774296243
 10
-0.7004807061478111
 20
-0.2568652102421254
  0
LWPOLYLINE
  5
377
330
18
100
AcDbEntity
  8
TEXT
100
AcDbPolyline
 90
        2
 70
     0
 43
0.0001332181640625
 10
-0.7104720684524999
 20
-0.1835952200077493
 10
-0.7004807061478111
 20
-0.2568652102421254
  0
LWPOLYLINE
  5
378
330
18
100
AcDbEntity
  8
TEXT
100
AcDbPolyline
 90
        2
 70
     0
 43
0.0001332181640625
 10
-0.7004807061478111
 20
-0.2302215774296243
 10
-0.7104720684524999
 20
-0.1702734036014988
  0
LWPOLYLINE
  5
379
330
18
100
AcDbEntity
  8
TEXT
100
AcDbPolyline
 90
        2
 70
     0
 43
0.0001332181640625
 10
-0.7404461553665627
 20
-0.2568652102421254
 10
-0.7304547930618721
 20
-0.1835952200077493
  0
LWPOLYLINE
  5
37A
330
18
100
AcDbEntity
  8
TEXT
100
AcDbPolyline
 90
        2
 70
     0
 43
0.0001332181640625
 10
-0.7404461553665627
 20
-0.2302215774296243
 10
-0.7304547930618721
 20
-0.1702734036014988
  0
LWPOLYLINE
  5
37B
330
18
100
AcDbEntity
  8
TEXT
100
AcDbPolyline
 90
        2
 70
     0
 43
0.0006660908203125
 10
-0.7404461553665627
 20
-0.2302215774296243
 10
-0.7404461553665627
 20
-0.2568652102421254
  0
LWPOLYLINE
  5
37C
330
18
100
AcDbEntity
  8
TEXT
100
AcDbPolyline
 90
        5
 70
     0
 43
0.0001332181640625
 10
-0.7304547930618721
 20
-0.1835952200077493
 10
-0.7304547930618721
 20
-0.1702734036014988
 10
-0.7670897881790602
 20
-0.1702734036014988
 10
-0.7670897881790602
 20
-0.1336384084843125
 10
-0.7804116045853107
 20
-0.1336384084843125
  0
LWPOLYLINE
  5
37D
330
18
100
AcDbEntity
  8
TEXT
100
AcDbPolyline
 90
        2
 70
     0
 43
0.0006660908203125
 10
-0.8270379620071874
 20
-0.1436297707889977
 10
-0.8536815948196849
 20
-0.1436297707889977
  0
LWPOLYLINE
  5
37E
330
18
100
AcDbEntity
  8
TEXT
100
AcDbPolyline
 90
        2
 70
     0
 43
0.0001332181640625
 10
-0.8270379620071874
 20
-0.2302215774296243
 10
-0.7670897881790602
 20
-0.1702734036014988
  0
LWPOLYLINE
  5
37F
330
18
100
AcDbEntity
  8
TEXT
100
AcDbPolyline
 90
        2
 70
     0
 43
0.0001332181640625
 10
-0.8270379620071874
 20
-0.1436297707889977
 10
-0.7670897881790602
 20
-0.1336384084843125
  0
LWPOLYLINE
  5
380
330
18
100
AcDbEntity
  8
TEXT
100
AcDbPolyline
 90
        2
 70
     0
 43
0.0001332181640625
 10
-0.7804116045853107
 20
-0.1336384084843125
 10
-0.8536815948196849
 20
-0.1436297707889977
  0
LWPOLYLINE
  5
381
330
18
100
AcDbEntity
  8
TEXT
100
AcDbPolyline
 90
        3
 70
     0
 43
0.0006660908203125
 10
-0.8270379620071874
 20
-0.1436297707889977
 10
-0.8270379620071874
 20
-0.2302215774296243
 10
-0.7404461553665627
 20
-0.2302215774296243
  0
LWPOLYLINE
  5
382
330
18
100
AcDbEntity
  8
TEXT
100
AcDbPolyline
 90
        3
 70
     0
 43
0.0006660908203125
 10
-0.8536815948196849
 20
-0.1436297707889977
 10
-0.8536815948196849
 20
-0.2568652102421254
 10
-0.7404461553665627
 20
-0.2568652102421254
  0
LWPOLYLINE
  5
383
330
18
100
AcDbEntity
  8
TEXT
100
AcDbPolyline
 90
        3
 70
     0
 43
0.0006660908203125
 10
-0.7004807061478111
 20
-0.2568652102421254
 10
-0.5872452666946853
 20
-0.2568652102421254
 10
-0.5872452666946853
 20
-0.1436297707889977
  0
LWPOLYLINE
  5
384
330
18
100
AcDbEntity
  8
TEXT
100
AcDbPolyline
 90
        3
 70
     0
 43
0.0006660908203125
 10
-0.7004807061478111
 20
-0.2302215774296243
 10
-0.6138888995071863
 20
-0.2302215774296243
 10
-0.6138888995071863
 20
-0.1436297707889977
  0
LWPOLYLINE
  5
385
330
18
100
AcDbEntity
  8
TEXT
100
AcDbPolyline
 90
        2
 70
     0
 43
0.0001332181640625
 10
-0.6138888995071863
 20
-0.2302215774296243
 10
-0.6738370733353101
 20
-0.1702734036014988
  0
LWPOLYLINE
  5
386
330
18
100
AcDbEntity
  8
TEXT
100
AcDbPolyline
 90
        2
 70
     0
 43
0.0001332181640625
 10
-0.6138888995071863
 20
-0.1436297707889977
 10
-0.6738370733353101
 20
-0.1336384084843125
  0
LWPOLYLINE
  5
387
330
18
100
AcDbEntity
  8
TEXT
100
AcDbPolyline
 90
        2
 70
     0
 43
0.0001332181640625
 10
-0.5872452666946853
 20
-0.1436297707889977
 10
-0.6605152569290614
 20
-0.1336384084843125
  0
LWPOLYLINE
  5
388
330
18
100
AcDbEntity
  8
TEXT
100
AcDbPolyline
 90
        2
 70
     0
 43
0.0001332181640625
 10
-0.6138888995071863
 20
-0.0170725149296232
 10
-0.6738370733353101
 20
-0.0770206887577487
  0
LWPOLYLINE
  5
389
330
18
100
AcDbEntity
  8
TEXT
100
AcDbPolyline
 90
        2
 70
     0
 43
0.0001332181640625
 10
-0.6138888995071863
 20
-0.1036643215702497
 10
-0.6738370733353101
 20
-0.1136556838749385
  0
LWPOLYLINE
  5
38A
330
18
100
AcDbEntity
  8
TEXT
100
AcDbPolyline
 90
        2
 70
     0
 43
0.0001332181640625
 10
-0.6605152569290614
 20
-0.1136556838749385
 10
-0.5872452666946853
 20
-0.1036643215702497
  0
LWPOLYLINE
  5
38B
330
18
100
AcDbEntity
  8
TEXT
100
AcDbPolyline
 90
        3
 70
     0
 43
0.0006660908203125
 10
-0.6138888995071863
 20
-0.1036643215702497
 10
-0.6138888995071863
 20
-0.0170725149296232
 10
-0.7004807061478111
 20
-0.0170725149296232
  0
LWPOLYLINE
  5
38C
330
18
100
AcDbEntity
  8
TEXT
100
AcDbPolyline
 90
        3
 70
     0
 43
0.0006660908203125
 10
-0.5872452666946853
 20
-0.1036643215702497
 10
-0.5872452666946853
 20
0.0095711178828779
 10
-0.7004807061478111
 20
0.0095711178828779
  0
ENDSEC
  0
SECTION
  2
OBJECTS
  0
DICTIONARY
  5
C
330
0
100
AcDbDictionary
  3
ACAD_GROUP
350
D
  3
ACAD_LAYOUT
350
392
  3
ACAD_MLINESTYLE
350
E
  3
ACAD_PLOTSETTINGS
350
393
  3
ACAD_PLOTSTYLENAME
350
390
  3
ACDBHEADERROUNDTRIPXREC
350
39E
  3
ACDBVARIABLEDICTIONARY
350
39B
  0
DICTIONARY
  5
3C0
330
18
100
AcDbDictionary
280
     1
  3
ACAD_LAYOUTSELFREF
360
3C1
  0
DICTIONARY
  5
3BE
330
15
100
AcDbDictionary
280
     1
  3
ACAD_LAYOUTSELFREF
360
3BF
  0
DICTIONARY
  5
D
102
{ACAD_REACTORS
330
C
102
}
330
C
100
AcDbDictionary
  0
DICTIONARY
  5
392
102
{ACAD_REACTORS
330
C
102
}
330
C
100
AcDbDictionary
  0
DICTIONARY
  5
E
102
{ACAD_REACTORS
330
C
102
}
330
C
100
AcDbDictionary
  3
STANDARD
350
1B
  0
DICTIONARY
  5
393
102
{ACAD_REACTORS
330
C
102
}
330
C
100
AcDbDictionary
  0
ACDBDICTIONARYWDFLT
  5
390
102
{ACAD_REACTORS
330
C
102
}
330
C
100
AcDbDictionary
281
     1
  3
Normal
350
391
100
AcDbDictionaryWithDefault
340
391
  0
DICTIONARY
  5
39E
102
{ACAD_REACTORS
330
C
102
}
330
C
100
AcDbDictionary
  3
CEPSNTYPE
350
3A8
  3
FINGERPRINTGUID
350
3A9
  3
HYPERLINKBASE
350
3A1
  3
INSUNITS
350
3A7
  3
LAYOUTDICT
350
3A3
  3
LWETCUNION
350
3A6
  3
PLOTSETDICT
350
3A4
  3
PLOTSTYLNAMDICT
350
3A5
  3
PSVPSCALE
350
3AB
  3
PUCSBASE
350
3AE
  3
PUCSORGBACK
350
3B4
  3
PUCSORGBOTTOM
350
3B0
  3
PUCSORGFRONT
350
3B3
  3
PUCSORGLEFT
350
3B1
  3
PUCSORGRIGHT
350
3B2
  3
PUCSORGTOP
350
3AF
  3
PUCSORTHOREF
350
3AC
  3
PUCSORTHOVIEW
350
3AD
  3
STYLESHEET
350
3A2
  3
TSTACKALIGN
350
39F
  3
TSTACKSIZE
350
3A0
  3
UCSBASE
350
3B7
  3
UCSORGBACK
350
3BD
  3
UCSORGBOTTOM
350
3B9
  3
UCSORGFRONT
350
3BC
  3
UCSORGLEFT
350
3BA
  3
UCSORGRIGHT
350
3BB
  3
UCSORGTOP
350
3B8
  3
UCSORTHOREF
350
3B5
  3
UCSORTHOVIEW
350
3B6
  3
VERSIONGUID
350
3AA
  0
DICTIONARY
  5
39B
102
{ACAD_REACTORS
330
C
102
}
330
C
100
AcDbDictionary
  3
DIMASSOC
350
39C
  0
XRECORD
  5
3C1
102
{ACAD_REACTORS
330
3C0
102
}
330
3C0
100
AcDbXrecord
340
18
  0
XRECORD
  5
3BF
102
{ACAD_REACTORS
330
3BE
102
}
330
3BE
100
AcDbXrecord
340
15
  0
MLINESTYLE
  5
1B
102
{ACAD_REACTORS
330
E
102
}
330
E
100
AcDbMlineStyle
  2
STANDARD
 70
     0
  3

 62
     0
 51
90.0
 52
90.0
 71
     2
 49
0.5
 62
   256
  6
BYLAYER
 49
-0.5
 62
   256
  6
BYLAYER
  0
ACDBPLACEHOLDER
  5
391
102
{ACAD_REACTORS
330
390
102
}
330
390
100
AcDbPlaceHolder
280
     0
  0
XRECORD
  5
3A8
102
{ACAD_REACTORS
330
39E
102
}
330
39E
100
AcDbXrecord
 90
        0
  0
XRECORD
  5
3A9
102
{ACAD_REACTORS
330
39E
102
}
330
39E
100
AcDbXrecord
  1
{2B750D90-8DB4-11D6-88E6-0090279574E7}
  0
XRECORD
  5
3A1
102
{ACAD_REACTORS
330
39E
102
}
330
39E
100
AcDbXrecord
  1

  0
XRECORD
  5
3A7
102
{ACAD_REACTORS
330
39E
102
}
330
39E
100
AcDbXrecord
 90
        0
  0
XRECORD
  5
3A3
102
{ACAD_REACTORS
330
39E
102
}
330
39E
100
AcDbXrecord
340
392
  0
XRECORD
  5
3A6
102
{ACAD_REACTORS
330
39E
102
}
330
39E
100
AcDbXrecord
 90
    14877
  0
XRECORD
  5
3A4
102
{ACAD_REACTORS
330
39E
102
}
330
39E
100
AcDbXrecord
340
393
  0
XRECORD
  5
3A5
102
{ACAD_REACTORS
330
39E
102
}
330
39E
100
AcDbXrecord
340
390
  0
XRECORD
  5
3AB
102
{ACAD_REACTORS
330
39E
102
}
330
39E
100
AcDbXrecord
 40
0.0
  0
XRECORD
  5
3AE
102
{ACAD_REACTORS
330
39E
102
}
330
39E
100
AcDbXrecord
340
0
  0
XRECORD
  5
3B4
102
{ACAD_REACTORS
330
39E
102
}
330
39E
100
AcDbXrecord
 10
0.0
 20
0.0
 30
0.0
  0
XRECORD
  5
3B0
102
{ACAD_REACTORS
330
39E
102
}
330
39E
100
AcDbXrecord
 10
0.0
 20
0.0
 30
0.0
  0
XRECORD
  5
3B3
102
{ACAD_REACTORS
330
39E
102
}
330
39E
100
AcDbXrecord
 10
0.0
 20
0.0
 30
0.0
  0
XRECORD
  5
3B1
102
{ACAD_REACTORS
330
39E
102
}
330
39E
100
AcDbXrecord
 10
0.0
 20
0.0
 30
0.0
  0
XRECORD
  5
3B2
102
{ACAD_REACTORS
330
39E
102
}
330
39E
100
AcDbXrecord
 10
0.0
 20
0.0
 30
0.0
  0
XRECORD
  5
3AF
102
{ACAD_REACTORS
330
39E
102
}
330
39E
100
AcDbXrecord
 10
0.0
 20
0.0
 30
0.0
  0
XRECORD
  5
3AC
102
{ACAD_REACTORS
330
39E
102
}
330
39E
100
AcDbXrecord
340
0
  0
XRECORD
  5
3AD
102
{ACAD_REACTORS
330
39E
102
}
330
39E
100
AcDbXrecord
 70
     0
  0
XRECORD
  5
3A2
102
{ACAD_REACTORS
330
39E
102
}
330
39E
100
AcDbXrecord
  1

  0
XRECORD
  5
39F
102
{ACAD_REACTORS
330
39E
102
}
330
39E
100
AcDbXrecord
 90
        1
  0
XRECORD
  5
3A0
102
{ACAD_REACTORS
330
39E
102
}
330
39E
100
AcDbXrecord
 90
       70
  0
XRECORD
  5
3B7
102
{ACAD_REACTORS
330
39E
102
}
330
39E
100
AcDbXrecord
340
0
  0
XRECORD
  5
3BD
102
{ACAD_REACTORS
330
39E
102
}
330
39E
100
AcDbXrecord
 10
0.0
 20
0.0
 30
0.0
  0
XRECORD
  5
3B9
102
{ACAD_REACTORS
330
39E
102
}
330
39E
100
AcDbXrecord
 10
0.0
 20
0.0
 30
0.0
  0
XRECORD
  5
3BC
102
{ACAD_REACTORS
330
39E
102
}
330
39E
100
AcDbXrecord
 10
0.0
 20
0.0
 30
0.0
  0
XRECORD
  5
3BA
102
{ACAD_REACTORS
330
39E
102
}
330
39E
100
AcDbXrecord
 10
0.0
 20
0.0
 30
0.0
  0
XRECORD
  5
3BB
102
{ACAD_REACTORS
330
39E
102
}
330
39E
100
AcDbXrecord
 10
0.0
 20
0.0
 30
0.0
  0
XRECORD
  5
3B8
102
{ACAD_REACTORS
330
39E
102
}
330
39E
100
AcDbXrecord
 10
0.0
 20
0.0
 30
0.0
  0
XRECORD
  5
3B5
102
{ACAD_REACTORS
330
39E
102
}
330
39E
100
AcDbXrecord
340
0
  0
XRECORD
  5
3B6
102
{ACAD_REACTORS
330
39E
102
}
330
39E
100
AcDbXrecord
 70
     0
  0
XRECORD
  5
3AA
102
{ACAD_REACTORS
330
39E
102
}
330
39E
100
AcDbXrecord
  1
{2B750D92-8DB4-11D6-88E6-0090279574E7}
  0
DICTIONARYVAR
  5
39C
102
{ACAD_REACTORS
330
39B
102
}
330
39B
100
DictionaryVariables
280
     0
  1
1
  0
ENDSEC
  0
EOF
