  0
SECTION
  2
HEADER
  9
$ACADVER
  1
AC1014
  9
$ACADMAINTVER
 70
     9
  9
$DWGCODEPAGE
  3
ANSI_1252
  9
$INSBASE
 10
0.0
 20
0.0
 30
0.0
  9
$EXTMIN
 10
-0.4687500007223941
 20
0.0826540379160925
 30
0.0
  9
$EXTMAX
 10
3.016469321024734
 20
1.619782608695666
 30
0.0
  9
$LIMMIN
 10
0.0
 20
0.0
  9
$LIMMAX
 10
0.725
 20
0.875
  9
$ORTHOMODE
 70
     1
  9
$REGENMODE
 70
     1
  9
$FILLMODE
 70
     1
  9
$QTEXTMODE
 70
     0
  9
$MIRRTEXT
 70
     0
  9
$DRAGMODE
 70
     2
  9
$LTSCALE
 40
0.25
  9
$OSMODE
 70
    39
  9
$ATTMODE
 70
     1
  9
$TEXTSIZE
 40
0.125
  9
$TRACEWID
 40
0.05
  9
$TEXTSTYLE
  7
ROMANS
  9
$CLAYER
  8
DIMENSIONS
  9
$CELTYPE
  6
BYLAYER
  9
$CECOLOR
 62
   256
  9
$CELTSCALE
 40
1.0
  9
$DELOBJ
 70
     1
  9
$DISPSILH
 70
     1
  9
$DIMSCALE
 40
1.0
  9
$DIMASZ
 40
0.125
  9
$DIMEXO
 40
0.125
  9
$DIMDLI
 40
0.75
  9
$DIMRND
 40
0.0
  9
$DIMDLE
 40
0.0
  9
$DIMEXE
 40
0.125
  9
$DIMTP
 40
0.01
  9
$DIMTM
 40
0.01
  9
$DIMTXT
 40
0.125
  9
$DIMCEN
 40
0.0
  9
$DIMTSZ
 40
0.0
  9
$DIMTOL
 70
     0
  9
$DIMLIM
 70
     0
  9
$DIMTIH
 70
     1
  9
$DIMTOH
 70
     1
  9
$DIMSE1
 70
     1
  9
$DIMSE2
 70
     0
  9
$DIMTAD
 70
     0
  9
$DIMZIN
 70
     4
  9
$DIMBLK
  1

  9
$DIMASO
 70
     1
  9
$DIMSHO
 70
     1
  9
$DIMPOST
  1

  9
$DIMAPOST
  1

  9
$DIMALT
 70
     0
  9
$DIMALTD
 70
     2
  9
$DIMALTF
 40
25.4
  9
$DIMLFAC
 40
0.5
  9
$DIMTOFL
 70
     0
  9
$DIMTVP
 40
0.0
  9
$DIMTIX
 70
     0
  9
$DIMSOXD
 70
     0
  9
$DIMSAH
 70
     0
  9
$DIMBLK1
  1

  9
$DIMBLK2
  1

  9
$DIMSTYLE
  2
STANDARD
  9
$DIMCLRD
 70
     0
  9
$DIMCLRE
 70
     0
  9
$DIMCLRT
 70
     0
  9
$DIMTFAC
 40
1.0
  9
$DIMGAP
 40
0.09
  9
$DIMJUST
 70
     0
  9
$DIMSD1
 70
     0
  9
$DIMSD2
 70
     0
  9
$DIMTOLJ
 70
     1
  9
$DIMTZIN
 70
     0
  9
$DIMALTZ
 70
     0
  9
$DIMALTTZ
 70
     0
  9
$DIMFIT
 70
     3
  9
$DIMUPT
 70
     0
  9
$DIMUNIT
 70
     2
  9
$DIMDEC
 70
     3
  9
$DIMTDEC
 70
     4
  9
$DIMALTU
 70
     2
  9
$DIMALTTD
 70
     2
  9
$DIMTXSTY
  7
ROMANS
  9
$DIMAUNIT
 70
     0
  9
$LUNITS
 70
     2
  9
$LUPREC
 70
     3
  9
$SKETCHINC
 40
0.1
  9
$FILLETRAD
 40
0.031
  9
$AUNITS
 70
     0
  9
$AUPREC
 70
     0
  9
$MENU
  1
AUTOMSTR
  9
$ELEVATION
 40
0.0
  9
$PELEVATION
 40
0.0
  9
$THICKNESS
 40
0.0
  9
$LIMCHECK
 70
     0
  9
$BLIPMODE
 70
     0
  9
$CHAMFERA
 40
0.0
  9
$CHAMFERB
 40
0.0
  9
$CHAMFERC
 40
0.0
  9
$CHAMFERD
 40
0.0
  9
$SKPOLY
 70
     0
  9
$TDCREATE
 40
2448090.594402430
  9
$TDUPDATE
 40
2452458.296263599
  9
$TDINDWG
 40
0.0619508449
  9
$TDUSRTIMER
 40
0.0619508449
  9
$USRTIMER
 70
     1
  9
$ANGBASE
 50
0.0
  9
$ANGDIR
 70
     0
  9
$PDMODE
 70
     0
  9
$PDSIZE
 40
0.0
  9
$PLINEWID
 40
0.0
  9
$COORDS
 70
     2
  9
$SPLFRAME
 70
     0
  9
$SPLINETYPE
 70
     6
  9
$SPLINESEGS
 70
     8
  9
$ATTDIA
 70
     0
  9
$ATTREQ
 70
     1
  9
$HANDLING
 70
 22529
  9
$HANDSEED
  5
3DF
  9
$SURFTAB1
 70
     6
  9
$SURFTAB2
 70
     6
  9
$SURFTYPE
 70
     6
  9
$SURFU
 70
     6
  9
$SURFV
 70
     6
  9
$UCSNAME
  2

  9
$UCSORG
 10
0.0
 20
0.0
 30
0.0
  9
$UCSXDIR
 10
1.0
 20
0.0
 30
0.0
  9
$UCSYDIR
 10
0.0
 20
1.0
 30
0.0
  9
$PUCSNAME
  2

  9
$PUCSORG
 10
0.0
 20
0.0
 30
0.0
  9
$PUCSXDIR
 10
1.0
 20
0.0
 30
0.0
  9
$PUCSYDIR
 10
0.0
 20
1.0
 30
0.0
  9
$USERI1
 70
     0
  9
$USERI2
 70
     0
  9
$USERI3
 70
     0
  9
$USERI4
 70
     0
  9
$USERI5
 70
     0
  9
$USERR1
 40
0.0
  9
$USERR2
 40
0.0
  9
$USERR3
 40
0.0
  9
$USERR4
 40
0.0
  9
$USERR5
 40
0.0
  9
$WORLDVIEW
 70
     1
  9
$SHADEDGE
 70
     3
  9
$SHADEDIF
 70
    70
  9
$TILEMODE
 70
     1
  9
$MAXACTVP
 70
    16
  9
$PINSBASE
 10
0.0
 20
0.0
 30
0.0
  9
$PLIMCHECK
 70
     0
  9
$PEXTMIN
 10
1.000000000000000E+20
 20
1.000000000000000E+20
 30
1.000000000000000E+20
  9
$PEXTMAX
 10
-1.000000000000000E+20
 20
-1.000000000000000E+20
 30
-1.000000000000000E+20
  9
$PLIMMIN
 10
0.0
 20
0.0
  9
$PLIMMAX
 10
12.0
 20
9.0
  9
$UNITMODE
 70
     0
  9
$VISRETAIN
 70
     0
  9
$PLINEGEN
 70
     1
  9
$PSLTSCALE
 70
     0
  9
$TREEDEPTH
 70
  3020
  9
$PICKSTYLE
 70
     1
  9
$CMLSTYLE
  2
STANDARD
  9
$CMLJUST
 70
     0
  9
$CMLSCALE
 40
1.0
  9
$PROXYGRAPHICS
 70
     1
  9
$MEASUREMENT
 70
     0
  0
ENDSEC
  0
SECTION
  2
CLASSES
  0
CLASS
  1
LWPOLYLINE
  2
AcDbPolyline
  3
AutoCAD 2000
 90
        0
280
     0
281
     1
  0
CLASS
  1
ACDBDICTIONARYWDFLT
  2
AcDbDictionaryWithDefault
  3
AutoCAD 2000
 90
        0
280
     0
281
     0
  0
CLASS
  1
ACDBPLACEHOLDER
  2
AcDbPlaceHolder
  3
AutoCAD 2000
 90
        0
280
     0
281
     0
  0
CLASS
  1
LAYOUT
  2
AcDbLayout
  3
AutoCAD 2000
 90
        0
280
     0
281
     0
  0
CLASS
  1
DICTIONARYVAR
  2
AcDbDictionaryVar
  3
AutoCAD 2000
 90
        0
280
     0
281
     0
  0
CLASS
  1
LONG_TRANSACTION
  2
AcDbLongTransaction
  3
AutoCAD 2000
 90
        0
280
     0
281
     0
  0
CLASS
  1
LWPOLYLINE
  2
AcDbPolyline
  3
AutoCAD 2000
 90
        0
280
     0
281
     1
  0
CLASS
  1
HATCH
  2
AcDbHatch
  3
AutoCAD 2000
 90
        0
280
     0
281
     1
  0
CLASS
  1
XRECORD
  2
AcDbXrecord
  3
AutoCAD 2000
 90
        0
280
     0
281
     0
  0
ENDSEC
  0
SECTION
  2
TABLES
  0
TABLE
  2
VPORT
  5
8
330
0
100
AcDbSymbolTable
 70
     2
  0
VPORT
  5
3BA
330
8
100
AcDbSymbolTableRecord
100
AcDbViewportTableRecord
  2
*ACTIVE
 70
     0
 10
0.0
 20
0.0
 11
1.0
 21
1.0
 12
4.195953890682457
 22
0.8513993403846935
 13
0.0
 23
0.0
 14
0.015625
 24
0.015625
 15
0.02
 25
0.02
 16
0.0
 26
0.0
 36
1.0
 17
0.0
 27
0.0
 37
0.0
 40
2.163783105556757
 41
4.320930232558139
 42
50.0
 43
0.0
 44
0.0
 50
0.0
 51
0.0
 71
     0
 72
  2000
 73
     1
 74
     1
 75
     1
 76
     0
 77
     0
 78
     0
  0
ENDTAB
  0
TABLE
  2
LTYPE
  5
5
330
0
100
AcDbSymbolTable
 70
     1
  0
LTYPE
  5
12
330
5
100
AcDbSymbolTableRecord
100
AcDbLinetypeTableRecord
  2
BYBLOCK
 70
     0
  3

 72
    65
 73
     0
 40
0.0
  0
LTYPE
  5
13
330
5
100
AcDbSymbolTableRecord
100
AcDbLinetypeTableRecord
  2
BYLAYER
 70
     0
  3

 72
    65
 73
     0
 40
0.0
  0
LTYPE
  5
14
330
5
100
AcDbSymbolTableRecord
100
AcDbLinetypeTableRecord
  2
CONTINUOUS
 70
     0
  3
Solid line
 72
    65
 73
     0
 40
0.0
  0
ENDTAB
  0
TABLE
  2
LAYER
  5
2
330
0
100
AcDbSymbolTable
 70
     3
  0
LAYER
  5
F
330
2
100
AcDbSymbolTableRecord
100
AcDbLayerTableRecord
  2
0
 70
     0
 62
     7
  6
CONTINUOUS
  0
LAYER
  5
30
330
2
100
AcDbSymbolTableRecord
100
AcDbLayerTableRecord
  2
DIMENSIONS
 70
     0
 62
     4
  6
CONTINUOUS
  0
LAYER
  5
31
330
2
100
AcDbSymbolTableRecord
100
AcDbLayerTableRecord
  2
TEXT
 70
     0
 62
     3
  6
CONTINUOUS
  0
ENDTAB
  0
TABLE
  2
STYLE
  5
3
330
0
100
AcDbSymbolTable
 70
     3
  0
STYLE
  5
10
330
3
100
AcDbSymbolTableRecord
100
AcDbTextStyleTableRecord
  2
STANDARD
 70
     0
 40
0.0
 41
1.0
 50
0.0
 71
     0
 42
0.125
  3
txt
  4

  0
STYLE
  5
2A6
330
3
100
AcDbSymbolTableRecord
100
AcDbTextStyleTableRecord
  2
ITALICC
 70
     0
 40
0.0
 41
1.0
 50
0.0
 71
     0
 42
0.125
  3
italicc
  4

  0
STYLE
  5
3B6
330
3
100
AcDbSymbolTableRecord
100
AcDbTextStyleTableRecord
  2
ROMANS
 70
     0
 40
0.0
 41
1.0
 50
0.0
 71
     0
 42
0.125
  3
romans.shx
  4

  0
ENDTAB
  0
TABLE
  2
VIEW
  5
6
330
0
100
AcDbSymbolTable
 70
     0
  0
ENDTAB
  0
TABLE
  2
UCS
  5
7
330
0
100
AcDbSymbolTable
 70
     0
  0
ENDTAB
  0
TABLE
  2
APPID
  5
9
330
0
100
AcDbSymbolTable
 70
     1
  0
APPID
  5
11
330
9
100
AcDbSymbolTableRecord
100
AcDbRegAppTableRecord
  2
ACAD
 70
     0
  0
ENDTAB
  0
TABLE
  2
DIMSTYLE
  5
A
330
0
100
AcDbSymbolTable
 70
     1
  0
DIMSTYLE
105
29A
330
A
100
AcDbSymbolTableRecord
100
AcDbDimStyleTableRecord
  2
STANDARD
 70
     0
  3

  4

  5

  6

  7

 40
1.0
 41
0.18
 42
0.0625
 43
0.38
 44
0.18
 45
0.0
 46
0.0
 47
0.0
 48
0.0
140
0.18
141
0.09
142
0.0
143
25.4
144
1.0
145
0.0
146
1.0
147
0.09
 71
     0
 72
     0
 73
     1
 74
     1
 75
     0
 76
     0
 77
     0
 78
     0
170
     0
171
     2
172
     0
173
     0
174
     0
175
     0
176
     0
177
     0
178
     0
270
     2
271
     4
272
     4
273
     2
274
     2
340
10
275
     0
280
     0
281
     0
282
     0
283
     1
284
     0
285
     0
286
     0
287
     3
288
     0
  0
ENDTAB
  0
TABLE
  2
BLOCK_RECORD
  5
1
330
0
100
AcDbSymbolTable
 70
     0
  0
BLOCK_RECORD
  5
18
102
{ACAD_XDICTIONARY
360
3DD
102
}
330
1
100
AcDbSymbolTableRecord
100
AcDbBlockTableRecord
  2
*MODEL_SPACE
  0
BLOCK_RECORD
  5
15
102
{ACAD_XDICTIONARY
360
3DB
102
}
330
1
100
AcDbSymbolTableRecord
100
AcDbBlockTableRecord
  2
*PAPER_SPACE
  0
ENDTAB
  0
ENDSEC
  0
SECTION
  2
BLOCKS
  0
BLOCK
  5
3A
330
18
100
AcDbEntity
  8
0
100
AcDbBlockBegin
  2
*MODEL_SPACE
 70
     0
 10
0.0
 20
0.0
 30
0.0
  3
*MODEL_SPACE
  1

  0
ENDBLK
  5
3B
330
18
100
AcDbEntity
  8
0
100
AcDbBlockEnd
  0
BLOCK
  5
38
330
15
100
AcDbEntity
 67
     1
  8
0
100
AcDbBlockBegin
  2
*PAPER_SPACE
 70
     0
 10
0.0
 20
0.0
 30
0.0
  3
*PAPER_SPACE
  1

  0
ENDBLK
  5
39
330
15
100
AcDbEntity
 67
     1
  8
0
100
AcDbBlockEnd
  0
ENDSEC
  0
SECTION
  2
ENTITIES
  0
LWPOLYLINE
  5
259
330
18
100
AcDbEntity
  8
0
100
AcDbPolyline
 90
       16
 70
     1
 43
0.0
 10
1.987517629960402
 20
1.244782608695653
 10
1.862517629960402
 20
1.244782608695653
 10
1.925017629960402
 20
1.307282608695653
 10
1.341267629960402
 20
1.307282608695653
 10
1.331267629960402
 20
1.317282608695653
 10
1.321267629960402
 20
1.307282608695653
 10
0.7375176299603777
 20
1.307282608695653
 10
0.8000176299603776
 20
1.244782608695653
 10
0.7375176299603777
 20
1.244782608695653
 10
0.7375176299603777
 20
0.8697826086956537
 10
0.6750176299603777
 20
0.8697826086956489
 42
-0.0278260884964359
 10
0.6750176299604025
 20
1.588532568920437
 42
-1.000001272807722
 10
0.7375176299603777
 20
1.588532568920437
 10
0.7375176299603777
 20
1.369782608695653
 10
1.956517629960402
 20
1.369782608695653
 42
-0.4142135623730951
 10
1.987517629960402
 20
1.338782608695654
  0
TEXT
  5
32C
330
18
100
AcDbEntity
  8
TEXT
100
AcDbText
 10
0.5212553880285591
 20
0.5406726419986741
 30
0.0
 40
0.125
  1
PART #110128
  7
ITALICC
 72
     1
 11
1.274231578504749
 21
0.5406726419986741
 31
0.0
100
AcDbText
  0
LINE
  5
32D
330
18
100
AcDbEntity
  8
TEXT
100
AcDbLine
 10
1.429546208528132
 20
0.3605956506356058
 30
0.0
 11
1.382448049972148
 21
0.2847303242240677
 31
0.0
  0
LINE
  5
32E
330
18
100
AcDbEntity
  8
TEXT
100
AcDbLine
 10
1.382448049972148
 20
0.2847303242240677
 30
0.0
 11
1.382448049972148
 21
0.4260598564032066
 31
0.0
  0
LINE
  5
32F
330
18
100
AcDbEntity
  8
TEXT
100
AcDbLine
 10
1.382448049972148
 20
0.4260598564032066
 30
0.0
 11
1.314133171422875
 21
0.4260598564032066
 31
0.0
  0
LINE
  5
330
330
18
100
AcDbEntity
  8
TEXT
100
AcDbLine
 10
1.314133171422875
 20
0.4260598564032066
 30
0.0
 11
1.314133171422869
 21
0.3605956506356058
 31
0.0
  0
LINE
  5
331
330
18
100
AcDbEntity
  8
TEXT
100
AcDbLine
 10
1.439980925292055
 20
0.2507024076946323
 30
0.0
 11
1.50453804125776
 21
0.3605956506356058
 31
0.0
  0
LINE
  5
332
330
18
100
AcDbEntity
  8
TEXT
100
AcDbLine
 10
1.50453804125776
 20
0.3605956506356058
 30
0.0
 11
1.429546208528134
 21
0.3605956506356058
 31
0.0
  0
LINE
  5
333
330
18
100
AcDbEntity
  8
TEXT
100
AcDbLine
 10
1.318613058749375
 20
0.0941226176470949
 30
0.0
 11
1.382991243067995
 21
0.0941226176470949
 31
0.0
  0
LINE
  5
334
330
18
100
AcDbEntity
  8
TEXT
100
AcDbLine
 10
1.382991243067995
 20
0.0941226176470949
 30
0.0
 11
1.382991243067995
 21
0.2257021861232751
 31
0.0
  0
LINE
  5
335
330
18
100
AcDbEntity
  8
TEXT
100
AcDbLine
 10
1.382991243067995
 20
0.2257021861232751
 30
0.0
 11
1.45889477627946
 21
0.0941226176470949
 31
0.0
  0
LINE
  5
336
330
18
100
AcDbEntity
  8
TEXT
100
AcDbLine
 10
1.45889477627946
 20
0.0941226176470949
 30
0.0
 11
1.535473148655666
 21
0.0941226176470949
 31
0.0
  0
LINE
  5
337
330
18
100
AcDbEntity
  8
TEXT
100
AcDbLine
 10
1.318613058749369
 20
0.2963189559788404
 30
0.0
 11
1.318613058749375
 21
0.0941226176470949
 31
0.0
  0
LINE
  5
338
330
18
100
AcDbEntity
  8
TEXT
100
AcDbLine
 10
1.535473148655666
 20
0.0941226176470949
 30
0.0
 11
1.439980925292055
 21
0.2507024076946323
 31
0.0
  0
ARC
  5
339
330
18
100
AcDbEntity
  8
TEXT
100
AcDbCircle
 10
1.241965077456811
 20
0.2714130806961776
 30
0.0
 40
0.0249058752826653
100
AcDbArc
 50
89.99971217465335
 51
179.9999999999985
  0
ARC
  5
33A
330
18
100
AcDbEntity
  8
TEXT
100
AcDbCircle
 10
1.249854034396388
 20
0.329349923353341
 30
0.0
 40
0.0314112657011332
100
AcDbArc
 50
95.88484768694724
 51
173.2388340632136
  0
LINE
  5
33B
330
18
100
AcDbEntity
  8
TEXT
100
AcDbLine
 10
1.21866121733328
 20
0.3330480007747312
 30
0.0
 11
1.21866121733328
 21
0.3605956506356058
 31
0.0
  0
LINE
  5
33C
330
18
100
AcDbEntity
  8
TEXT
100
AcDbLine
 10
1.21866121733328
 20
0.3605956506356058
 30
0.0
 11
1.154764311033779
 21
0.3605956506356058
 31
0.0
  0
LINE
  5
33D
330
18
100
AcDbEntity
  8
TEXT
100
AcDbLine
 10
1.154764311033779
 20
0.3605956506356058
 30
0.0
 11
1.154764311033779
 21
0.2553836720821785
 31
0.0
  0
LINE
  5
33E
330
18
100
AcDbEntity
  8
TEXT
100
AcDbLine
 10
1.075804372158738
 20
0.3605956506356058
 30
0.0
 11
0.9409724629416791
 21
0.3605956506356058
 31
0.0
  0
LINE
  5
33F
330
18
100
AcDbEntity
  8
TEXT
100
AcDbLine
 10
0.9409724629416791
 20
0.3605956506356058
 30
0.0
 11
0.9409724629416791
 21
0.3322731048659619
 31
0.0
  0
LINE
  5
340
330
18
100
AcDbEntity
  8
TEXT
100
AcDbLine
 10
1.000286559334997
 20
0.2590439825167081
 30
0.0
 11
1.082574549118381
 21
0.2590439825167081
 31
0.0
  0
LINE
  5
341
330
18
100
AcDbEntity
  8
TEXT
100
AcDbLine
 10
1.082574549118381
 20
0.2590439825167081
 30
0.0
 11
1.072309788704816
 21
0.2802945220894024
 31
0.0
  0
LINE
  5
342
330
18
100
AcDbEntity
  8
TEXT
100
AcDbLine
 10
1.046773473814259
 20
0.2963189559788404
 30
0.0
 11
0.9395672004269703
 21
0.2963189559788404
 31
0.0
  0
ARC
  5
343
330
18
100
AcDbEntity
  8
TEXT
100
AcDbCircle
 10
1.046773473814258
 20
0.2679595809788431
 30
0.0
 40
0.028359375
100
AcDbArc
 50
25.78218179591245
 51
90.0
  0
LINE
  5
344
330
18
100
AcDbEntity
  8
TEXT
100
AcDbLine
 10
1.154764311033779
 20
0.2553836720821785
 30
0.0
 11
1.111013539851877
 21
0.3376339480783237
 31
0.0
  0
ARC
  5
345
330
18
100
AcDbEntity
  8
TEXT
100
AcDbCircle
 10
1.073777432381669
 20
0.3190120835147034
 30
0.0
 40
0.0416329381542859
100
AcDbArc
 50
26.56974201007528
 51
87.20939649401342
  0
LWPOLYLINE
  5
346
330
18
100
AcDbEntity
  8
TEXT
100
AcDbPolyline
 90
        2
 70
     0
 43
0.0
 10
1.158703988338817
 20
0.137613562597533
 42
-0.2901071551932486
 10
1.115628055471173
 20
0.0941226176470949
 42
-5.328517124445184
  0
LWPOLYLINE
  5
347
330
18
100
AcDbEntity
  8
TEXT
100
AcDbPolyline
 90
        2
 70
     0
 43
0.0
 10
1.158703988338817
 20
0.137613562597533
 10
1.158703988338817
 20
0.0941226176470949
  0
LWPOLYLINE
  5
348
330
18
100
AcDbEntity
  8
TEXT
100
AcDbPolyline
 90
        2
 70
     0
 43
0.0
 10
1.158703988338817
 20
0.0941226176470949
 10
1.217059202174151
 20
0.0941226176470949
  0
LWPOLYLINE
  5
349
330
18
100
AcDbEntity
  8
TEXT
100
AcDbPolyline
 90
        2
 70
     0
 43
0.0
 10
0.9385347049721612
 20
0.137613562597533
 42
0.2901071551932823
 10
0.9816106378397968
 20
0.0941226176470949
 42
5.328517124445801
  0
LWPOLYLINE
  5
34A
330
18
100
AcDbEntity
  8
TEXT
100
AcDbPolyline
 90
        2
 70
     0
 43
0.0
 10
0.9816106378397968
 20
0.0941226176470949
 10
1.115628055471173
 20
0.0941226176470949
 42
0.9999999999999998
  0
LWPOLYLINE
  5
34B
330
18
100
AcDbEntity
  8
TEXT
100
AcDbPolyline
 90
        4
 70
     1
 43
0.0
 10
1.09550559040128
 20
0.1970865956311201
 10
1.006845271741422
 20
0.1970865956311201
 42
0.9999999999999998
 10
1.006845271741422
 20
0.1546880551272594
 10
1.09550559040128
 20
0.1546880551272594
 42
1.0
  0
ARC
  5
34C
330
18
100
AcDbEntity
  8
TEXT
100
AcDbCircle
 10
1.000286559334996
 20
0.1913584013725895
 30
0.0
 40
0.0676855811441166
100
AcDbArc
 50
90.0
 51
153.7768192527749
  0
LINE
  5
34D
330
18
100
AcDbEntity
  8
TEXT
100
AcDbLine
 10
1.217059202174152
 20
0.0941226176470949
 30
0.0
 11
1.217059202174147
 21
0.2714131230785632
 31
0.0
  0
LINE
  5
34E
330
18
100
AcDbEntity
  8
TEXT
100
AcDbLine
 10
0.9395672004269703
 20
0.2963189559788404
 30
0.0
 11
0.9395672004269703
 21
0.2212665499046338
 31
0.0
  0
LINE
  5
34F
330
18
100
AcDbEntity
  8
TEXT
100
AcDbLine
 10
1.241965077456812
 20
0.2963189559788404
 30
0.0
 11
1.318613058749369
 21
0.2963189559788404
 31
0.0
  0
LINE
  5
350
330
18
100
AcDbEntity
  8
TEXT
100
AcDbLine
 10
1.314133171422869
 20
0.3605956506356058
 30
0.0
 11
1.246633453773353
 21
0.3605956506356058
 31
0.0
  0
LWPOLYLINE
  5
351
330
18
100
AcDbEntity
  8
TEXT
100
AcDbPolyline
 90
        2
 70
     0
 43
0.0
 10
0.7337571996492862
 20
0.2963189559788404
 42
-0.4142135623731017
 10
0.7413109888153997
 20
0.2887651668127304
 42
-0.9999999999999998
  0
LWPOLYLINE
  5
352
330
18
100
AcDbEntity
  8
TEXT
100
AcDbPolyline
 90
        2
 70
     0
 43
0.0
 10
0.8625026325181899
 20
0.2963189559788404
 42
-0.4142135623731017
 10
0.8700564216843034
 20
0.2887651668127304
 42
-0.9999999999999998
  0
LWPOLYLINE
  5
353
330
18
100
AcDbEntity
  8
TEXT
100
AcDbPolyline
 90
        2
 70
     0
 43
0.0
 10
0.7511089226993076
 20
0.3605956506356094
 42
-0.3328679258950098
 10
0.7868906134124689
 20
0.3334281538747135
 42
6.772930709997214
  0
LWPOLYLINE
  5
354
330
18
100
AcDbEntity
  8
TEXT
100
AcDbPolyline
 90
        3
 70
     0
 43
0.0
 10
0.9051907722285132
 20
0.3605956506356094
 10
0.7868906134124689
 20
0.3605956506356094
 10
0.7868906134124689
 20
0.3334281538747135
 42
-1.960274751411753
  0
LINE
  5
355
330
18
100
AcDbEntity
  8
TEXT
100
AcDbLine
 10
0.8083690355972406
 20
0.2963189559788404
 30
0.0
 11
0.8625026325181908
 21
0.2963189559788404
 31
0.0
  0
LINE
  5
356
330
18
100
AcDbEntity
  8
TEXT
100
AcDbLine
 10
0.6839219198261395
 20
0.2963189559788404
 30
0.0
 11
0.7337571996492871
 21
0.2963189559788404
 31
0.0
  0
LINE
  5
357
330
18
100
AcDbEntity
  8
TEXT
100
AcDbLine
 10
0.7511089226993067
 20
0.3605956506356058
 30
0.0
 11
0.6170908667681703
 21
0.3605956506356058
 31
0.0
  0
LINE
  5
358
330
18
100
AcDbEntity
  8
TEXT
100
AcDbLine
 10
0.7413109888154006
 20
0.0941226176470949
 30
0.0
 11
0.8083690355972406
 21
0.0941226176470949
 31
0.0
  0
LINE
  5
359
330
18
100
AcDbEntity
  8
TEXT
100
AcDbLine
 10
0.5859185861267049
 20
0.0941226176470949
 30
0.0
 11
0.6839219198261395
 21
0.0941226176470949
 31
0.0
  0
LINE
  5
35A
330
18
100
AcDbEntity
  8
TEXT
100
AcDbLine
 10
0.6170908667681703
 20
0.1597314439031976
 30
0.0
 11
0.600097229883569
 21
0.1597314439031976
 31
0.0
  0
ARC
  5
35B
330
18
100
AcDbEntity
  8
TEXT
100
AcDbCircle
 10
0.6000972298835681
 20
0.175113250146623
 30
0.0
 40
0.0153818062434269
100
AcDbArc
 50
174.7883570302258
 51
270.0
  0
LINE
  5
35C
330
18
100
AcDbEntity
  8
TEXT
100
AcDbLine
 10
0.6839219198261395
 20
0.0941226176470949
 30
0.0
 11
0.6839219198261395
 21
0.2963189559788404
 31
0.0
  0
LINE
  5
35D
330
18
100
AcDbEntity
  8
TEXT
100
AcDbLine
 10
0.7413109888154006
 20
0.2887651668127304
 30
0.0
 11
0.7413109888154006
 21
0.0941226176470949
 31
0.0
  0
LINE
  5
35E
330
18
100
AcDbEntity
  8
TEXT
100
AcDbLine
 10
0.8083690355972406
 20
0.0941226176470949
 30
0.0
 11
0.8083690355972406
 21
0.2963189559788404
 31
0.0
  0
LINE
  5
35F
330
18
100
AcDbEntity
  8
TEXT
100
AcDbLine
 10
0.6170908667681703
 20
0.3605956506356058
 30
0.0
 11
0.6170908667681703
 21
0.1597314439031976
 31
0.0
  0
LINE
  5
360
330
18
100
AcDbEntity
  8
TEXT
100
AcDbLine
 10
0.5847790126305102
 20
0.176510455750094
 30
0.0
 11
0.5847790126305102
 21
0.4286071283744164
 31
0.0
  0
LINE
  5
361
330
18
100
AcDbEntity
  8
TEXT
100
AcDbLine
 10
0.5179703000641452
 20
0.4286071283744164
 30
0.0
 11
0.5179703000641452
 21
0.3605956506356058
 31
0.0
  0
LINE
  5
362
330
18
100
AcDbEntity
  8
TEXT
100
AcDbLine
 10
0.5179703000641452
 20
0.3605956506356058
 30
0.0
 11
0.4878483872707689
 21
0.3605956506356058
 31
0.0
  0
LINE
  5
363
330
18
100
AcDbEntity
  8
TEXT
100
AcDbLine
 10
0.4878483872707689
 20
0.3605956506356058
 30
0.0
 11
0.4290998244649034
 21
0.2597236545224852
 31
0.0
  0
LINE
  5
364
330
18
100
AcDbEntity
  8
TEXT
100
AcDbLine
 10
0.4290998244649034
 20
0.2597236545224852
 30
0.0
 11
0.3704695034329655
 21
0.3605956506356058
 31
0.0
  0
LINE
  5
365
330
18
100
AcDbEntity
  8
TEXT
100
AcDbLine
 10
0.2986705372890581
 20
0.3605956506356058
 30
0.0
 11
0.2986705372890581
 21
0.394983568229744
 31
0.0
  0
LINE
  5
366
330
18
100
AcDbEntity
  8
TEXT
100
AcDbLine
 10
0.2986705372890581
 20
0.394983568229744
 30
0.0
 11
0.2386279324450511
 21
0.394983568229744
 31
0.0
  0
LINE
  5
367
330
18
100
AcDbEntity
  8
TEXT
100
AcDbLine
 10
0.2386279324450511
 20
0.394983568229744
 30
0.0
 11
0.2386279324450511
 21
0.3605956506356058
 31
0.0
  0
LINE
  5
368
330
18
100
AcDbEntity
  8
TEXT
100
AcDbLine
 10
0.3704695034329655
 20
0.3605956506356058
 30
0.0
 11
0.2986705372890581
 21
0.3605956506356058
 31
0.0
  0
ARC
  5
369
330
18
100
AcDbEntity
  8
TEXT
100
AcDbCircle
 10
0.385456027555735
 20
0.1336703399207906
 30
0.0
 40
0.0392772371940762
100
AcDbArc
 50
270.1604552698595
 51
330.0831797321295
  0
ARC
  5
36A
330
18
100
AcDbEntity
  8
TEXT
100
AcDbCircle
 10
0.2951551816635103
 20
0.1539150089851446
 30
0.0
 40
0.0601160179737537
100
AcDbArc
 50
180.0000000000003
 51
264.0521544866073
  0
LINE
  5
36B
330
18
100
AcDbEntity
  8
TEXT
100
AcDbLine
 10
0.2889257711698638
 20
0.0941226176470949
 30
0.0
 11
0.3855660222448582
 21
0.0943932567453772
 31
0.0
  0
LWPOLYLINE
  5
36C
330
18
100
AcDbEntity
  8
TEXT
100
AcDbPolyline
 90
        6
 70
     1
 43
0.0
 10
0.3314495747450135
 20
0.2963189559788404
 10
0.3011329805248053
 20
0.2963189559788404
 10
0.3011329805248053
 20
0.173207957923946
 42
0.407328721240804
 10
0.3126766316862817
 20
0.16138904324756
 10
0.3732983307310125
 20
0.16138904324756
 10
0.3907636711383304
 20
0.1942012722910391
  0
LINE
  5
36D
330
18
100
AcDbEntity
  8
TEXT
100
AcDbLine
 10
0.2350391636897582
 20
0.2963189559788404
 30
0.0
 11
0.2350391636897582
 21
0.1539150089851446
 31
0.0
  0
LINE
  5
36E
330
18
100
AcDbEntity
  8
TEXT
100
AcDbLine
 10
0.4194995874679491
 20
0.1140811237521078
 30
0.0
 11
0.5167992935613937
 21
0.2784313346873759
 31
0.0
  0
LINE
  5
36F
330
18
100
AcDbEntity
  8
TEXT
100
AcDbLine
 10
0.5167992935613937
 20
0.2784313346873759
 30
0.0
 11
0.5167992935613937
 21
0.1456739598620196
 31
0.0
  0
LWPOLYLINE
  5
370
330
18
100
AcDbEntity
  8
TEXT
100
AcDbPolyline
 90
        2
 70
     0
 43
0.0
 10
0.5167992935613928
 20
0.1456739598620231
 42
0.3318488747599744
 10
0.5859185861267058
 20
0.0941226176470949
 42
-6.868794160588311
  0
LINE
  5
371
330
18
100
AcDbEntity
  8
TEXT
100
AcDbLine
 10
0.5847790126305102
 20
0.4286071283744164
 30
0.0
 11
0.5179703000641452
 21
0.4286071283744164
 31
0.0
  0
LWPOLYLINE
  5
372
330
18
100
AcDbEntity
  8
TEXT
100
AcDbPolyline
 90
        4
 70
     0
 43
0.0
 10
0.8700564216843034
 20
0.2887651668127304
 10
0.8700564216843034
 20
0.0941226176470949
 10
0.9385347049721612
 20
0.0941226176470949
 10
0.9385347049721612
 20
0.137613562597533
 42
-1.714843617202739
  0
LWPOLYLINE
  5
373
330
18
100
AcDbEntity
  8
TEXT
100
AcDbPolyline
 90
        2
 70
     0
 43
0.0
 10
0.9051907722285132
 20
0.3605956506356094
 42
-0.3277054968067132
 10
0.9409724629416782
 20
0.3322731048659655
 42
6.667889725900311
  0
TEXT
  5
374
330
18
100
AcDbEntity
  8
TEXT
100
AcDbText
 10
1.68753673675507
 20
0.1870084262925911
 30
0.0
 40
0.0522247191011236
  1
Minneapolis, MN 55432-0008
 41
1.11444212721585
 72
     5
 11
3.016469321024734
 21
0.1870084262925911
 31
0.0
100
AcDbText
  0
TEXT
  5
375
330
18
100
AcDbEntity
  8
TEXT
100
AcDbText
 10
1.68753673675507
 20
0.2802668532588832
 30
0.0
 40
0.0522247191011236
  1
6536 Main St. N.E. * P.O. Box 32008
 41
0.8388932496075353
 72
     5
 11
3.016469321024734
 21
0.2802668532588832
 31
0.0
100
AcDbText
  0
TEXT
  5
376
330
18
100
AcDbEntity
  8
TEXT
100
AcDbText
 10
1.68753673675507
 20
0.3735252802251754
 30
0.0
 40
0.0522247191011236
  1
Stylmark  Incorporated
 41
1.221428571428571
 72
     5
 11
3.016469321024734
 21
0.3735252802251754
 31
0.0
100
AcDbText
  0
TEXT
  5
377
330
18
100
AcDbEntity
  8
TEXT
100
AcDbText
 10
1.68753673675507
 20
0.0937499993262989
 30
0.0
 40
0.0522247191011236
  1
Phone  1-800-328-2495
 41
1.272321428571429
 72
     5
 11
3.016469321024734
 21
0.0937499993262989
 31
0.0
100
AcDbText
  0
LINE
  5
378
330
18
100
AcDbEntity
  8
TEXT
100
AcDbLine
 10
0.1337336459050888
 20
0.2605142343682125
 30
0.0
 11
0.0681335096607878
 21
0.2605142343682125
 31
0.0
  0
ARC
  5
379
330
18
100
AcDbEntity
  8
TEXT
100
AcDbCircle
 10
0.0681335096607878
 20
0.2784165951735282
 30
0.0
 40
0.017902360805315
100
AcDbArc
 50
90.0
 51
270.0
  0
LINE
  5
37A
330
18
100
AcDbEntity
  8
TEXT
100
AcDbLine
 10
0.0628961795465397
 20
0.1964207317425988
 30
0.0
 11
0.1386740198113685
 21
0.1964207317425988
 31
0.0
  0
LINE
  5
37B
330
18
100
AcDbEntity
  8
TEXT
100
AcDbLine
 10
0.1386740198113685
 20
0.1624796239805342
 30
0.0
 11
-0.0191912798999656
 21
0.1624796239805342
 31
0.0
  0
LINE
  5
37C
330
18
100
AcDbEntity
  8
TEXT
100
AcDbLine
 10
-0.0191912798999638
 20
0.0941226176470949
 30
0.0
 11
0.1337336459050888
 21
0.0941226176470949
 31
0.0
  0
ARC
  5
37D
330
18
100
AcDbEntity
  8
TEXT
100
AcDbCircle
 10
0.0628961795465397
 20
0.2785081911891041
 30
0.0
 40
0.0820874594465043
100
AcDbArc
 50
90.0
 51
270.0
  0
LINE
  5
37E
330
18
100
AcDbEntity
  8
TEXT
100
AcDbLine
 10
0.2386279324450511
 20
0.3605956506356058
 30
0.0
 11
0.0628961795465397
 21
0.3605956506356058
 31
0.0
  0
ARC
  5
37F
330
18
100
AcDbEntity
  8
TEXT
100
AcDbCircle
 10
0.1386740198113685
 20
0.1794501778615682
 30
0.0
 40
0.0169705538810321
100
AcDbArc
 50
270.0
 51
90.0
  0
ARC
  5
380
330
18
100
AcDbEntity
  8
TEXT
100
AcDbCircle
 10
0.1337336459050888
 20
0.1773184260076519
 30
0.0
 40
0.0831958083605586
100
AcDbArc
 50
270.0
 51
90.0
  0
LINE
  5
381
330
18
100
AcDbEntity
  8
TEXT
100
AcDbLine
 10
0.0681335096607878
 20
0.2963189559788404
 30
0.0
 11
0.2350391636897582
 21
0.2963189559788404
 31
0.0
  0
LWPOLYLINE
  5
382
330
18
100
AcDbEntity
  8
TEXT
100
AcDbPolyline
 90
        2
 70
     0
 43
0.0006660908203125
 10
-0.228624259999739
 20
0.2473602111824817
 10
-0.201980627187238
 20
0.2473602111824817
  0
LINE
  5
383
330
18
100
AcDbEntity
  8
TEXT
100
AcDbLine
 10
-0.0191912798999656
 20
0.1624796239805342
 30
0.0
 11
-0.0191912798999638
 21
0.0941226176470949
 31
0.0
  0
LWPOLYLINE
  5
384
330
18
100
AcDbEntity
  8
TEXT
100
AcDbPolyline
 90
        2
 70
     0
 43
0.0006660908203125
 10
-0.228624259999739
 20
0.2073947619637337
 10
-0.201980627187238
 20
0.2073947619637337
  0
LWPOLYLINE
  5
385
330
18
100
AcDbEntity
  8
TEXT
100
AcDbPolyline
 90
        2
 70
     0
 43
0.0001332181640625
 10
-0.3152160666403638
 20
0.3605956506356094
 10
-0.3252074289450526
 20
0.2873256604012297
  0
LWPOLYLINE
  5
386
330
18
100
AcDbEntity
  8
TEXT
100
AcDbPolyline
 90
        2
 70
     0
 43
0.0001332181640625
 10
-0.3152160666403638
 20
0.3339520178231083
 10
-0.3252074289450526
 20
0.2740038439949828
  0
LWPOLYLINE
  5
387
330
18
100
AcDbEntity
  8
TEXT
100
AcDbPolyline
 90
        2
 70
     0
 43
0.0006660908203125
 10
-0.3152160666403638
 20
0.3339520178231083
 10
-0.3152160666403638
 20
0.3605956506356094
  0
LWPOLYLINE
  5
388
330
18
100
AcDbEntity
  8
TEXT
100
AcDbPolyline
 90
        5
 70
     0
 43
0.0001332181640625
 10
-0.3252074289450526
 20
0.2873256604012297
 10
-0.3252074289450526
 20
0.2740038439949828
 10
-0.2885724338278628
 20
0.2740038439949828
 10
-0.2885724338278628
 20
0.237368848877793
 10
-0.275250617421614
 20
0.237368848877793
  0
LWPOLYLINE
  5
389
330
18
100
AcDbEntity
  8
TEXT
100
AcDbPolyline
 90
        2
 70
     0
 43
0.0001332181640625
 10
-0.3551815158591154
 20
0.3339520178231083
 10
-0.3451901535544248
 20
0.2740038439949828
  0
LWPOLYLINE
  5
38A
330
18
100
AcDbEntity
  8
TEXT
100
AcDbPolyline
 90
        2
 70
     0
 43
0.0001332181640625
 10
-0.3451901535544248
 20
0.2873256604012297
 10
-0.3551815158591154
 20
0.3605956506356094
  0
LWPOLYLINE
  5
38B
330
18
100
AcDbEntity
  8
TEXT
100
AcDbPolyline
 90
        2
 70
     0
 43
0.0006660908203125
 10
-0.3551815158591154
 20
0.3339520178231083
 10
-0.3551815158591154
 20
0.3605956506356094
  0
LWPOLYLINE
  5
38C
330
18
100
AcDbEntity
  8
TEXT
100
AcDbPolyline
 90
        5
 70
     0
 43
0.0001332181640625
 10
-0.3951469650778634
 20
0.237368848877793
 10
-0.3818251486716146
 20
0.237368848877793
 10
-0.3818251486716146
 20
0.2740038439949828
 10
-0.3451901535544248
 20
0.2740038439949828
 10
-0.3451901535544248
 20
0.2873256604012297
  0
LWPOLYLINE
  5
38D
330
18
100
AcDbEntity
  8
TEXT
100
AcDbPolyline
 90
        2
 70
     0
 43
0.0006660908203125
 10
-0.4417733224997403
 20
0.2473602111824817
 10
-0.4684169553122377
 20
0.2473602111824817
  0
LWPOLYLINE
  5
38E
330
18
100
AcDbEntity
  8
TEXT
100
AcDbPolyline
 90
        2
 70
     0
 43
0.0001332181640625
 10
-0.4684169553122377
 20
0.2473602111824817
 10
-0.3951469650778634
 20
0.237368848877793
  0
LWPOLYLINE
  5
38F
330
18
100
AcDbEntity
  8
TEXT
100
AcDbPolyline
 90
        2
 70
     0
 43
0.0001332181640625
 10
-0.4417733224997403
 20
0.2473602111824817
 10
-0.3818251486716146
 20
0.237368848877793
  0
LWPOLYLINE
  5
390
330
18
100
AcDbEntity
  8
TEXT
100
AcDbPolyline
 90
        2
 70
     0
 43
0.0001332181640625
 10
-0.4417733224997403
 20
0.3339520178231083
 10
-0.3818251486716146
 20
0.2740038439949828
  0
LWPOLYLINE
  5
391
330
18
100
AcDbEntity
  8
TEXT
100
AcDbPolyline
 90
        3
 70
     0
 43
0.0006660908203125
 10
-0.3551815158591154
 20
0.3339520178231083
 10
-0.4417733224997403
 20
0.3339520178231083
 10
-0.4417733224997403
 20
0.2473602111824817
  0
LWPOLYLINE
  5
392
330
18
100
AcDbEntity
  8
TEXT
100
AcDbPolyline
 90
        3
 70
     0
 43
0.0006660908203125
 10
-0.3551815158591154
 20
0.3605956506356094
 10
-0.4684169553122377
 20
0.3605956506356094
 10
-0.4684169553122377
 20
0.2473602111824817
  0
LWPOLYLINE
  5
393
330
18
100
AcDbEntity
  8
TEXT
100
AcDbPolyline
 90
        5
 70
     0
 43
0.0001332181640625
 10
-0.275250617421614
 20
0.217386124268419
 10
-0.2885724338278628
 20
0.217386124268419
 10
-0.2885724338278628
 20
0.1807511291512327
 10
-0.3252074289450526
 20
0.1807511291512327
 10
-0.3252074289450526
 20
0.1674293127449822
  0
LWPOLYLINE
  5
394
330
18
100
AcDbEntity
  8
TEXT
100
AcDbPolyline
 90
        2
 70
     0
 43
0.0006660908203125
 10
-0.3152160666403638
 20
0.1208029553231071
 10
-0.3152160666403638
 20
0.0941593225106061
  0
LWPOLYLINE
  5
395
330
18
100
AcDbEntity
  8
TEXT
100
AcDbPolyline
 90
        2
 70
     0
 43
0.0001332181640625
 10
-0.3252074289450526
 20
0.1674293127449822
 10
-0.3152160666403638
 20
0.0941593225106061
  0
LWPOLYLINE
  5
396
330
18
100
AcDbEntity
  8
TEXT
100
AcDbPolyline
 90
        2
 70
     0
 43
0.0001332181640625
 10
-0.3152160666403638
 20
0.1208029553231071
 10
-0.3252074289450526
 20
0.1807511291512327
  0
LWPOLYLINE
  5
397
330
18
100
AcDbEntity
  8
TEXT
100
AcDbPolyline
 90
        2
 70
     0
 43
0.0001332181640625
 10
-0.3551815158591154
 20
0.0941593225106061
 10
-0.3451901535544248
 20
0.1674293127449822
  0
LWPOLYLINE
  5
398
330
18
100
AcDbEntity
  8
TEXT
100
AcDbPolyline
 90
        2
 70
     0
 43
0.0001332181640625
 10
-0.3551815158591154
 20
0.1208029553231071
 10
-0.3451901535544248
 20
0.1807511291512327
  0
LWPOLYLINE
  5
399
330
18
100
AcDbEntity
  8
TEXT
100
AcDbPolyline
 90
        2
 70
     0
 43
0.0006660908203125
 10
-0.3551815158591154
 20
0.1208029553231071
 10
-0.3551815158591154
 20
0.0941593225106061
  0
LWPOLYLINE
  5
39A
330
18
100
AcDbEntity
  8
TEXT
100
AcDbPolyline
 90
        5
 70
     0
 43
0.0001332181640625
 10
-0.3451901535544248
 20
0.1674293127449822
 10
-0.3451901535544248
 20
0.1807511291512327
 10
-0.3818251486716129
 20
0.1807511291512327
 10
-0.3818251486716129
 20
0.217386124268419
 10
-0.3951469650778634
 20
0.217386124268419
  0
LWPOLYLINE
  5
39B
330
18
100
AcDbEntity
  8
TEXT
100
AcDbPolyline
 90
        2
 70
     0
 43
0.0006660908203125
 10
-0.4417733224997403
 20
0.2073947619637337
 10
-0.4684169553122377
 20
0.2073947619637337
  0
LWPOLYLINE
  5
39C
330
18
100
AcDbEntity
  8
TEXT
100
AcDbPolyline
 90
        2
 70
     0
 43
0.0001332181640625
 10
-0.4417733224997403
 20
0.1208029553231071
 10
-0.3818251486716129
 20
0.1807511291512327
  0
LWPOLYLINE
  5
39D
330
18
100
AcDbEntity
  8
TEXT
100
AcDbPolyline
 90
        2
 70
     0
 43
0.0001332181640625
 10
-0.4417733224997403
 20
0.2073947619637337
 10
-0.3818251486716129
 20
0.217386124268419
  0
LWPOLYLINE
  5
39E
330
18
100
AcDbEntity
  8
TEXT
100
AcDbPolyline
 90
        2
 70
     0
 43
0.0001332181640625
 10
-0.3951469650778634
 20
0.217386124268419
 10
-0.4684169553122377
 20
0.2073947619637337
  0
LWPOLYLINE
  5
39F
330
18
100
AcDbEntity
  8
TEXT
100
AcDbPolyline
 90
        3
 70
     0
 43
0.0006660908203125
 10
-0.4417733224997403
 20
0.2073947619637337
 10
-0.4417733224997403
 20
0.1208029553231071
 10
-0.3551815158591154
 20
0.1208029553231071
  0
LWPOLYLINE
  5
3A0
330
18
100
AcDbEntity
  8
TEXT
100
AcDbPolyline
 90
        3
 70
     0
 43
0.0006660908203125
 10
-0.4684169553122377
 20
0.2073947619637337
 10
-0.4684169553122377
 20
0.0941593225106061
 10
-0.3551815158591154
 20
0.0941593225106061
  0
LWPOLYLINE
  5
3A1
330
18
100
AcDbEntity
  8
TEXT
100
AcDbPolyline
 90
        3
 70
     0
 43
0.0006660908203125
 10
-0.3152160666403638
 20
0.0941593225106061
 10
-0.201980627187238
 20
0.0941593225106061
 10
-0.201980627187238
 20
0.2073947619637337
  0
LWPOLYLINE
  5
3A2
330
18
100
AcDbEntity
  8
TEXT
100
AcDbPolyline
 90
        3
 70
     0
 43
0.0006660908203125
 10
-0.3152160666403638
 20
0.1208029553231071
 10
-0.228624259999739
 20
0.1208029553231071
 10
-0.228624259999739
 20
0.2073947619637337
  0
LWPOLYLINE
  5
3A3
330
18
100
AcDbEntity
  8
TEXT
100
AcDbPolyline
 90
        2
 70
     0
 43
0.0001332181640625
 10
-0.228624259999739
 20
0.1208029553231071
 10
-0.2885724338278628
 20
0.1807511291512327
  0
LWPOLYLINE
  5
3A4
330
18
100
AcDbEntity
  8
TEXT
100
AcDbPolyline
 90
        2
 70
     0
 43
0.0001332181640625
 10
-0.228624259999739
 20
0.2073947619637337
 10
-0.2885724338278628
 20
0.217386124268419
  0
LWPOLYLINE
  5
3A5
330
18
100
AcDbEntity
  8
TEXT
100
AcDbPolyline
 90
        2
 70
     0
 43
0.0001332181640625
 10
-0.201980627187238
 20
0.2073947619637337
 10
-0.275250617421614
 20
0.217386124268419
  0
LWPOLYLINE
  5
3A6
330
18
100
AcDbEntity
  8
TEXT
100
AcDbPolyline
 90
        2
 70
     0
 43
0.0001332181640625
 10
-0.228624259999739
 20
0.3339520178231083
 10
-0.2885724338278628
 20
0.2740038439949828
  0
LWPOLYLINE
  5
3A7
330
18
100
AcDbEntity
  8
TEXT
100
AcDbPolyline
 90
        2
 70
     0
 43
0.0001332181640625
 10
-0.228624259999739
 20
0.2473602111824817
 10
-0.2885724338278628
 20
0.237368848877793
  0
LWPOLYLINE
  5
3A8
330
18
100
AcDbEntity
  8
TEXT
100
AcDbPolyline
 90
        2
 70
     0
 43
0.0001332181640625
 10
-0.275250617421614
 20
0.237368848877793
 10
-0.201980627187238
 20
0.2473602111824817
  0
LWPOLYLINE
  5
3A9
330
18
100
AcDbEntity
  8
TEXT
100
AcDbPolyline
 90
        3
 70
     0
 43
0.0006660908203125
 10
-0.228624259999739
 20
0.2473602111824817
 10
-0.228624259999739
 20
0.3339520178231083
 10
-0.3152160666403638
 20
0.3339520178231083
  0
LWPOLYLINE
  5
3AA
330
18
100
AcDbEntity
  8
TEXT
100
AcDbPolyline
 90
        3
 70
     0
 43
0.0006660908203125
 10
-0.201980627187238
 20
0.2473602111824817
 10
-0.201980627187238
 20
0.3605956506356094
 10
-0.3152160666403638
 20
0.3605956506356094
  0
ENDSEC
  0
SECTION
  2
OBJECTS
  0
DICTIONARY
  5
C
330
0
100
AcDbDictionary
  3
ACAD_GROUP
350
D
  3
ACAD_LAYOUT
350
3AF
  3
ACAD_MLINESTYLE
350
E
  3
ACAD_PLOTSETTINGS
350
3B0
  3
ACAD_PLOTSTYLENAME
350
3AD
  3
ACDBHEADERROUNDTRIPXREC
350
3BB
  3
ACDBVARIABLEDICTIONARY
350
3B8
  0
DICTIONARY
  5
3DD
330
18
100
AcDbDictionary
280
     1
  3
ACAD_LAYOUTSELFREF
360
3DE
  0
DICTIONARY
  5
3DB
330
15
100
AcDbDictionary
280
     1
  3
ACAD_LAYOUTSELFREF
360
3DC
  0
DICTIONARY
  5
D
102
{ACAD_REACTORS
330
C
102
}
330
C
100
AcDbDictionary
  0
DICTIONARY
  5
3AF
102
{ACAD_REACTORS
330
C
102
}
330
C
100
AcDbDictionary
  0
DICTIONARY
  5
E
102
{ACAD_REACTORS
330
C
102
}
330
C
100
AcDbDictionary
  3
STANDARD
350
1B
  0
DICTIONARY
  5
3B0
102
{ACAD_REACTORS
330
C
102
}
330
C
100
AcDbDictionary
  0
ACDBDICTIONARYWDFLT
  5
3AD
102
{ACAD_REACTORS
330
C
102
}
330
C
100
AcDbDictionary
281
     1
  3
Normal
350
3AE
100
AcDbDictionaryWithDefault
340
3AE
  0
DICTIONARY
  5
3BB
102
{ACAD_REACTORS
330
C
102
}
330
C
100
AcDbDictionary
  3
CEPSNTYPE
350
3C5
  3
FINGERPRINTGUID
350
3C6
  3
HYPERLINKBASE
350
3BE
  3
INSUNITS
350
3C4
  3
LAYOUTDICT
350
3C0
  3
LWETCUNION
350
3C3
  3
PLOTSETDICT
350
3C1
  3
PLOTSTYLNAMDICT
350
3C2
  3
PSVPSCALE
350
3C8
  3
PUCSBASE
350
3CB
  3
PUCSORGBACK
350
3D1
  3
PUCSORGBOTTOM
350
3CD
  3
PUCSORGFRONT
350
3D0
  3
PUCSORGLEFT
350
3CE
  3
PUCSORGRIGHT
350
3CF
  3
PUCSORGTOP
350
3CC
  3
PUCSORTHOREF
350
3C9
  3
PUCSORTHOVIEW
350
3CA
  3
STYLESHEET
350
3BF
  3
TSTACKALIGN
350
3BC
  3
TSTACKSIZE
350
3BD
  3
UCSBASE
350
3D4
  3
UCSORGBACK
350
3DA
  3
UCSORGBOTTOM
350
3D6
  3
UCSORGFRONT
350
3D9
  3
UCSORGLEFT
350
3D7
  3
UCSORGRIGHT
350
3D8
  3
UCSORGTOP
350
3D5
  3
UCSORTHOREF
350
3D2
  3
UCSORTHOVIEW
350
3D3
  3
VERSIONGUID
350
3C7
  0
DICTIONARY
  5
3B8
102
{ACAD_REACTORS
330
C
102
}
330
C
100
AcDbDictionary
  3
DIMASSOC
350
3B9
  0
XRECORD
  5
3DE
102
{ACAD_REACTORS
330
3DD
102
}
330
3DD
100
AcDbXrecord
340
18
  0
XRECORD
  5
3DC
102
{ACAD_REACTORS
330
3DB
102
}
330
3DB
100
AcDbXrecord
340
15
  0
MLINESTYLE
  5
1B
102
{ACAD_REACTORS
330
E
102
}
330
E
100
AcDbMlineStyle
  2
STANDARD
 70
     0
  3

 62
     0
 51
90.0
 52
90.0
 71
     2
 49
0.5
 62
   256
  6
BYLAYER
 49
-0.5
 62
   256
  6
BYLAYER
  0
ACDBPLACEHOLDER
  5
3AE
102
{ACAD_REACTORS
330
3AD
102
}
330
3AD
100
AcDbPlaceHolder
280
     0
  0
XRECORD
  5
3C5
102
{ACAD_REACTORS
330
3BB
102
}
330
3BB
100
AcDbXrecord
 90
        0
  0
XRECORD
  5
3C6
102
{ACAD_REACTORS
330
3BB
102
}
330
3BB
100
AcDbXrecord
  1
{27369740-8DB4-11D6-88E6-0090279574E7}
  0
XRECORD
  5
3BE
102
{ACAD_REACTORS
330
3BB
102
}
330
3BB
100
AcDbXrecord
  1

  0
XRECORD
  5
3C4
102
{ACAD_REACTORS
330
3BB
102
}
330
3BB
100
AcDbXrecord
 90
        0
  0
XRECORD
  5
3C0
102
{ACAD_REACTORS
330
3BB
102
}
330
3BB
100
AcDbXrecord
340
3AF
  0
XRECORD
  5
3C3
102
{ACAD_REACTORS
330
3BB
102
}
330
3BB
100
AcDbXrecord
 90
    14877
  0
XRECORD
  5
3C1
102
{ACAD_REACTORS
330
3BB
102
}
330
3BB
100
AcDbXrecord
340
3B0
  0
XRECORD
  5
3C2
102
{ACAD_REACTORS
330
3BB
102
}
330
3BB
100
AcDbXrecord
340
3AD
  0
XRECORD
  5
3C8
102
{ACAD_REACTORS
330
3BB
102
}
330
3BB
100
AcDbXrecord
 40
0.0
  0
XRECORD
  5
3CB
102
{ACAD_REACTORS
330
3BB
102
}
330
3BB
100
AcDbXrecord
340
0
  0
XRECORD
  5
3D1
102
{ACAD_REACTORS
330
3BB
102
}
330
3BB
100
AcDbXrecord
 10
0.0
 20
0.0
 30
0.0
  0
XRECORD
  5
3CD
102
{ACAD_REACTORS
330
3BB
102
}
330
3BB
100
AcDbXrecord
 10
0.0
 20
0.0
 30
0.0
  0
XRECORD
  5
3D0
102
{ACAD_REACTORS
330
3BB
102
}
330
3BB
100
AcDbXrecord
 10
0.0
 20
0.0
 30
0.0
  0
XRECORD
  5
3CE
102
{ACAD_REACTORS
330
3BB
102
}
330
3BB
100
AcDbXrecord
 10
0.0
 20
0.0
 30
0.0
  0
XRECORD
  5
3CF
102
{ACAD_REACTORS
330
3BB
102
}
330
3BB
100
AcDbXrecord
 10
0.0
 20
0.0
 30
0.0
  0
XRECORD
  5
3CC
102
{ACAD_REACTORS
330
3BB
102
}
330
3BB
100
AcDbXrecord
 10
0.0
 20
0.0
 30
0.0
  0
XRECORD
  5
3C9
102
{ACAD_REACTORS
330
3BB
102
}
330
3BB
100
AcDbXrecord
340
0
  0
XRECORD
  5
3CA
102
{ACAD_REACTORS
330
3BB
102
}
330
3BB
100
AcDbXrecord
 70
     0
  0
XRECORD
  5
3BF
102
{ACAD_REACTORS
330
3BB
102
}
330
3BB
100
AcDbXrecord
  1

  0
XRECORD
  5
3BC
102
{ACAD_REACTORS
330
3BB
102
}
330
3BB
100
AcDbXrecord
 90
        1
  0
XRECORD
  5
3BD
102
{ACAD_REACTORS
330
3BB
102
}
330
3BB
100
AcDbXrecord
 90
       70
  0
XRECORD
  5
3D4
102
{ACAD_REACTORS
330
3BB
102
}
330
3BB
100
AcDbXrecord
340
0
  0
XRECORD
  5
3DA
102
{ACAD_REACTORS
330
3BB
102
}
330
3BB
100
AcDbXrecord
 10
0.0
 20
0.0
 30
0.0
  0
XRECORD
  5
3D6
102
{ACAD_REACTORS
330
3BB
102
}
330
3BB
100
AcDbXrecord
 10
0.0
 20
0.0
 30
0.0
  0
XRECORD
  5
3D9
102
{ACAD_REACTORS
330
3BB
102
}
330
3BB
100
AcDbXrecord
 10
0.0
 20
0.0
 30
0.0
  0
XRECORD
  5
3D7
102
{ACAD_REACTORS
330
3BB
102
}
330
3BB
100
AcDbXrecord
 10
0.0
 20
0.0
 30
0.0
  0
XRECORD
  5
3D8
102
{ACAD_REACTORS
330
3BB
102
}
330
3BB
100
AcDbXrecord
 10
0.0
 20
0.0
 30
0.0
  0
XRECORD
  5
3D5
102
{ACAD_REACTORS
330
3BB
102
}
330
3BB
100
AcDbXrecord
 10
0.0
 20
0.0
 30
0.0
  0
XRECORD
  5
3D2
102
{ACAD_REACTORS
330
3BB
102
}
330
3BB
100
AcDbXrecord
340
0
  0
XRECORD
  5
3D3
102
{ACAD_REACTORS
330
3BB
102
}
330
3BB
100
AcDbXrecord
 70
     0
  0
XRECORD
  5
3C7
102
{ACAD_REACTORS
330
3BB
102
}
330
3BB
100
AcDbXrecord
  1
{27369742-8DB4-11D6-88E6-0090279574E7}
  0
DICTIONARYVAR
  5
3B9
102
{ACAD_REACTORS
330
3B8
102
}
330
3B8
100
DictionaryVariables
280
     0
  1
1
  0
ENDSEC
  0
EOF
