  0
SECTION
  2
HEADER
  9
$ACADVER
  1
AC1014
  9
$ACADMAINTVER
 70
     9
  9
$DWGCODEPAGE
  3
ANSI_1252
  9
$INSBASE
 10
2.471892629960402
 20
2.119782608695653
 30
0.0
  9
$EXTMIN
 10
1.103911050733259
 20
1.015514004613072
 30
0.0
  9
$EXTMAX
 10
4.589130372480388
 20
2.494782608695666
 30
0.0
  9
$LIMMIN
 10
0.0
 20
0.0
  9
$LIMMAX
 10
18.0
 20
12.0
  9
$ORTHOMODE
 70
     1
  9
$REGENMODE
 70
     1
  9
$FILLMODE
 70
     1
  9
$QTEXTMODE
 70
     0
  9
$MIRRTEXT
 70
     0
  9
$DRAGMODE
 70
     2
  9
$LTSCALE
 40
1.0
  9
$OSMODE
 70
    39
  9
$ATTMODE
 70
     1
  9
$TEXTSIZE
 40
0.125
  9
$TRACEWID
 40
0.05
  9
$TEXTSTYLE
  7
ROMANS
  9
$CLAYER
  8
0
  9
$CELTYPE
  6
BYLAYER
  9
$CECOLOR
 62
   256
  9
$CELTSCALE
 40
1.0
  9
$DELOBJ
 70
     1
  9
$DISPSILH
 70
     1
  9
$DIMSCALE
 40
1.0
  9
$DIMASZ
 40
0.125
  9
$DIMEXO
 40
0.125
  9
$DIMDLI
 40
0.375
  9
$DIMRND
 40
0.0
  9
$DIMDLE
 40
0.0
  9
$DIMEXE
 40
0.125
  9
$DIMTP
 40
0.0
  9
$DIMTM
 40
0.0
  9
$DIMTXT
 40
0.125
  9
$DIMCEN
 40
-0.125
  9
$DIMTSZ
 40
0.0
  9
$DIMTOL
 70
     0
  9
$DIMLIM
 70
     0
  9
$DIMTIH
 70
     1
  9
$DIMTOH
 70
     1
  9
$DIMSE1
 70
     0
  9
$DIMSE2
 70
     0
  9
$DIMTAD
 70
     0
  9
$DIMZIN
 70
     4
  9
$DIMBLK
  1

  9
$DIMASO
 70
     1
  9
$DIMSHO
 70
     1
  9
$DIMPOST
  1

  9
$DIMAPOST
  1

  9
$DIMALT
 70
     0
  9
$DIMALTD
 70
     2
  9
$DIMALTF
 40
25.4
  9
$DIMLFAC
 40
1.0
  9
$DIMTOFL
 70
     0
  9
$DIMTVP
 40
0.0
  9
$DIMTIX
 70
     1
  9
$DIMSOXD
 70
     0
  9
$DIMSAH
 70
     0
  9
$DIMBLK1
  1

  9
$DIMBLK2
  1

  9
$DIMSTYLE
  2
STANDARD
  9
$DIMCLRD
 70
     0
  9
$DIMCLRE
 70
     0
  9
$DIMCLRT
 70
     0
  9
$DIMTFAC
 40
1.0
  9
$DIMGAP
 40
0.09
  9
$DIMJUST
 70
     0
  9
$DIMSD1
 70
     0
  9
$DIMSD2
 70
     0
  9
$DIMTOLJ
 70
     1
  9
$DIMTZIN
 70
     4
  9
$DIMALTZ
 70
     0
  9
$DIMALTTZ
 70
     0
  9
$DIMFIT
 70
     3
  9
$DIMUPT
 70
     0
  9
$DIMUNIT
 70
     2
  9
$DIMDEC
 70
     3
  9
$DIMTDEC
 70
     3
  9
$DIMALTU
 70
     2
  9
$DIMALTTD
 70
     2
  9
$DIMTXSTY
  7
ROMANS
  9
$DIMAUNIT
 70
     0
  9
$LUNITS
 70
     2
  9
$LUPREC
 70
     3
  9
$SKETCHINC
 40
0.1
  9
$FILLETRAD
 40
0.03125
  9
$AUNITS
 70
     0
  9
$AUPREC
 70
     0
  9
$MENU
  1
ACAD
  9
$ELEVATION
 40
0.0
  9
$PELEVATION
 40
0.0
  9
$THICKNESS
 40
0.0
  9
$LIMCHECK
 70
     0
  9
$BLIPMODE
 70
     0
  9
$CHAMFERA
 40
0.0
  9
$CHAMFERB
 40
0.0
  9
$CHAMFERC
 40
0.0
  9
$CHAMFERD
 40
0.0
  9
$SKPOLY
 70
     0
  9
$TDCREATE
 40
2448994.304374305
  9
$TDUPDATE
 40
2452458.296180717
  9
$TDINDWG
 40
0.0008453356
  9
$TDUSRTIMER
 40
0.0008453356
  9
$USRTIMER
 70
     1
  9
$ANGBASE
 50
0.0
  9
$ANGDIR
 70
     0
  9
$PDMODE
 70
     0
  9
$PDSIZE
 40
0.0
  9
$PLINEWID
 40
0.0
  9
$COORDS
 70
     2
  9
$SPLFRAME
 70
     0
  9
$SPLINETYPE
 70
     6
  9
$SPLINESEGS
 70
     8
  9
$ATTDIA
 70
     0
  9
$ATTREQ
 70
     1
  9
$HANDLING
 70
 22529
  9
$HANDSEED
  5
3EF0D9A1ECE851A
  9
$SURFTAB1
 70
     6
  9
$SURFTAB2
 70
     6
  9
$SURFTYPE
 70
     6
  9
$SURFU
 70
     6
  9
$SURFV
 70
     6
  9
$UCSNAME
  2

  9
$UCSORG
 10
0.0
 20
0.0
 30
0.0
  9
$UCSXDIR
 10
1.0
 20
0.0
 30
0.0
  9
$UCSYDIR
 10
0.0
 20
1.0
 30
0.0
  9
$PUCSNAME
  2

  9
$PUCSORG
 10
0.0
 20
0.0
 30
0.0
  9
$PUCSXDIR
 10
1.0
 20
0.0
 30
0.0
  9
$PUCSYDIR
 10
0.0
 20
1.0
 30
0.0
  9
$USERI1
 70
     0
  9
$USERI2
 70
     0
  9
$USERI3
 70
     0
  9
$USERI4
 70
     0
  9
$USERI5
 70
     0
  9
$USERR1
 40
0.0
  9
$USERR2
 40
0.0
  9
$USERR3
 40
0.0
  9
$USERR4
 40
0.0
  9
$USERR5
 40
0.0
  9
$WORLDVIEW
 70
     1
  9
$SHADEDGE
 70
     3
  9
$SHADEDIF
 70
    70
  9
$TILEMODE
 70
     1
  9
$MAXACTVP
 70
    16
  9
$PINSBASE
 10
1.690931910246099
 20
50.00000000000001
 30
2.460365844866596
  9
$PLIMCHECK
 70
     0
  9
$PEXTMIN
 10
1.000000000000000E+20
 20
1.000000000000000E+20
 30
1.000000000000000E+20
  9
$PEXTMAX
 10
-1.000000000000000E+20
 20
-1.000000000000000E+20
 30
-1.000000000000000E+20
  9
$PLIMMIN
 10
0.0
 20
0.0
  9
$PLIMMAX
 10
12.0
 20
9.0
  9
$UNITMODE
 70
     0
  9
$VISRETAIN
 70
     0
  9
$PLINEGEN
 70
     1
  9
$PSLTSCALE
 70
     0
  9
$TREEDEPTH
 70
  3020
  9
$PICKSTYLE
 70
     1
  9
$CMLSTYLE
  2
STANDARD
  9
$CMLJUST
 70
     0
  9
$CMLSCALE
 40
1.0
  9
$PROXYGRAPHICS
 70
     1
  9
$MEASUREMENT
 70
     0
  0
ENDSEC
  0
SECTION
  2
CLASSES
  0
CLASS
  1
LWPOLYLINE
  2
AcDbPolyline
  3
AutoCAD 2000
 90
        0
280
     0
281
     1
  0
CLASS
  1
ACDBDICTIONARYWDFLT
  2
AcDbDictionaryWithDefault
  3
AutoCAD 2000
 90
        0
280
     0
281
     0
  0
CLASS
  1
ACDBPLACEHOLDER
  2
AcDbPlaceHolder
  3
AutoCAD 2000
 90
        0
280
     0
281
     0
  0
CLASS
  1
LAYOUT
  2
AcDbLayout
  3
AutoCAD 2000
 90
        0
280
     0
281
     0
  0
CLASS
  1
DICTIONARYVAR
  2
AcDbDictionaryVar
  3
AutoCAD 2000
 90
        0
280
     0
281
     0
  0
CLASS
  1
LONG_TRANSACTION
  2
AcDbLongTransaction
  3
AutoCAD 2000
 90
        0
280
     0
281
     0
  0
CLASS
  1
LWPOLYLINE
  2
AcDbPolyline
  3
AutoCAD 2000
 90
        0
280
     0
281
     1
  0
CLASS
  1
HATCH
  2
AcDbHatch
  3
AutoCAD 2000
 90
        0
280
     0
281
     1
  0
CLASS
  1
XRECORD
  2
AcDbXrecord
  3
AutoCAD 2000
 90
        0
280
     0
281
     0
  0
ENDSEC
  0
SECTION
  2
TABLES
  0
TABLE
  2
VPORT
  5
3EF0D9A1ECE84C1
330
0
100
AcDbSymbolTable
 70
     2
  0
VPORT
  5
3EF0D9A1ECE84F5
330
3EF0D9A1ECE84C1
100
AcDbSymbolTableRecord
100
AcDbViewportTableRecord
  2
*ACTIVE
 70
     0
 10
0.0
 20
0.0
 11
1.0
 21
1.0
 12
5.82330592827724
 22
1.755157493701155
 13
0.0
 23
0.0
 14
0.015625
 24
0.015625
 15
0.0
 25
0.0
 16
0.0
 26
0.0
 36
1.0
 17
0.0
 27
0.0
 37
0.0
 40
2.282647215150728
 41
4.320930232558139
 42
50.0
 43
0.0
 44
0.0
 50
0.0
 51
0.0
 71
     0
 72
  2000
 73
     1
 74
     0
 75
     1
 76
     0
 77
     0
 78
     0
  0
ENDTAB
  0
TABLE
  2
LTYPE
  5
3EF0D9A1ECE84BE
330
0
100
AcDbSymbolTable
 70
     1
  0
LTYPE
  5
3EF0D9A1ECE84CB
330
3EF0D9A1ECE84BE
100
AcDbSymbolTableRecord
100
AcDbLinetypeTableRecord
  2
BYBLOCK
 70
     0
  3

 72
    65
 73
     0
 40
0.0
  0
LTYPE
  5
3EF0D9A1ECE84CC
330
3EF0D9A1ECE84BE
100
AcDbSymbolTableRecord
100
AcDbLinetypeTableRecord
  2
BYLAYER
 70
     0
  3

 72
    65
 73
     0
 40
0.0
  0
LTYPE
  5
3EF0D9A1ECE84CD
330
3EF0D9A1ECE84BE
100
AcDbSymbolTableRecord
100
AcDbLinetypeTableRecord
  2
CONTINUOUS
 70
     0
  3
Solid line
 72
    65
 73
     0
 40
0.0
  0
ENDTAB
  0
TABLE
  2
LAYER
  5
3EF0D9A1ECE84BB
330
0
100
AcDbSymbolTable
 70
     2
  0
LAYER
  5
3EF0D9A1ECE84C8
330
3EF0D9A1ECE84BB
100
AcDbSymbolTableRecord
100
AcDbLayerTableRecord
  2
0
 70
     0
 62
     7
  6
CONTINUOUS
  0
LAYER
  5
3EF0D9A1ECE84D8
330
3EF0D9A1ECE84BB
100
AcDbSymbolTableRecord
100
AcDbLayerTableRecord
  2
TEXT
 70
     0
 62
     3
  6
CONTINUOUS
  0
ENDTAB
  0
TABLE
  2
STYLE
  5
3EF0D9A1ECE84BC
330
0
100
AcDbSymbolTable
 70
     3
  0
STYLE
  5
3EF0D9A1ECE84C9
330
3EF0D9A1ECE84BC
100
AcDbSymbolTableRecord
100
AcDbTextStyleTableRecord
  2
STANDARD
 70
     0
 40
0.0
 41
1.0
 50
0.0
 71
     0
 42
0.3125
  3
txt
  4

  0
STYLE
  5
3EF0D9A1ECE84D5
330
3EF0D9A1ECE84BC
100
AcDbSymbolTableRecord
100
AcDbTextStyleTableRecord
  2
ITALICC
 70
     0
 40
0.0
 41
1.0
 50
0.0
 71
     0
 42
0.125
  3
italicc
  4

  0
STYLE
  5
3EF0D9A1ECE84E5
330
3EF0D9A1ECE84BC
100
AcDbSymbolTableRecord
100
AcDbTextStyleTableRecord
  2
ROMANS
 70
     0
 40
0.0
 41
1.0
 50
0.0
 71
     0
 42
0.125
  3
romans.shx
  4

  0
ENDTAB
  0
TABLE
  2
VIEW
  5
3EF0D9A1ECE84BF
330
0
100
AcDbSymbolTable
 70
     0
  0
ENDTAB
  0
TABLE
  2
UCS
  5
3EF0D9A1ECE84C0
330
0
100
AcDbSymbolTable
 70
     0
  0
ENDTAB
  0
TABLE
  2
APPID
  5
3EF0D9A1ECE84C2
330
0
100
AcDbSymbolTable
 70
     1
  0
APPID
  5
3EF0D9A1ECE84CA
330
3EF0D9A1ECE84C2
100
AcDbSymbolTableRecord
100
AcDbRegAppTableRecord
  2
ACAD
 70
     0
  0
ENDTAB
  0
TABLE
  2
DIMSTYLE
  5
3EF0D9A1ECE84C3
330
0
100
AcDbSymbolTable
 70
     1
  0
DIMSTYLE
105
3EF0D9A1ECE84DD
330
3EF0D9A1ECE84C3
100
AcDbSymbolTableRecord
100
AcDbDimStyleTableRecord
  2
STANDARD
 70
     0
  3

  4

  5

  6

  7

 40
1.0
 41
0.125
 42
0.125
 43
0.375
 44
0.125
 45
0.0
 46
0.0
 47
0.0
 48
0.0
140
0.125
141
-0.125
142
0.0
143
25.4
144
1.0
145
0.0
146
1.0
147
0.09
 71
     0
 72
     0
 73
     1
 74
     1
 75
     0
 76
     0
 77
     0
 78
     4
170
     0
171
     2
172
     0
173
     0
174
     1
175
     0
176
     0
177
     0
178
     0
270
     2
271
     3
272
     3
273
     2
274
     2
340
3EF0D9A1ECE84E5
275
     0
280
     0
281
     0
282
     0
283
     1
284
     4
285
     0
286
     0
287
     3
288
     0
  0
ENDTAB
  0
TABLE
  2
BLOCK_RECORD
  5
3EF0D9A1ECE84BA
330
0
100
AcDbSymbolTable
 70
     0
  0
BLOCK_RECORD
  5
3EF0D9A1ECE84D1
102
{ACAD_XDICTIONARY
360
3EF0D9A1ECE8518
102
}
330
3EF0D9A1ECE84BA
100
AcDbSymbolTableRecord
100
AcDbBlockTableRecord
  2
*MODEL_SPACE
  0
BLOCK_RECORD
  5
3EF0D9A1ECE84CE
102
{ACAD_XDICTIONARY
360
3EF0D9A1ECE8516
102
}
330
3EF0D9A1ECE84BA
100
AcDbSymbolTableRecord
100
AcDbBlockTableRecord
  2
*PAPER_SPACE
  0
ENDTAB
  0
ENDSEC
  0
SECTION
  2
BLOCKS
  0
BLOCK
  5
3EF0D9A1ECE84DB
330
3EF0D9A1ECE84D1
100
AcDbEntity
  8
0
100
AcDbBlockBegin
  2
*MODEL_SPACE
 70
     0
 10
0.0
 20
0.0
 30
0.0
  3
*MODEL_SPACE
  1

  0
ENDBLK
  5
3EF0D9A1ECE84DC
330
3EF0D9A1ECE84D1
100
AcDbEntity
  8
0
100
AcDbBlockEnd
  0
BLOCK
  5
3EF0D9A1ECE84D9
330
3EF0D9A1ECE84CE
100
AcDbEntity
 67
     1
  8
0
100
AcDbBlockBegin
  2
*PAPER_SPACE
 70
     0
 10
0.0
 20
0.0
 30
0.0
  3
*PAPER_SPACE
  1

  0
ENDBLK
  5
3EF0D9A1ECE84DA
330
3EF0D9A1ECE84CE
100
AcDbEntity
 67
     1
  8
0
100
AcDbBlockEnd
  0
ENDSEC
  0
SECTION
  2
ENTITIES
  0
LWPOLYLINE
  5
3EF0D9A1ECE6EB7
330
3EF0D9A1ECE84D1
100
AcDbEntity
  8
0
100
AcDbPolyline
 90
       16
 70
     1
 43
0.0
 10
2.409392629960402
 20
1.744782608695651
 42
-0.0278260884964358
 10
2.409392629960427
 20
2.463532568920437
 42
-1.000001272807722
 10
2.471892629960402
 20
2.463532568920437
 10
2.471892629960402
 20
2.244782608695653
 10
3.253392629960402
 20
2.244782608695653
 42
-0.4142135623730951
 10
3.284392629960402
 20
2.213782608695654
 10
3.284392629960402
 20
2.119782608695653
 10
3.159392629960402
 20
2.119782608695653
 10
3.221892629960402
 20
2.182282608695653
 10
2.856892629960402
 20
2.182282608695653
 10
2.846892629960402
 20
2.192282608695653
 10
2.836892629960402
 20
2.182282608695653
 10
2.471892629960402
 20
2.182282608695653
 10
2.534392629960402
 20
2.119782608695653
 10
2.471892629960402
 20
2.119782608695653
 10
2.471892629960402
 20
1.744782608695653
  0
TEXT
  5
3EF0D9A1ECE837C
330
3EF0D9A1ECE84D1
100
AcDbEntity
  8
TEXT
100
AcDbText
 10
2.090940249008021
 20
1.473532608695653
 30
0.0
 40
0.125
  1
PART #110127
  7
ITALICC
 72
     1
 11
2.846892629960402
 21
1.473532608695653
 31
0.0
100
AcDbText
  0
TEXT
  5
3EF0D9A1ECE837D
330
3EF0D9A1ECE84D1
100
AcDbEntity
  8
TEXT
100
AcDbText
 10
3.260197788210723
 20
1.026609966023278
 30
0.0
 40
0.0522247191011236
  1
Phone  1-800-328-2495
 41
1.272321428571429
 72
     5
 11
4.589130372480386
 21
1.026609966023278
 31
0.0
100
AcDbText
  0
TEXT
  5
3EF0D9A1ECE837E
330
3EF0D9A1ECE84D1
100
AcDbEntity
  8
TEXT
100
AcDbText
 10
3.260197788210723
 20
1.306385246922154
 30
0.0
 40
0.0522247191011236
  1
Stylmark  Incorporated
 41
1.221428571428573
 72
     5
 11
4.589130372480386
 21
1.306385246922154
 31
0.0
100
AcDbText
  0
TEXT
  5
3EF0D9A1ECE837F
330
3EF0D9A1ECE84D1
100
AcDbEntity
  8
TEXT
100
AcDbText
 10
3.260197788210723
 20
1.213126819955862
 30
0.0
 40
0.0522247191011236
  1
6536 Main St. N.E. * P.O. Box 32008
 41
0.8388932496075366
 72
     5
 11
4.589130372480386
 21
1.213126819955862
 31
0.0
100
AcDbText
  0
TEXT
  5
3EF0D9A1ECE8380
330
3EF0D9A1ECE84D1
100
AcDbEntity
  8
TEXT
100
AcDbText
 10
3.260197788210723
 20
1.11986839298957
 30
0.0
 40
0.0522247191011236
  1
Minneapolis, MN 55432-0008
 41
1.11444212721585
 72
     5
 11
4.589130372480386
 21
1.11986839298957
 31
0.0
100
AcDbText
  0
LWPOLYLINE
  5
3EF0D9A1ECE8381
330
3EF0D9A1ECE84D1
100
AcDbEntity
  8
TEXT
100
AcDbPolyline
 90
        3
 70
     0
 43
0.0006660908203125
 10
1.104244096143415
 20
1.140254728660713
 10
1.104244096143415
 20
1.027019289207585
 10
1.217479535596537
 20
1.027019289207585
  0
LWPOLYLINE
  5
3EF0D9A1ECE8386
330
3EF0D9A1ECE84D1
100
AcDbEntity
  8
TEXT
100
AcDbPolyline
 90
        3
 70
     0
 43
0.0006660908203125
 10
1.130887728955912
 20
1.140254728660713
 10
1.130887728955912
 20
1.053662922020086
 10
1.217479535596537
 20
1.053662922020086
  0
LWPOLYLINE
  5
3EF0D9A1ECE838B
330
3EF0D9A1ECE84D1
100
AcDbEntity
  8
TEXT
100
AcDbPolyline
 90
        2
 70
     0
 43
0.0001332181640625
 10
1.177514086377789
 20
1.150246090965398
 10
1.104244096143415
 20
1.140254728660713
  0
LWPOLYLINE
  5
3EF0D9A1ECE838F
330
3EF0D9A1ECE84D1
100
AcDbEntity
  8
TEXT
100
AcDbPolyline
 90
        2
 70
     0
 43
0.0001332181640625
 10
1.130887728955912
 20
1.140254728660713
 10
1.19083590278404
 20
1.150246090965398
  0
LWPOLYLINE
  5
3EF0D9A1ECE8393
330
3EF0D9A1ECE84D1
100
AcDbEntity
  8
TEXT
100
AcDbPolyline
 90
        2
 70
     0
 43
0.0001332181640625
 10
1.130887728955912
 20
1.053662922020086
 10
1.19083590278404
 20
1.113611095848212
  0
LWPOLYLINE
  5
3EF0D9A1ECE8397
330
3EF0D9A1ECE84D1
100
AcDbEntity
  8
TEXT
100
AcDbPolyline
 90
        3
 70
     0
 43
0.0006660908203125
 10
1.217479535596537
 20
1.293455617332588
 10
1.104244096143415
 20
1.293455617332588
 10
1.104244096143415
 20
1.180220177879461
  0
LWPOLYLINE
  5
3EF0D9A1ECE839C
330
3EF0D9A1ECE84D1
100
AcDbEntity
  8
TEXT
100
AcDbPolyline
 90
        3
 70
     0
 43
0.0006660908203125
 10
1.217479535596537
 20
1.266811984520087
 10
1.130887728955912
 20
1.266811984520087
 10
1.130887728955912
 20
1.180220177879461
  0
LWPOLYLINE
  5
3EF0D9A1ECE83A1
330
3EF0D9A1ECE84D1
100
AcDbEntity
  8
TEXT
100
AcDbPolyline
 90
        2
 70
     0
 43
0.0001332181640625
 10
1.130887728955912
 20
1.266811984520087
 10
1.190835902784038
 20
1.206863810691962
  0
LWPOLYLINE
  5
3EF0D9A1ECE83A5
330
3EF0D9A1ECE84D1
100
AcDbEntity
  8
TEXT
100
AcDbPolyline
 90
        2
 70
     0
 43
0.0001332181640625
 10
1.130887728955912
 20
1.180220177879461
 10
1.190835902784038
 20
1.170228815574772
  0
LWPOLYLINE
  5
3EF0D9A1ECE83A9
330
3EF0D9A1ECE84D1
100
AcDbEntity
  8
TEXT
100
AcDbPolyline
 90
        2
 70
     0
 43
0.0001332181640625
 10
1.104244096143415
 20
1.180220177879461
 10
1.177514086377789
 20
1.170228815574772
  0
LWPOLYLINE
  5
3EF0D9A1ECE83AD
330
3EF0D9A1ECE84D1
100
AcDbEntity
  8
TEXT
100
AcDbPolyline
 90
        2
 70
     0
 43
0.0006660908203125
 10
1.130887728955912
 20
1.140254728660713
 10
1.104244096143415
 20
1.140254728660713
  0
LWPOLYLINE
  5
3EF0D9A1ECE83B1
330
3EF0D9A1ECE84D1
100
AcDbEntity
  8
TEXT
100
AcDbPolyline
 90
        2
 70
     0
 43
0.0006660908203125
 10
1.130887728955912
 20
1.180220177879461
 10
1.104244096143415
 20
1.180220177879461
  0
LINE
  5
3EF0D9A1ECE83B5
330
3EF0D9A1ECE84D1
100
AcDbEntity
  8
TEXT
100
AcDbLine
 10
2.619434525269912
 20
1.229178922675819
 30
0.0
 11
2.512228251882623
 21
1.229178922675819
 31
0.0
  0
LINE
  5
3EF0D9A1ECE83B6
330
3EF0D9A1ECE84D1
100
AcDbEntity
  8
TEXT
100
AcDbLine
 10
2.648465423614391
 20
1.293455617332585
 30
0.0
 11
2.513633514397332
 21
1.293455617332585
 31
0.0
  0
ARC
  5
3EF0D9A1ECE83B7
330
3EF0D9A1ECE84D1
100
AcDbEntity
  8
TEXT
100
AcDbCircle
 10
2.572947610790649
 20
1.124218368069568
 30
0.0
 40
0.0676855811441166
100
AcDbArc
 50
90.0
 51
153.7768192527749
  0
LWPOLYLINE
  5
3EF0D9A1ECE83B8
330
3EF0D9A1ECE84D1
100
AcDbEntity
  8
TEXT
100
AcDbPolyline
 90
        2
 70
     0
 43
0.0
 10
2.511195756427813
 20
1.070473529294512
 42
0.2901071551932823
 10
2.554271689295449
 20
1.026982584344074
 42
5.328517124445801
  0
ARC
  5
3EF0D9A1ECE83BC
330
3EF0D9A1ECE84D1
100
AcDbEntity
  8
TEXT
100
AcDbCircle
 10
1.867816233119163
 20
1.086774975682124
 30
0.0
 40
0.0601160179737537
100
AcDbArc
 50
180.0000000000003
 51
264.0521544866073
  0
LINE
  5
3EF0D9A1ECE83BD
330
3EF0D9A1ECE84D1
100
AcDbEntity
  8
TEXT
100
AcDbLine
 10
1.871331588744711
 20
1.327843534926723
 30
0.0
 11
1.811288983900704
 21
1.327843534926723
 31
0.0
  0
ARC
  5
3EF0D9A1ECE83BE
330
3EF0D9A1ECE84D1
100
AcDbEntity
  8
TEXT
100
AcDbCircle
 10
1.635557231002192
 20
1.211368157886083
 30
0.0
 40
0.0820874594465043
100
AcDbArc
 50
90.0
 51
270.0
  0
LWPOLYLINE
  5
3EF0D9A1ECE83BF
330
3EF0D9A1ECE84D1
100
AcDbEntity
  8
TEXT
100
AcDbPolyline
 90
        2
 70
     0
 43
0.0001332181640625
 10
1.227470897901228
 20
1.220185627098209
 10
1.217479535596537
 20
1.293455617332588
  0
LWPOLYLINE
  5
3EF0D9A1ECE83C3
330
3EF0D9A1ECE84D1
100
AcDbEntity
  8
TEXT
100
AcDbPolyline
 90
        2
 70
     0
 43
0.0001332181640625
 10
1.217479535596537
 20
1.266811984520087
 10
1.227470897901228
 20
1.206863810691962
  0
LWPOLYLINE
  5
3EF0D9A1ECE83C7
330
3EF0D9A1ECE84D1
100
AcDbEntity
  8
TEXT
100
AcDbPolyline
 90
        3
 70
     0
 43
0.0006660908203125
 10
1.370680424268415
 20
1.180220177879461
 10
1.370680424268415
 20
1.293455617332588
 10
1.257444984815289
 20
1.293455617332588
  0
LWPOLYLINE
  5
3EF0D9A1ECE83CC
330
3EF0D9A1ECE84D1
100
AcDbEntity
  8
TEXT
100
AcDbPolyline
 90
        3
 70
     0
 43
0.0006660908203125
 10
1.344036791455914
 20
1.180220177879461
 10
1.344036791455914
 20
1.266811984520087
 10
1.257444984815289
 20
1.266811984520087
  0
LWPOLYLINE
  5
3EF0D9A1ECE83D1
330
3EF0D9A1ECE84D1
100
AcDbEntity
  8
TEXT
100
AcDbPolyline
 90
        2
 70
     0
 43
0.0001332181640625
 10
1.344036791455914
 20
1.266811984520087
 10
1.28408861762779
 20
1.206863810691962
  0
LWPOLYLINE
  5
3EF0D9A1ECE83D5
330
3EF0D9A1ECE84D1
100
AcDbEntity
  8
TEXT
100
AcDbPolyline
 90
        2
 70
     0
 43
0.0001332181640625
 10
1.257444984815289
 20
1.266811984520087
 10
1.2474536225106
 20
1.206863810691962
  0
LWPOLYLINE
  5
3EF0D9A1ECE83D9
330
3EF0D9A1ECE84D1
100
AcDbEntity
  8
TEXT
100
AcDbPolyline
 90
        2
 70
     0
 43
0.0001332181640625
 10
1.257444984815289
 20
1.293455617332588
 10
1.2474536225106
 20
1.220185627098209
  0
LWPOLYLINE
  5
3EF0D9A1ECE83DD
330
3EF0D9A1ECE84D1
100
AcDbEntity
  8
TEXT
100
AcDbPolyline
 90
        2
 70
     0
 43
0.0001332181640625
 10
1.297410434034039
 20
1.170228815574772
 10
1.370680424268415
 20
1.180220177879461
  0
LWPOLYLINE
  5
3EF0D9A1ECE83E1
330
3EF0D9A1ECE84D1
100
AcDbEntity
  8
TEXT
100
AcDbPolyline
 90
        2
 70
     0
 43
0.0001332181640625
 10
1.344036791455914
 20
1.180220177879461
 10
1.28408861762779
 20
1.170228815574772
  0
LWPOLYLINE
  5
3EF0D9A1ECE83E5
330
3EF0D9A1ECE84D1
100
AcDbEntity
  8
TEXT
100
AcDbPolyline
 90
        2
 70
     0
 43
0.0001332181640625
 10
1.370680424268415
 20
1.140254728660713
 10
1.297410434034039
 20
1.150246090965398
  0
LWPOLYLINE
  5
3EF0D9A1ECE83E9
330
3EF0D9A1ECE84D1
100
AcDbEntity
  8
TEXT
100
AcDbPolyline
 90
        2
 70
     0
 43
0.0001332181640625
 10
1.344036791455914
 20
1.140254728660713
 10
1.28408861762779
 20
1.150246090965398
  0
LWPOLYLINE
  5
3EF0D9A1ECE83ED
330
3EF0D9A1ECE84D1
100
AcDbEntity
  8
TEXT
100
AcDbPolyline
 90
        2
 70
     0
 43
0.0001332181640625
 10
1.344036791455914
 20
1.053662922020086
 10
1.28408861762779
 20
1.113611095848212
  0
LWPOLYLINE
  5
3EF0D9A1ECE83F1
330
3EF0D9A1ECE84D1
100
AcDbEntity
  8
TEXT
100
AcDbPolyline
 90
        3
 70
     0
 43
0.0006660908203125
 10
1.257444984815289
 20
1.053662922020086
 10
1.344036791455914
 20
1.053662922020086
 10
1.344036791455914
 20
1.140254728660713
  0
LWPOLYLINE
  5
3EF0D9A1ECE83F6
330
3EF0D9A1ECE84D1
100
AcDbEntity
  8
TEXT
100
AcDbPolyline
 90
        3
 70
     0
 43
0.0006660908203125
 10
1.257444984815289
 20
1.027019289207585
 10
1.370680424268415
 20
1.027019289207585
 10
1.370680424268415
 20
1.140254728660713
  0
LWPOLYLINE
  5
3EF0D9A1ECE83FB
330
3EF0D9A1ECE84D1
100
AcDbEntity
  8
TEXT
100
AcDbPolyline
 90
        5
 70
     0
 43
0.0001332181640625
 10
1.227470897901228
 20
1.100289279441961
 10
1.227470897901228
 20
1.113611095848212
 10
1.19083590278404
 20
1.113611095848212
 10
1.19083590278404
 20
1.150246090965398
 10
1.177514086377789
 20
1.150246090965398
  0
LWPOLYLINE
  5
3EF0D9A1ECE8402
330
3EF0D9A1ECE84D1
100
AcDbEntity
  8
TEXT
100
AcDbPolyline
 90
        2
 70
     0
 43
0.0006660908203125
 10
1.217479535596537
 20
1.053662922020086
 10
1.217479535596537
 20
1.027019289207585
  0
LWPOLYLINE
  5
3EF0D9A1ECE8406
330
3EF0D9A1ECE84D1
100
AcDbEntity
  8
TEXT
100
AcDbPolyline
 90
        2
 70
     0
 43
0.0001332181640625
 10
1.217479535596537
 20
1.053662922020086
 10
1.227470897901228
 20
1.113611095848212
  0
LWPOLYLINE
  5
3EF0D9A1ECE840A
330
3EF0D9A1ECE84D1
100
AcDbEntity
  8
TEXT
100
AcDbPolyline
 90
        2
 70
     0
 43
0.0001332181640625
 10
1.217479535596537
 20
1.027019289207585
 10
1.227470897901228
 20
1.100289279441961
  0
LWPOLYLINE
  5
3EF0D9A1ECE840E
330
3EF0D9A1ECE84D1
100
AcDbEntity
  8
TEXT
100
AcDbPolyline
 90
        5
 70
     0
 43
0.0001332181640625
 10
1.177514086377789
 20
1.170228815574772
 10
1.190835902784038
 20
1.170228815574772
 10
1.190835902784038
 20
1.206863810691962
 10
1.227470897901228
 20
1.206863810691962
 10
1.227470897901228
 20
1.220185627098209
  0
LWPOLYLINE
  5
3EF0D9A1ECE8415
330
3EF0D9A1ECE84D1
100
AcDbEntity
  8
TEXT
100
AcDbPolyline
 90
        5
 70
     0
 43
0.0001332181640625
 10
1.2474536225106
 20
1.220185627098209
 10
1.2474536225106
 20
1.206863810691962
 10
1.28408861762779
 20
1.206863810691962
 10
1.28408861762779
 20
1.170228815574772
 10
1.297410434034039
 20
1.170228815574772
  0
LWPOLYLINE
  5
3EF0D9A1ECE841C
330
3EF0D9A1ECE84D1
100
AcDbEntity
  8
TEXT
100
AcDbPolyline
 90
        2
 70
     0
 43
0.0001332181640625
 10
1.257444984815289
 20
1.053662922020086
 10
1.2474536225106
 20
1.113611095848212
  0
LWPOLYLINE
  5
3EF0D9A1ECE8420
330
3EF0D9A1ECE84D1
100
AcDbEntity
  8
TEXT
100
AcDbPolyline
 90
        2
 70
     0
 43
0.0001332181640625
 10
1.2474536225106
 20
1.100289279441961
 10
1.257444984815289
 20
1.027019289207585
  0
LWPOLYLINE
  5
3EF0D9A1ECE8424
330
3EF0D9A1ECE84D1
100
AcDbEntity
  8
TEXT
100
AcDbPolyline
 90
        2
 70
     0
 43
0.0006660908203125
 10
1.257444984815289
 20
1.053662922020086
 10
1.257444984815289
 20
1.027019289207585
  0
LWPOLYLINE
  5
3EF0D9A1ECE8428
330
3EF0D9A1ECE84D1
100
AcDbEntity
  8
TEXT
100
AcDbPolyline
 90
        5
 70
     0
 43
0.0001332181640625
 10
1.297410434034039
 20
1.150246090965398
 10
1.28408861762779
 20
1.150246090965398
 10
1.28408861762779
 20
1.113611095848212
 10
1.2474536225106
 20
1.113611095848212
 10
1.2474536225106
 20
1.100289279441961
  0
LWPOLYLINE
  5
3EF0D9A1ECE842F
330
3EF0D9A1ECE84D1
100
AcDbEntity
  8
TEXT
100
AcDbPolyline
 90
        2
 70
     0
 43
0.0006660908203125
 10
1.344036791455914
 20
1.180220177879461
 10
1.370680424268415
 20
1.180220177879461
  0
LWPOLYLINE
  5
3EF0D9A1ECE8433
330
3EF0D9A1ECE84D1
100
AcDbEntity
  8
TEXT
100
AcDbPolyline
 90
        2
 70
     0
 43
0.0006660908203125
 10
1.344036791455914
 20
1.140254728660713
 10
1.370680424268415
 20
1.140254728660713
  0
LINE
  5
3EF0D9A1ECE8437
330
3EF0D9A1ECE84D1
100
AcDbEntity
  8
TEXT
100
AcDbLine
 10
1.64079456111644
 20
1.229178922675819
 30
0.0
 11
1.807700215145411
 21
1.229178922675819
 31
0.0
  0
LINE
  5
3EF0D9A1ECE8438
330
3EF0D9A1ECE84D1
100
AcDbEntity
  8
TEXT
100
AcDbLine
 10
1.706394697360741
 20
1.193374201065191
 30
0.0
 11
1.64079456111644
 21
1.193374201065191
 31
0.0
  0
LINE
  5
3EF0D9A1ECE8439
330
3EF0D9A1ECE84D1
100
AcDbEntity
  8
TEXT
100
AcDbLine
 10
1.553469771555688
 20
1.026982584344074
 30
0.0
 11
1.706394697360741
 21
1.026982584344074
 31
0.0
  0
LINE
  5
3EF0D9A1ECE843A
330
3EF0D9A1ECE84D1
100
AcDbEntity
  8
TEXT
100
AcDbLine
 10
1.71133507126702
 20
1.095339590677513
 30
0.0
 11
1.553469771555686
 21
1.095339590677513
 31
0.0
  0
LINE
  5
3EF0D9A1ECE843B
330
3EF0D9A1ECE84D1
100
AcDbEntity
  8
TEXT
100
AcDbLine
 10
1.635557231002191
 20
1.129280698439578
 30
0.0
 11
1.71133507126702
 21
1.129280698439578
 31
0.0
  0
ARC
  5
3EF0D9A1ECE843C
330
3EF0D9A1ECE84D1
100
AcDbEntity
  8
TEXT
100
AcDbCircle
 10
1.64079456111644
 20
1.211276561870507
 30
0.0
 40
0.017902360805315
100
AcDbArc
 50
90.0
 51
270.0
  0
LINE
  5
3EF0D9A1ECE843D
330
3EF0D9A1ECE84D1
100
AcDbEntity
  8
TEXT
100
AcDbLine
 10
1.553469771555686
 20
1.095339590677513
 30
0.0
 11
1.553469771555688
 21
1.026982584344074
 31
0.0
  0
LINE
  5
3EF0D9A1ECE843E
330
3EF0D9A1ECE84D1
100
AcDbEntity
  8
TEXT
100
AcDbLine
 10
1.807700215145411
 20
1.229178922675819
 30
0.0
 11
1.807700215145411
 21
1.086774975682124
 31
0.0
  0
ARC
  5
3EF0D9A1ECE843F
330
3EF0D9A1ECE84D1
100
AcDbEntity
  8
TEXT
100
AcDbCircle
 10
1.706394697360742
 20
1.110178392704631
 30
0.0
 40
0.0831958083605586
100
AcDbArc
 50
270.0
 51
90.0
  0
ARC
  5
3EF0D9A1ECE8440
330
3EF0D9A1ECE84D1
100
AcDbEntity
  8
TEXT
100
AcDbCircle
 10
1.711335071267021
 20
1.112310144558547
 30
0.0
 40
0.0169705538810321
100
AcDbArc
 50
270.0
 51
90.0
  0
LWPOLYLINE
  5
3EF0D9A1ECE8441
330
3EF0D9A1ECE84D1
100
AcDbEntity
  8
TEXT
100
AcDbPolyline
 90
        2
 70
     0
 43
0.0006660908203125
 10
1.217479535596537
 20
1.266811984520087
 10
1.217479535596537
 20
1.293455617332588
  0
LWPOLYLINE
  5
3EF0D9A1ECE8445
330
3EF0D9A1ECE84D1
100
AcDbEntity
  8
TEXT
100
AcDbPolyline
 90
        2
 70
     0
 43
0.0006660908203125
 10
1.257444984815289
 20
1.266811984520087
 10
1.257444984815289
 20
1.293455617332588
  0
LINE
  5
3EF0D9A1ECE8449
330
3EF0D9A1ECE84D1
100
AcDbEntity
  8
TEXT
100
AcDbLine
 10
1.811288983900704
 20
1.293455617332585
 30
0.0
 11
1.635557231002191
 21
1.293455617332585
 31
0.0
  0
LINE
  5
3EF0D9A1ECE844A
330
3EF0D9A1ECE84D1
100
AcDbEntity
  8
TEXT
100
AcDbLine
 10
1.811288983900704
 20
1.327843534926723
 30
0.0
 11
1.811288983900704
 21
1.293455617332585
 31
0.0
  0
LINE
  5
3EF0D9A1ECE844B
330
3EF0D9A1ECE84D1
100
AcDbEntity
  8
TEXT
100
AcDbLine
 10
2.001760875920556
 20
1.192583621219464
 30
0.0
 11
1.943130554888618
 21
1.293455617332585
 31
0.0
  0
LINE
  5
3EF0D9A1ECE844C
330
3EF0D9A1ECE84D1
100
AcDbEntity
  8
TEXT
100
AcDbLine
 10
2.060509438726422
 20
1.293455617332585
 30
0.0
 11
2.001760875920556
 21
1.192583621219464
 31
0.0
  0
LINE
  5
3EF0D9A1ECE844D
330
3EF0D9A1ECE84D1
100
AcDbEntity
  8
TEXT
100
AcDbLine
 10
2.157440064086163
 20
1.109370422447073
 30
0.0
 11
2.157440064086163
 21
1.361467095071395
 31
0.0
  0
LINE
  5
3EF0D9A1ECE844E
330
3EF0D9A1ECE84D1
100
AcDbEntity
  8
TEXT
100
AcDbLine
 10
2.189751918223823
 20
1.293455617332585
 30
0.0
 11
2.189751918223823
 21
1.092591410600177
 31
0.0
  0
LINE
  5
3EF0D9A1ECE844F
330
3EF0D9A1ECE84D1
100
AcDbEntity
  8
TEXT
100
AcDbLine
 10
2.189751918223823
 20
1.092591410600177
 30
0.0
 11
2.172758281339222
 21
1.092591410600177
 31
0.0
  0
LINE
  5
3EF0D9A1ECE8450
330
3EF0D9A1ECE84D1
100
AcDbEntity
  8
TEXT
100
AcDbLine
 10
2.158579637582358
 20
1.026982584344074
 30
0.0
 11
2.256582971281792
 21
1.026982584344074
 31
0.0
  0
LINE
  5
3EF0D9A1ECE8451
330
3EF0D9A1ECE84D1
100
AcDbEntity
  8
TEXT
100
AcDbLine
 10
1.992160638923602
 20
1.046941090449087
 30
0.0
 11
2.089460345017046
 21
1.211291301384355
 31
0.0
  0
ARC
  5
3EF0D9A1ECE8452
330
3EF0D9A1ECE84D1
100
AcDbEntity
  8
TEXT
100
AcDbCircle
 10
1.958117079011388
 20
1.06653030661777
 30
0.0
 40
0.0392772371940762
100
AcDbArc
 50
270.1604552698595
 51
330.0831797321295
  0
LINE
  5
3EF0D9A1ECE8453
330
3EF0D9A1ECE84D1
100
AcDbEntity
  8
TEXT
100
AcDbLine
 10
1.861586822625517
 20
1.026982584344074
 30
0.0
 11
1.958227073700511
 21
1.027253223442356
 31
0.0
  0
LWPOLYLINE
  5
3EF0D9A1ECE8454
330
3EF0D9A1ECE84D1
100
AcDbEntity
  8
TEXT
100
AcDbPolyline
 90
        6
 70
     1
 43
0.0
 10
1.904110626200666
 20
1.229178922675819
 10
1.873794031980458
 20
1.229178922675819
 10
1.873794031980458
 20
1.106067924620925
 42
0.407328721240804
 10
1.885337683141934
 20
1.094249009944539
 10
1.945959382186665
 20
1.094249009944539
 10
1.963424722593983
 20
1.127061238988018
  0
LINE
  5
3EF0D9A1ECE845C
330
3EF0D9A1ECE84D1
100
AcDbEntity
  8
TEXT
100
AcDbLine
 10
2.089460345017046
 20
1.211291301384355
 30
0.0
 11
2.089460345017046
 21
1.078533926558999
 31
0.0
  0
ARC
  5
3EF0D9A1ECE845D
330
3EF0D9A1ECE84D1
100
AcDbEntity
  8
TEXT
100
AcDbCircle
 10
2.17275828133922
 20
1.107973216843602
 30
0.0
 40
0.0153818062434269
100
AcDbArc
 50
174.7883570302258
 51
270.0
  0
LWPOLYLINE
  5
3EF0D9A1ECE845E
330
3EF0D9A1ECE84D1
100
AcDbEntity
  8
TEXT
100
AcDbPolyline
 90
        2
 70
     0
 43
0.0
 10
2.089460345017045
 20
1.078533926559002
 42
0.3318488747599744
 10
2.158579637582358
 20
1.026982584344074
 42
-6.868794160588311
  0
LINE
  5
3EF0D9A1ECE8462
330
3EF0D9A1ECE84D1
100
AcDbEntity
  8
TEXT
100
AcDbLine
 10
2.313972040271053
 20
1.026982584344074
 30
0.0
 11
2.381030087052893
 21
1.026982584344074
 31
0.0
  0
LINE
  5
3EF0D9A1ECE8463
330
3EF0D9A1ECE84D1
100
AcDbEntity
  8
TEXT
100
AcDbLine
 10
2.313972040271053
 20
1.221625133509709
 30
0.0
 11
2.313972040271053
 21
1.026982584344074
 31
0.0
  0
LINE
  5
3EF0D9A1ECE8464
330
3EF0D9A1ECE84D1
100
AcDbEntity
  8
TEXT
100
AcDbLine
 10
2.256582971281792
 20
1.229178922675819
 30
0.0
 11
2.30641825110494
 21
1.229178922675819
 31
0.0
  0
LINE
  5
3EF0D9A1ECE8465
330
3EF0D9A1ECE84D1
100
AcDbEntity
  8
TEXT
100
AcDbLine
 10
2.256582971281792
 20
1.026982584344074
 30
0.0
 11
2.256582971281792
 21
1.229178922675819
 31
0.0
  0
LWPOLYLINE
  5
3EF0D9A1ECE8466
330
3EF0D9A1ECE84D1
100
AcDbEntity
  8
TEXT
100
AcDbPolyline
 90
        2
 70
     0
 43
0.0
 10
2.306418251104938
 20
1.229178922675819
 42
-0.4142135623731017
 10
2.313972040271051
 20
1.221625133509709
 42
-0.9999999999999998
  0
LINE
  5
3EF0D9A1ECE846A
330
3EF0D9A1ECE84D1
100
AcDbEntity
  8
TEXT
100
AcDbLine
 10
2.512228251882623
 20
1.229178922675819
 30
0.0
 11
2.512228251882623
 21
1.154126516601613
 31
0.0
  0
LINE
  5
3EF0D9A1ECE846B
330
3EF0D9A1ECE84D1
100
AcDbEntity
  8
TEXT
100
AcDbLine
 10
2.381030087052893
 20
1.229178922675819
 30
0.0
 11
2.435163683973843
 21
1.229178922675819
 31
0.0
  0
LINE
  5
3EF0D9A1ECE846C
330
3EF0D9A1ECE84D1
100
AcDbEntity
  8
TEXT
100
AcDbLine
 10
2.381030087052893
 20
1.026982584344074
 30
0.0
 11
2.381030087052893
 21
1.229178922675819
 31
0.0
  0
LWPOLYLINE
  5
3EF0D9A1ECE846D
330
3EF0D9A1ECE84D1
100
AcDbEntity
  8
TEXT
100
AcDbPolyline
 90
        2
 70
     0
 43
0.0
 10
2.435163683973842
 20
1.229178922675819
 42
-0.4142135623731017
 10
2.442717473139955
 20
1.221625133509709
 42
-0.9999999999999998
  0
LWPOLYLINE
  5
3EF0D9A1ECE8471
330
3EF0D9A1ECE84D1
100
AcDbEntity
  8
TEXT
100
AcDbPolyline
 90
        4
 70
     0
 43
0.0
 10
2.442717473139955
 20
1.221625133509709
 10
2.442717473139955
 20
1.026982584344074
 10
2.511195756427813
 20
1.026982584344074
 10
2.511195756427813
 20
1.070473529294512
 42
-1.714843617202739
  0
LINE
  5
3EF0D9A1ECE8477
330
3EF0D9A1ECE84D1
100
AcDbEntity
  8
TEXT
100
AcDbLine
 10
1.871331588744711
 20
1.293455617332585
 30
0.0
 11
1.871331588744711
 21
1.327843534926723
 31
0.0
  0
LINE
  5
3EF0D9A1ECE8478
330
3EF0D9A1ECE84D1
100
AcDbEntity
  8
TEXT
100
AcDbLine
 10
1.943130554888618
 20
1.293455617332585
 30
0.0
 11
1.871331588744711
 21
1.293455617332585
 31
0.0
  0
LINE
  5
3EF0D9A1ECE8479
330
3EF0D9A1ECE84D1
100
AcDbEntity
  8
TEXT
100
AcDbLine
 10
2.090631351519798
 20
1.293455617332585
 30
0.0
 11
2.060509438726422
 21
1.293455617332585
 31
0.0
  0
LINE
  5
3EF0D9A1ECE847A
330
3EF0D9A1ECE84D1
100
AcDbEntity
  8
TEXT
100
AcDbLine
 10
2.090631351519798
 20
1.361467095071395
 30
0.0
 11
2.090631351519798
 21
1.293455617332585
 31
0.0
  0
LINE
  5
3EF0D9A1ECE847B
330
3EF0D9A1ECE84D1
100
AcDbEntity
  8
TEXT
100
AcDbLine
 10
2.157440064086163
 20
1.361467095071395
 30
0.0
 11
2.090631351519798
 21
1.361467095071395
 31
0.0
  0
LWPOLYLINE
  5
3EF0D9A1ECE847C
330
3EF0D9A1ECE84D1
100
AcDbEntity
  8
TEXT
100
AcDbPolyline
 90
        3
 70
     0
 43
0.0
 10
2.477851823684165
 20
1.293455617332588
 10
2.359551664868121
 20
1.293455617332588
 10
2.359551664868121
 20
1.266288120571692
 42
-1.960274751411753
  0
LINE
  5
3EF0D9A1ECE8481
330
3EF0D9A1ECE84D1
100
AcDbEntity
  8
TEXT
100
AcDbLine
 10
2.323769974154959
 20
1.293455617332585
 30
0.0
 11
2.189751918223823
 21
1.293455617332585
 31
0.0
  0
LWPOLYLINE
  5
3EF0D9A1ECE8482
330
3EF0D9A1ECE84D1
100
AcDbEntity
  8
TEXT
100
AcDbPolyline
 90
        2
 70
     0
 43
0.0
 10
2.323769974154959
 20
1.293455617332588
 42
-0.3328679258950098
 10
2.359551664868121
 20
1.266288120571692
 42
6.772930709997214
  0
LINE
  5
3EF0D9A1ECE8486
330
3EF0D9A1ECE84D1
100
AcDbEntity
  8
TEXT
100
AcDbLine
 10
2.513633514397332
 20
1.293455617332585
 30
0.0
 11
2.513633514397332
 21
1.265133071562941
 31
0.0
  0
LWPOLYLINE
  5
3EF0D9A1ECE8487
330
3EF0D9A1ECE84D1
100
AcDbEntity
  8
TEXT
100
AcDbPolyline
 90
        2
 70
     0
 43
0.0
 10
2.477851823684165
 20
1.293455617332588
 42
-0.3277054968067132
 10
2.51363351439733
 20
1.265133071562944
 42
6.667889725900311
  0
LINE
  5
3EF0D9A1ECE848B
330
3EF0D9A1ECE84D1
100
AcDbEntity
  8
TEXT
100
AcDbLine
 10
2.727425362489432
 20
1.188243638779157
 30
0.0
 11
2.68367459130753
 21
1.270493914775303
 31
0.0
  0
LINE
  5
3EF0D9A1ECE848C
330
3EF0D9A1ECE84D1
100
AcDbEntity
  8
TEXT
100
AcDbLine
 10
2.727425362489432
 20
1.293455617332585
 30
0.0
 11
2.727425362489432
 21
1.188243638779157
 31
0.0
  0
LINE
  5
3EF0D9A1ECE848D
330
3EF0D9A1ECE84D1
100
AcDbEntity
  8
TEXT
100
AcDbLine
 10
2.955109101427801
 20
1.217590290921047
 30
0.0
 11
2.955109101427801
 21
1.358919823100185
 31
0.0
  0
LINE
  5
3EF0D9A1ECE848E
330
3EF0D9A1ECE84D1
100
AcDbEntity
  8
TEXT
100
AcDbLine
 10
3.002207259983785
 20
1.293455617332585
 30
0.0
 11
2.955109101427801
 21
1.217590290921047
 31
0.0
  0
LINE
  5
3EF0D9A1ECE848F
330
3EF0D9A1ECE84D1
100
AcDbEntity
  8
TEXT
100
AcDbLine
 10
3.012641976747708
 20
1.183562374391611
 30
0.0
 11
3.077199092713414
 21
1.293455617332585
 31
0.0
  0
LINE
  5
3EF0D9A1ECE8490
330
3EF0D9A1ECE84D1
100
AcDbEntity
  8
TEXT
100
AcDbLine
 10
2.891274110205028
 20
1.026982584344074
 30
0.0
 11
2.955652294523648
 21
1.026982584344074
 31
0.0
  0
LWPOLYLINE
  5
3EF0D9A1ECE8491
330
3EF0D9A1ECE84D1
100
AcDbEntity
  8
TEXT
100
AcDbPolyline
 90
        2
 70
     0
 43
0.0
 10
2.73136503979447
 20
1.070473529294512
 42
-0.2901071551932486
 10
2.688289106926825
 20
1.026982584344074
 42
-5.328517124445184
  0
ARC
  5
3EF0D9A1ECE8495
330
3EF0D9A1ECE84D1
100
AcDbEntity
  8
TEXT
100
AcDbCircle
 10
2.619434525269911
 20
1.200819547675822
 30
0.0
 40
0.028359375
100
AcDbArc
 50
25.78218179591245
 51
90.0
  0
LINE
  5
3EF0D9A1ECE8496
330
3EF0D9A1ECE84D1
100
AcDbEntity
  8
TEXT
100
AcDbLine
 10
2.655235600574034
 20
1.191903949213687
 30
0.0
 11
2.644970840160469
 21
1.213154488786381
 31
0.0
  0
LINE
  5
3EF0D9A1ECE8497
330
3EF0D9A1ECE84D1
100
AcDbEntity
  8
TEXT
100
AcDbLine
 10
2.572947610790651
 20
1.191903949213687
 30
0.0
 11
2.655235600574034
 21
1.191903949213687
 31
0.0
  0
LWPOLYLINE
  5
3EF0D9A1ECE8498
330
3EF0D9A1ECE84D1
100
AcDbEntity
  8
TEXT
100
AcDbPolyline
 90
        4
 70
     1
 43
0.0
 10
2.668166641856933
 20
1.129946562328099
 10
2.579506323197074
 20
1.129946562328099
 42
0.9999999999999998
 10
2.579506323197074
 20
1.087548021824238
 10
2.668166641856933
 20
1.087548021824238
 42
1.0
  0
LWPOLYLINE
  5
3EF0D9A1ECE849E
330
3EF0D9A1ECE84D1
100
AcDbEntity
  8
TEXT
100
AcDbPolyline
 90
        2
 70
     0
 43
0.0
 10
2.554271689295449
 20
1.026982584344074
 10
2.688289106926825
 20
1.026982584344074
 42
0.9999999999999998
  0
LINE
  5
3EF0D9A1ECE84A2
330
3EF0D9A1ECE84D1
100
AcDbEntity
  8
TEXT
100
AcDbLine
 10
2.814626128912465
 20
1.229178922675819
 30
0.0
 11
2.891274110205023
 21
1.229178922675819
 31
0.0
  0
LINE
  5
3EF0D9A1ECE84A3
330
3EF0D9A1ECE84D1
100
AcDbEntity
  8
TEXT
100
AcDbLine
 10
2.891274110205023
 20
1.229178922675819
 30
0.0
 11
2.891274110205028
 21
1.026982584344074
 31
0.0
  0
ARC
  5
3EF0D9A1ECE84A4
330
3EF0D9A1ECE84D1
100
AcDbEntity
  8
TEXT
100
AcDbCircle
 10
2.814626128912463
 20
1.204273047393157
 30
0.0
 40
0.0249058752826653
100
AcDbArc
 50
89.99971217465335
 51
179.9999999999985
  0
LINE
  5
3EF0D9A1ECE84A5
330
3EF0D9A1ECE84D1
100
AcDbEntity
  8
TEXT
100
AcDbLine
 10
2.789720253629806
 20
1.026982584344074
 30
0.0
 11
2.7897202536298
 21
1.204273089775542
 31
0.0
  0
LWPOLYLINE
  5
3EF0D9A1ECE84A6
330
3EF0D9A1ECE84D1
100
AcDbEntity
  8
TEXT
100
AcDbPolyline
 90
        2
 70
     0
 43
0.0
 10
2.73136503979447
 20
1.026982584344074
 10
2.789720253629804
 20
1.026982584344074
  0
LWPOLYLINE
  5
3EF0D9A1ECE84AA
330
3EF0D9A1ECE84D1
100
AcDbEntity
  8
TEXT
100
AcDbPolyline
 90
        2
 70
     0
 43
0.0
 10
2.73136503979447
 20
1.070473529294512
 10
2.73136503979447
 20
1.026982584344074
  0
LINE
  5
3EF0D9A1ECE84AE
330
3EF0D9A1ECE84D1
100
AcDbEntity
  8
TEXT
100
AcDbLine
 10
3.108134200111319
 20
1.026982584344074
 30
0.0
 11
3.012641976747708
 21
1.183562374391611
 31
0.0
  0
LINE
  5
3EF0D9A1ECE84AF
330
3EF0D9A1ECE84D1
100
AcDbEntity
  8
TEXT
100
AcDbLine
 10
3.031555827735113
 20
1.026982584344074
 30
0.0
 11
3.108134200111319
 21
1.026982584344074
 31
0.0
  0
LINE
  5
3EF0D9A1ECE84B0
330
3EF0D9A1ECE84D1
100
AcDbEntity
  8
TEXT
100
AcDbLine
 10
2.955652294523648
 20
1.158562152820254
 30
0.0
 11
3.031555827735113
 21
1.026982584344074
 31
0.0
  0
LINE
  5
3EF0D9A1ECE84B1
330
3EF0D9A1ECE84D1
100
AcDbEntity
  8
TEXT
100
AcDbLine
 10
2.955652294523648
 20
1.026982584344074
 30
0.0
 11
2.955652294523648
 21
1.158562152820254
 31
0.0
  0
LINE
  5
3EF0D9A1ECE84B2
330
3EF0D9A1ECE84D1
100
AcDbEntity
  8
TEXT
100
AcDbLine
 10
2.955109101427801
 20
1.358919823100185
 30
0.0
 11
2.886794222878528
 21
1.358919823100185
 31
0.0
  0
ARC
  5
3EF0D9A1ECE84B3
330
3EF0D9A1ECE84D1
100
AcDbEntity
  8
TEXT
100
AcDbCircle
 10
2.646438483837322
 20
1.251872050211682
 30
0.0
 40
0.0416329381542859
100
AcDbArc
 50
26.56974201007528
 51
87.20939649401342
  0
LINE
  5
3EF0D9A1ECE84B4
330
3EF0D9A1ECE84D1
100
AcDbEntity
  8
TEXT
100
AcDbLine
 10
2.791322268788933
 20
1.293455617332585
 30
0.0
 11
2.727425362489432
 21
1.293455617332585
 31
0.0
  0
LINE
  5
3EF0D9A1ECE84B5
330
3EF0D9A1ECE84D1
100
AcDbEntity
  8
TEXT
100
AcDbLine
 10
2.791322268788933
 20
1.26590796747171
 30
0.0
 11
2.791322268788933
 21
1.293455617332585
 31
0.0
  0
ARC
  5
3EF0D9A1ECE84B6
330
3EF0D9A1ECE84D1
100
AcDbEntity
  8
TEXT
100
AcDbCircle
 10
2.822515085852041
 20
1.26220989005032
 30
0.0
 40
0.0314112657011332
100
AcDbArc
 50
95.88484768694724
 51
173.2388340632136
  0
LINE
  5
3EF0D9A1ECE84B7
330
3EF0D9A1ECE84D1
100
AcDbEntity
  8
TEXT
100
AcDbLine
 10
2.886794222878522
 20
1.293455617332585
 30
0.0
 11
2.819294505229006
 21
1.293455617332585
 31
0.0
  0
LINE
  5
3EF0D9A1ECE84B8
330
3EF0D9A1ECE84D1
100
AcDbEntity
  8
TEXT
100
AcDbLine
 10
2.886794222878528
 20
1.358919823100185
 30
0.0
 11
2.886794222878522
 21
1.293455617332585
 31
0.0
  0
LINE
  5
3EF0D9A1ECE84B9
330
3EF0D9A1ECE84D1
100
AcDbEntity
  8
TEXT
100
AcDbLine
 10
3.077199092713414
 20
1.293455617332585
 30
0.0
 11
3.002207259983787
 21
1.293455617332585
 31
0.0
  0
ENDSEC
  0
SECTION
  2
OBJECTS
  0
DICTIONARY
  5
3EF0D9A1ECE84C5
330
0
100
AcDbDictionary
  3
ACAD_GROUP
350
3EF0D9A1ECE84C6
  3
ACAD_LAYOUT
350
3EF0D9A1ECE84EB
  3
ACAD_MLINESTYLE
350
3EF0D9A1ECE84C7
  3
ACAD_PLOTSETTINGS
350
3EF0D9A1ECE84EC
  3
ACAD_PLOTSTYLENAME
350
3EF0D9A1ECE84E9
  3
ACDBHEADERROUNDTRIPXREC
350
3EF0D9A1ECE84F6
  3
ACDBVARIABLEDICTIONARY
350
3EF0D9A1ECE84F3
  0
DICTIONARY
  5
3EF0D9A1ECE8518
330
3EF0D9A1ECE84D1
100
AcDbDictionary
280
     1
  3
ACAD_LAYOUTSELFREF
360
3EF0D9A1ECE8519
  0
DICTIONARY
  5
3EF0D9A1ECE8516
330
3EF0D9A1ECE84CE
100
AcDbDictionary
280
     1
  3
ACAD_LAYOUTSELFREF
360
3EF0D9A1ECE8517
  0
DICTIONARY
  5
3EF0D9A1ECE84C6
102
{ACAD_REACTORS
330
3EF0D9A1ECE84C5
102
}
330
3EF0D9A1ECE84C5
100
AcDbDictionary
  0
DICTIONARY
  5
3EF0D9A1ECE84EB
102
{ACAD_REACTORS
330
3EF0D9A1ECE84C5
102
}
330
3EF0D9A1ECE84C5
100
AcDbDictionary
  0
DICTIONARY
  5
3EF0D9A1ECE84C7
102
{ACAD_REACTORS
330
3EF0D9A1ECE84C5
102
}
330
3EF0D9A1ECE84C5
100
AcDbDictionary
  3
STANDARD
350
3EF0D9A1ECE84D4
  0
DICTIONARY
  5
3EF0D9A1ECE84EC
102
{ACAD_REACTORS
330
3EF0D9A1ECE84C5
102
}
330
3EF0D9A1ECE84C5
100
AcDbDictionary
  0
ACDBDICTIONARYWDFLT
  5
3EF0D9A1ECE84E9
102
{ACAD_REACTORS
330
3EF0D9A1ECE84C5
102
}
330
3EF0D9A1ECE84C5
100
AcDbDictionary
281
     1
  3
Normal
350
3EF0D9A1ECE84EA
100
AcDbDictionaryWithDefault
340
3EF0D9A1ECE84EA
  0
DICTIONARY
  5
3EF0D9A1ECE84F6
102
{ACAD_REACTORS
330
3EF0D9A1ECE84C5
102
}
330
3EF0D9A1ECE84C5
100
AcDbDictionary
  3
CEPSNTYPE
350
3EF0D9A1ECE8500
  3
FINGERPRINTGUID
350
3EF0D9A1ECE8501
  3
HYPERLINKBASE
350
3EF0D9A1ECE84F9
  3
INSUNITS
350
3EF0D9A1ECE84FF
  3
LAYOUTDICT
350
3EF0D9A1ECE84FB
  3
LWETCUNION
350
3EF0D9A1ECE84FE
  3
PLOTSETDICT
350
3EF0D9A1ECE84FC
  3
PLOTSTYLNAMDICT
350
3EF0D9A1ECE84FD
  3
PSVPSCALE
350
3EF0D9A1ECE8503
  3
PUCSBASE
350
3EF0D9A1ECE8506
  3
PUCSORGBACK
350
3EF0D9A1ECE850C
  3
PUCSORGBOTTOM
350
3EF0D9A1ECE8508
  3
PUCSORGFRONT
350
3EF0D9A1ECE850B
  3
PUCSORGLEFT
350
3EF0D9A1ECE8509
  3
PUCSORGRIGHT
350
3EF0D9A1ECE850A
  3
PUCSORGTOP
350
3EF0D9A1ECE8507
  3
PUCSORTHOREF
350
3EF0D9A1ECE8504
  3
PUCSORTHOVIEW
350
3EF0D9A1ECE8505
  3
STYLESHEET
350
3EF0D9A1ECE84FA
  3
TSTACKALIGN
350
3EF0D9A1ECE84F7
  3
TSTACKSIZE
350
3EF0D9A1ECE84F8
  3
UCSBASE
350
3EF0D9A1ECE850F
  3
UCSORGBACK
350
3EF0D9A1ECE8515
  3
UCSORGBOTTOM
350
3EF0D9A1ECE8511
  3
UCSORGFRONT
350
3EF0D9A1ECE8514
  3
UCSORGLEFT
350
3EF0D9A1ECE8512
  3
UCSORGRIGHT
350
3EF0D9A1ECE8513
  3
UCSORGTOP
350
3EF0D9A1ECE8510
  3
UCSORTHOREF
350
3EF0D9A1ECE850D
  3
UCSORTHOVIEW
350
3EF0D9A1ECE850E
  3
VERSIONGUID
350
3EF0D9A1ECE8502
  0
DICTIONARY
  5
3EF0D9A1ECE84F3
102
{ACAD_REACTORS
330
3EF0D9A1ECE84C5
102
}
330
3EF0D9A1ECE84C5
100
AcDbDictionary
  3
DIMASSOC
350
3EF0D9A1ECE84F4
  0
XRECORD
  5
3EF0D9A1ECE8519
102
{ACAD_REACTORS
330
3EF0D9A1ECE8518
102
}
330
3EF0D9A1ECE8518
100
AcDbXrecord
340
3EF0D9A1ECE84D1
  0
XRECORD
  5
3EF0D9A1ECE8517
102
{ACAD_REACTORS
330
3EF0D9A1ECE8516
102
}
330
3EF0D9A1ECE8516
100
AcDbXrecord
340
3EF0D9A1ECE84CE
  0
MLINESTYLE
  5
3EF0D9A1ECE84D4
102
{ACAD_REACTORS
330
3EF0D9A1ECE84C7
102
}
330
3EF0D9A1ECE84C7
100
AcDbMlineStyle
  2
STANDARD
 70
     0
  3

 62
     0
 51
90.0
 52
90.0
 71
     2
 49
0.5
 62
   256
  6
BYLAYER
 49
-0.5
 62
   256
  6
BYLAYER
  0
ACDBPLACEHOLDER
  5
3EF0D9A1ECE84EA
102
{ACAD_REACTORS
330
3EF0D9A1ECE84E9
102
}
330
3EF0D9A1ECE84E9
100
AcDbPlaceHolder
280
     0
  0
XRECORD
  5
3EF0D9A1ECE8500
102
{ACAD_REACTORS
330
3EF0D9A1ECE84F6
102
}
330
3EF0D9A1ECE84F6
100
AcDbXrecord
 90
        0
  0
XRECORD
  5
3EF0D9A1ECE8501
102
{ACAD_REACTORS
330
3EF0D9A1ECE84F6
102
}
330
3EF0D9A1ECE84F6
100
AcDbXrecord
  1
{22FFC4E0-8DB4-11D6-88E6-0090279574E7}
  0
XRECORD
  5
3EF0D9A1ECE84F9
102
{ACAD_REACTORS
330
3EF0D9A1ECE84F6
102
}
330
3EF0D9A1ECE84F6
100
AcDbXrecord
  1

  0
XRECORD
  5
3EF0D9A1ECE84FF
102
{ACAD_REACTORS
330
3EF0D9A1ECE84F6
102
}
330
3EF0D9A1ECE84F6
100
AcDbXrecord
 90
        0
  0
XRECORD
  5
3EF0D9A1ECE84FB
102
{ACAD_REACTORS
330
3EF0D9A1ECE84F6
102
}
330
3EF0D9A1ECE84F6
100
AcDbXrecord
340
3EF0D9A1ECE84EB
  0
XRECORD
  5
3EF0D9A1ECE84FE
102
{ACAD_REACTORS
330
3EF0D9A1ECE84F6
102
}
330
3EF0D9A1ECE84F6
100
AcDbXrecord
 90
    14877
  0
XRECORD
  5
3EF0D9A1ECE84FC
102
{ACAD_REACTORS
330
3EF0D9A1ECE84F6
102
}
330
3EF0D9A1ECE84F6
100
AcDbXrecord
340
3EF0D9A1ECE84EC
  0
XRECORD
  5
3EF0D9A1ECE84FD
102
{ACAD_REACTORS
330
3EF0D9A1ECE84F6
102
}
330
3EF0D9A1ECE84F6
100
AcDbXrecord
340
3EF0D9A1ECE84E9
  0
XRECORD
  5
3EF0D9A1ECE8503
102
{ACAD_REACTORS
330
3EF0D9A1ECE84F6
102
}
330
3EF0D9A1ECE84F6
100
AcDbXrecord
 40
0.0
  0
XRECORD
  5
3EF0D9A1ECE8506
102
{ACAD_REACTORS
330
3EF0D9A1ECE84F6
102
}
330
3EF0D9A1ECE84F6
100
AcDbXrecord
340
0
  0
XRECORD
  5
3EF0D9A1ECE850C
102
{ACAD_REACTORS
330
3EF0D9A1ECE84F6
102
}
330
3EF0D9A1ECE84F6
100
AcDbXrecord
 10
0.0
 20
0.0
 30
0.0
  0
XRECORD
  5
3EF0D9A1ECE8508
102
{ACAD_REACTORS
330
3EF0D9A1ECE84F6
102
}
330
3EF0D9A1ECE84F6
100
AcDbXrecord
 10
0.0
 20
0.0
 30
0.0
  0
XRECORD
  5
3EF0D9A1ECE850B
102
{ACAD_REACTORS
330
3EF0D9A1ECE84F6
102
}
330
3EF0D9A1ECE84F6
100
AcDbXrecord
 10
0.0
 20
0.0
 30
0.0
  0
XRECORD
  5
3EF0D9A1ECE8509
102
{ACAD_REACTORS
330
3EF0D9A1ECE84F6
102
}
330
3EF0D9A1ECE84F6
100
AcDbXrecord
 10
0.0
 20
0.0
 30
0.0
  0
XRECORD
  5
3EF0D9A1ECE850A
102
{ACAD_REACTORS
330
3EF0D9A1ECE84F6
102
}
330
3EF0D9A1ECE84F6
100
AcDbXrecord
 10
0.0
 20
0.0
 30
0.0
  0
XRECORD
  5
3EF0D9A1ECE8507
102
{ACAD_REACTORS
330
3EF0D9A1ECE84F6
102
}
330
3EF0D9A1ECE84F6
100
AcDbXrecord
 10
0.0
 20
0.0
 30
0.0
  0
XRECORD
  5
3EF0D9A1ECE8504
102
{ACAD_REACTORS
330
3EF0D9A1ECE84F6
102
}
330
3EF0D9A1ECE84F6
100
AcDbXrecord
340
0
  0
XRECORD
  5
3EF0D9A1ECE8505
102
{ACAD_REACTORS
330
3EF0D9A1ECE84F6
102
}
330
3EF0D9A1ECE84F6
100
AcDbXrecord
 70
     0
  0
XRECORD
  5
3EF0D9A1ECE84FA
102
{ACAD_REACTORS
330
3EF0D9A1ECE84F6
102
}
330
3EF0D9A1ECE84F6
100
AcDbXrecord
  1

  0
XRECORD
  5
3EF0D9A1ECE84F7
102
{ACAD_REACTORS
330
3EF0D9A1ECE84F6
102
}
330
3EF0D9A1ECE84F6
100
AcDbXrecord
 90
        1
  0
XRECORD
  5
3EF0D9A1ECE84F8
102
{ACAD_REACTORS
330
3EF0D9A1ECE84F6
102
}
330
3EF0D9A1ECE84F6
100
AcDbXrecord
 90
       70
  0
XRECORD
  5
3EF0D9A1ECE850F
102
{ACAD_REACTORS
330
3EF0D9A1ECE84F6
102
}
330
3EF0D9A1ECE84F6
100
AcDbXrecord
340
0
  0
XRECORD
  5
3EF0D9A1ECE8515
102
{ACAD_REACTORS
330
3EF0D9A1ECE84F6
102
}
330
3EF0D9A1ECE84F6
100
AcDbXrecord
 10
0.0
 20
0.0
 30
0.0
  0
XRECORD
  5
3EF0D9A1ECE8511
102
{ACAD_REACTORS
330
3EF0D9A1ECE84F6
102
}
330
3EF0D9A1ECE84F6
100
AcDbXrecord
 10
0.0
 20
0.0
 30
0.0
  0
XRECORD
  5
3EF0D9A1ECE8514
102
{ACAD_REACTORS
330
3EF0D9A1ECE84F6
102
}
330
3EF0D9A1ECE84F6
100
AcDbXrecord
 10
0.0
 20
0.0
 30
0.0
  0
XRECORD
  5
3EF0D9A1ECE8512
102
{ACAD_REACTORS
330
3EF0D9A1ECE84F6
102
}
330
3EF0D9A1ECE84F6
100
AcDbXrecord
 10
0.0
 20
0.0
 30
0.0
  0
XRECORD
  5
3EF0D9A1ECE8513
102
{ACAD_REACTORS
330
3EF0D9A1ECE84F6
102
}
330
3EF0D9A1ECE84F6
100
AcDbXrecord
 10
0.0
 20
0.0
 30
0.0
  0
XRECORD
  5
3EF0D9A1ECE8510
102
{ACAD_REACTORS
330
3EF0D9A1ECE84F6
102
}
330
3EF0D9A1ECE84F6
100
AcDbXrecord
 10
0.0
 20
0.0
 30
0.0
  0
XRECORD
  5
3EF0D9A1ECE850D
102
{ACAD_REACTORS
330
3EF0D9A1ECE84F6
102
}
330
3EF0D9A1ECE84F6
100
AcDbXrecord
340
0
  0
XRECORD
  5
3EF0D9A1ECE850E
102
{ACAD_REACTORS
330
3EF0D9A1ECE84F6
102
}
330
3EF0D9A1ECE84F6
100
AcDbXrecord
 70
     0
  0
XRECORD
  5
3EF0D9A1ECE8502
102
{ACAD_REACTORS
330
3EF0D9A1ECE84F6
102
}
330
3EF0D9A1ECE84F6
100
AcDbXrecord
  1
{22FFC4E2-8DB4-11D6-88E6-0090279574E7}
  0
DICTIONARYVAR
  5
3EF0D9A1ECE84F4
102
{ACAD_REACTORS
330
3EF0D9A1ECE84F3
102
}
330
3EF0D9A1ECE84F3
100
DictionaryVariables
280
     0
  1
1
  0
ENDSEC
  0
EOF
