  0
SECTION
  2
HEADER
  9
$ACADVER
  1
AC1014
  9
$ACADMAINTVER
 70
     9
  9
$DWGCODEPAGE
  3
ANSI_1252
  9
$INSBASE
 10
1.413102408636466
 20
1.277614438531677
 30
0.0
  9
$EXTMIN
 10
-0.3298791705906771
 20
0.0070958344490959
 30
0.0
  9
$EXTMAX
 10
3.15534015115645
 20
1.280850481987717
 30
0.0
  9
$LIMMIN
 10
0.0
 20
0.0
  9
$LIMMAX
 10
18.0
 20
12.0
  9
$ORTHOMODE
 70
     1
  9
$REGENMODE
 70
     1
  9
$FILLMODE
 70
     1
  9
$QTEXTMODE
 70
     0
  9
$MIRRTEXT
 70
     0
  9
$DRAGMODE
 70
     2
  9
$LTSCALE
 40
1.0
  9
$OSMODE
 70
    39
  9
$ATTMODE
 70
     1
  9
$TEXTSIZE
 40
0.125
  9
$TRACEWID
 40
0.05
  9
$TEXTSTYLE
  7
ROMANS
  9
$CLAYER
  8
0
  9
$CELTYPE
  6
BYLAYER
  9
$CECOLOR
 62
   256
  9
$CELTSCALE
 40
1.0
  9
$DELOBJ
 70
     1
  9
$DISPSILH
 70
     1
  9
$DIMSCALE
 40
1.0
  9
$DIMASZ
 40
0.125
  9
$DIMEXO
 40
0.125
  9
$DIMDLI
 40
0.375
  9
$DIMRND
 40
0.0
  9
$DIMDLE
 40
0.0
  9
$DIMEXE
 40
0.125
  9
$DIMTP
 40
0.0
  9
$DIMTM
 40
0.0
  9
$DIMTXT
 40
0.125
  9
$DIMCEN
 40
-0.125
  9
$DIMTSZ
 40
0.0
  9
$DIMTOL
 70
     0
  9
$DIMLIM
 70
     0
  9
$DIMTIH
 70
     1
  9
$DIMTOH
 70
     1
  9
$DIMSE1
 70
     0
  9
$DIMSE2
 70
     0
  9
$DIMTAD
 70
     0
  9
$DIMZIN
 70
     4
  9
$DIMBLK
  1

  9
$DIMASO
 70
     1
  9
$DIMSHO
 70
     1
  9
$DIMPOST
  1

  9
$DIMAPOST
  1

  9
$DIMALT
 70
     0
  9
$DIMALTD
 70
     2
  9
$DIMALTF
 40
25.4
  9
$DIMLFAC
 40
1.0
  9
$DIMTOFL
 70
     0
  9
$DIMTVP
 40
0.0
  9
$DIMTIX
 70
     1
  9
$DIMSOXD
 70
     0
  9
$DIMSAH
 70
     0
  9
$DIMBLK1
  1

  9
$DIMBLK2
  1

  9
$DIMSTYLE
  2
STANDARD
  9
$DIMCLRD
 70
     0
  9
$DIMCLRE
 70
     0
  9
$DIMCLRT
 70
     0
  9
$DIMTFAC
 40
1.0
  9
$DIMGAP
 40
0.09
  9
$DIMJUST
 70
     0
  9
$DIMSD1
 70
     0
  9
$DIMSD2
 70
     0
  9
$DIMTOLJ
 70
     1
  9
$DIMTZIN
 70
     4
  9
$DIMALTZ
 70
     0
  9
$DIMALTTZ
 70
     0
  9
$DIMFIT
 70
     3
  9
$DIMUPT
 70
     0
  9
$DIMUNIT
 70
     2
  9
$DIMDEC
 70
     3
  9
$DIMTDEC
 70
     3
  9
$DIMALTU
 70
     2
  9
$DIMALTTD
 70
     2
  9
$DIMTXSTY
  7
ROMANS
  9
$DIMAUNIT
 70
     0
  9
$LUNITS
 70
     2
  9
$LUPREC
 70
     3
  9
$SKETCHINC
 40
0.1
  9
$FILLETRAD
 40
0.03125
  9
$AUNITS
 70
     0
  9
$AUPREC
 70
     0
  9
$MENU
  1
ACAD
  9
$ELEVATION
 40
0.0
  9
$PELEVATION
 40
0.0
  9
$THICKNESS
 40
0.0
  9
$LIMCHECK
 70
     0
  9
$BLIPMODE
 70
     0
  9
$CHAMFERA
 40
0.0
  9
$CHAMFERB
 40
0.0
  9
$CHAMFERC
 40
0.0
  9
$CHAMFERD
 40
0.0
  9
$SKPOLY
 70
     0
  9
$TDCREATE
 40
2448994.303574536
  9
$TDUPDATE
 40
2452458.296099468
  9
$TDINDWG
 40
0.0006148032
  9
$TDUSRTIMER
 40
0.0006148032
  9
$USRTIMER
 70
     1
  9
$ANGBASE
 50
0.0
  9
$ANGDIR
 70
     0
  9
$PDMODE
 70
     0
  9
$PDSIZE
 40
0.0
  9
$PLINEWID
 40
0.0
  9
$COORDS
 70
     2
  9
$SPLFRAME
 70
     0
  9
$SPLINETYPE
 70
     6
  9
$SPLINESEGS
 70
     8
  9
$ATTDIA
 70
     0
  9
$ATTREQ
 70
     1
  9
$HANDLING
 70
 22529
  9
$HANDSEED
  5
3EF0D9A1ECE8048
  9
$SURFTAB1
 70
     6
  9
$SURFTAB2
 70
     6
  9
$SURFTYPE
 70
     6
  9
$SURFU
 70
     6
  9
$SURFV
 70
     6
  9
$UCSNAME
  2

  9
$UCSORG
 10
0.0
 20
0.0
 30
0.0
  9
$UCSXDIR
 10
1.0
 20
0.0
 30
0.0
  9
$UCSYDIR
 10
0.0
 20
1.0
 30
0.0
  9
$PUCSNAME
  2

  9
$PUCSORG
 10
0.0
 20
0.0
 30
0.0
  9
$PUCSXDIR
 10
1.0
 20
0.0
 30
0.0
  9
$PUCSYDIR
 10
0.0
 20
1.0
 30
0.0
  9
$USERI1
 70
     0
  9
$USERI2
 70
     0
  9
$USERI3
 70
     0
  9
$USERI4
 70
     0
  9
$USERI5
 70
     0
  9
$USERR1
 40
0.0
  9
$USERR2
 40
0.0
  9
$USERR3
 40
0.0
  9
$USERR4
 40
0.0
  9
$USERR5
 40
0.0
  9
$WORLDVIEW
 70
     1
  9
$SHADEDGE
 70
     3
  9
$SHADEDIF
 70
    70
  9
$TILEMODE
 70
     1
  9
$MAXACTVP
 70
    16
  9
$PINSBASE
 10
1.44719398799109
 20
50.00000000000001
 30
2.051829270937199
  9
$PLIMCHECK
 70
     0
  9
$PEXTMIN
 10
1.000000000000000E+20
 20
1.000000000000000E+20
 30
1.000000000000000E+20
  9
$PEXTMAX
 10
-1.000000000000000E+20
 20
-1.000000000000000E+20
 30
-1.000000000000000E+20
  9
$PLIMMIN
 10
0.0
 20
0.0
  9
$PLIMMAX
 10
12.0
 20
9.0
  9
$UNITMODE
 70
     0
  9
$VISRETAIN
 70
     0
  9
$PLINEGEN
 70
     1
  9
$PSLTSCALE
 70
     0
  9
$TREEDEPTH
 70
  3020
  9
$PICKSTYLE
 70
     1
  9
$CMLSTYLE
  2
STANDARD
  9
$CMLJUST
 70
     0
  9
$CMLSCALE
 40
1.0
  9
$PROXYGRAPHICS
 70
     1
  9
$MEASUREMENT
 70
     0
  0
ENDSEC
  0
SECTION
  2
CLASSES
  0
CLASS
  1
LWPOLYLINE
  2
AcDbPolyline
  3
AutoCAD 2000
 90
        0
280
     0
281
     1
  0
CLASS
  1
ACDBDICTIONARYWDFLT
  2
AcDbDictionaryWithDefault
  3
AutoCAD 2000
 90
        0
280
     0
281
     0
  0
CLASS
  1
ACDBPLACEHOLDER
  2
AcDbPlaceHolder
  3
AutoCAD 2000
 90
        0
280
     0
281
     0
  0
CLASS
  1
LAYOUT
  2
AcDbLayout
  3
AutoCAD 2000
 90
        0
280
     0
281
     0
  0
CLASS
  1
DICTIONARYVAR
  2
AcDbDictionaryVar
  3
AutoCAD 2000
 90
        0
280
     0
281
     0
  0
CLASS
  1
LONG_TRANSACTION
  2
AcDbLongTransaction
  3
AutoCAD 2000
 90
        0
280
     0
281
     0
  0
CLASS
  1
LWPOLYLINE
  2
AcDbPolyline
  3
AutoCAD 2000
 90
        0
280
     0
281
     1
  0
CLASS
  1
HATCH
  2
AcDbHatch
  3
AutoCAD 2000
 90
        0
280
     0
281
     1
  0
CLASS
  1
XRECORD
  2
AcDbXrecord
  3
AutoCAD 2000
 90
        0
280
     0
281
     0
  0
ENDSEC
  0
SECTION
  2
TABLES
  0
TABLE
  2
VPORT
  5
3EF0D9A1ECE7FEF
330
0
100
AcDbSymbolTable
 70
     2
  0
VPORT
  5
3EF0D9A1ECE8023
330
3EF0D9A1ECE7FEF
100
AcDbSymbolTableRecord
100
AcDbViewportTableRecord
  2
*ACTIVE
 70
     0
 10
0.0
 20
0.0
 11
1.0
 21
1.0
 12
4.388711231208969
 22
0.6441650607671648
 13
0.0
 23
0.0
 14
0.015625
 24
0.015625
 15
0.0
 25
0.0
 16
0.0
 26
0.0
 36
1.0
 17
0.0
 27
0.0
 37
0.0
 40
2.282366954661264
 41
4.320930232558139
 42
50.0
 43
0.0
 44
0.0
 50
0.0
 51
0.0
 71
     0
 72
  2000
 73
     1
 74
     0
 75
     1
 76
     0
 77
     0
 78
     0
  0
ENDTAB
  0
TABLE
  2
LTYPE
  5
3EF0D9A1ECE7FEC
330
0
100
AcDbSymbolTable
 70
     1
  0
LTYPE
  5
3EF0D9A1ECE7FF9
330
3EF0D9A1ECE7FEC
100
AcDbSymbolTableRecord
100
AcDbLinetypeTableRecord
  2
BYBLOCK
 70
     0
  3

 72
    65
 73
     0
 40
0.0
  0
LTYPE
  5
3EF0D9A1ECE7FFA
330
3EF0D9A1ECE7FEC
100
AcDbSymbolTableRecord
100
AcDbLinetypeTableRecord
  2
BYLAYER
 70
     0
  3

 72
    65
 73
     0
 40
0.0
  0
LTYPE
  5
3EF0D9A1ECE7FFB
330
3EF0D9A1ECE7FEC
100
AcDbSymbolTableRecord
100
AcDbLinetypeTableRecord
  2
CONTINUOUS
 70
     0
  3
Solid line
 72
    65
 73
     0
 40
0.0
  0
ENDTAB
  0
TABLE
  2
LAYER
  5
3EF0D9A1ECE7FE9
330
0
100
AcDbSymbolTable
 70
     2
  0
LAYER
  5
3EF0D9A1ECE7FF6
330
3EF0D9A1ECE7FE9
100
AcDbSymbolTableRecord
100
AcDbLayerTableRecord
  2
0
 70
     0
 62
     7
  6
CONTINUOUS
  0
LAYER
  5
3EF0D9A1ECE8006
330
3EF0D9A1ECE7FE9
100
AcDbSymbolTableRecord
100
AcDbLayerTableRecord
  2
TEXT
 70
     0
 62
     3
  6
CONTINUOUS
  0
ENDTAB
  0
TABLE
  2
STYLE
  5
3EF0D9A1ECE7FEA
330
0
100
AcDbSymbolTable
 70
     3
  0
STYLE
  5
3EF0D9A1ECE7FF7
330
3EF0D9A1ECE7FEA
100
AcDbSymbolTableRecord
100
AcDbTextStyleTableRecord
  2
STANDARD
 70
     0
 40
0.0
 41
1.0
 50
0.0
 71
     0
 42
0.3125
  3
txt
  4

  0
STYLE
  5
3EF0D9A1ECE8003
330
3EF0D9A1ECE7FEA
100
AcDbSymbolTableRecord
100
AcDbTextStyleTableRecord
  2
ITALICC
 70
     0
 40
0.0
 41
1.0
 50
0.0
 71
     0
 42
0.125
  3
italicc
  4

  0
STYLE
  5
3EF0D9A1ECE8013
330
3EF0D9A1ECE7FEA
100
AcDbSymbolTableRecord
100
AcDbTextStyleTableRecord
  2
ROMANS
 70
     0
 40
0.0
 41
1.0
 50
0.0
 71
     0
 42
0.125
  3
romans.shx
  4

  0
ENDTAB
  0
TABLE
  2
VIEW
  5
3EF0D9A1ECE7FED
330
0
100
AcDbSymbolTable
 70
     0
  0
ENDTAB
  0
TABLE
  2
UCS
  5
3EF0D9A1ECE7FEE
330
0
100
AcDbSymbolTable
 70
     0
  0
ENDTAB
  0
TABLE
  2
APPID
  5
3EF0D9A1ECE7FF0
330
0
100
AcDbSymbolTable
 70
     1
  0
APPID
  5
3EF0D9A1ECE7FF8
330
3EF0D9A1ECE7FF0
100
AcDbSymbolTableRecord
100
AcDbRegAppTableRecord
  2
ACAD
 70
     0
  0
ENDTAB
  0
TABLE
  2
DIMSTYLE
  5
3EF0D9A1ECE7FF1
330
0
100
AcDbSymbolTable
 70
     1
  0
DIMSTYLE
105
3EF0D9A1ECE800B
330
3EF0D9A1ECE7FF1
100
AcDbSymbolTableRecord
100
AcDbDimStyleTableRecord
  2
STANDARD
 70
     0
  3

  4

  5

  6

  7

 40
1.0
 41
0.125
 42
0.125
 43
0.375
 44
0.125
 45
0.0
 46
0.0
 47
0.0
 48
0.0
140
0.125
141
-0.125
142
0.0
143
25.4
144
1.0
145
0.0
146
1.0
147
0.09
 71
     0
 72
     0
 73
     1
 74
     1
 75
     0
 76
     0
 77
     0
 78
     4
170
     0
171
     2
172
     0
173
     0
174
     1
175
     0
176
     0
177
     0
178
     0
270
     2
271
     3
272
     3
273
     2
274
     2
340
3EF0D9A1ECE8013
275
     0
280
     0
281
     0
282
     0
283
     1
284
     4
285
     0
286
     0
287
     3
288
     0
  0
ENDTAB
  0
TABLE
  2
BLOCK_RECORD
  5
3EF0D9A1ECE7FE8
330
0
100
AcDbSymbolTable
 70
     0
  0
BLOCK_RECORD
  5
3EF0D9A1ECE7FFF
102
{ACAD_XDICTIONARY
360
3EF0D9A1ECE8046
102
}
330
3EF0D9A1ECE7FE8
100
AcDbSymbolTableRecord
100
AcDbBlockTableRecord
  2
*MODEL_SPACE
  0
BLOCK_RECORD
  5
3EF0D9A1ECE7FFC
102
{ACAD_XDICTIONARY
360
3EF0D9A1ECE8044
102
}
330
3EF0D9A1ECE7FE8
100
AcDbSymbolTableRecord
100
AcDbBlockTableRecord
  2
*PAPER_SPACE
  0
ENDTAB
  0
ENDSEC
  0
SECTION
  2
BLOCKS
  0
BLOCK
  5
3EF0D9A1ECE8009
330
3EF0D9A1ECE7FFF
100
AcDbEntity
  8
0
100
AcDbBlockBegin
  2
*MODEL_SPACE
 70
     0
 10
0.0
 20
0.0
 30
0.0
  3
*MODEL_SPACE
  1

  0
ENDBLK
  5
3EF0D9A1ECE800A
330
3EF0D9A1ECE7FFF
100
AcDbEntity
  8
0
100
AcDbBlockEnd
  0
BLOCK
  5
3EF0D9A1ECE8007
330
3EF0D9A1ECE7FFC
100
AcDbEntity
 67
     1
  8
0
100
AcDbBlockBegin
  2
*PAPER_SPACE
 70
     0
 10
0.0
 20
0.0
 30
0.0
  3
*PAPER_SPACE
  1

  0
ENDBLK
  5
3EF0D9A1ECE8008
330
3EF0D9A1ECE7FFC
100
AcDbEntity
 67
     1
  8
0
100
AcDbBlockEnd
  0
ENDSEC
  0
SECTION
  2
ENTITIES
  0
LWPOLYLINE
  5
3EF0D9A1ECE6A2B
330
3EF0D9A1ECE7FFF
100
AcDbEntity
  8
0
100
AcDbPolyline
 90
       23
 70
     0
 43
0.0
 10
1.169102408636466
 20
0.8791144385316771
 10
1.179352408636466
 20
0.8791144385316771
 42
-1.0
 10
1.179352408636466
 20
0.8166144385316771
 10
1.169102408636466
 20
0.8166144385316773
 10
1.169102408636466
 20
0.8163644385316777
 10
1.128687889793192
 20
0.7463644385316777
 10
1.106602408636466
 20
0.7463644385316777
 10
1.106602408636466
 20
1.261989438531677
 42
-0.4142135623730951
 10
1.122227408636466
 20
1.277614438531677
 10
1.703977408636466
 20
1.277614438531677
 42
-0.4142135623730951
 10
1.719602408636466
 20
1.261989438531677
 10
1.719602408636466
 20
1.133614438531677
 10
1.682364404190955
 20
0.8303352300409716
 42
-0.3788661086953142
 10
1.666855870571559
 20
0.8166144385316771
 10
1.635852408636466
 20
0.8166144385316773
 42
-1.034486146474792
 10
1.637969431780547
 20
0.8790426474765062
 10
1.657102408636466
 20
1.034868239189516
 10
1.657102408636466
 20
1.215114438531677
 10
1.423602408636466
 20
1.215114438531677
 10
1.413602408636466
 20
1.225114438531677
 10
1.403602408636466
 20
1.215114438531677
 10
1.169102408636466
 20
1.215114438531677
 10
1.169102408636466
 20
0.8788644385316777
  0
TEXT
  5
3EF0D9A1ECE7EAA
330
3EF0D9A1ECE7FFF
100
AcDbEntity
  8
TEXT
100
AcDbText
 10
0.6571500276840855
 20
0.4651144385316775
 30
0.0
 40
0.125
  1
PART #110125
  7
ITALICC
 72
     1
 11
1.413102408636466
 21
0.4651144385316775
 31
0.0
100
AcDbText
  0
TEXT
  5
3EF0D9A1ECE7EAB
330
3EF0D9A1ECE7FFF
100
AcDbEntity
  8
TEXT
100
AcDbText
 10
1.826407566886786
 20
0.0181917958593023
 30
0.0
 40
0.0522247191011236
  1
Phone  1-800-328-2495
 41
1.272321428571429
 72
     5
 11
3.15534015115645
 21
0.0181917958593023
 31
0.0
100
AcDbText
  0
TEXT
  5
3EF0D9A1ECE7EAC
330
3EF0D9A1ECE7FFF
100
AcDbEntity
  8
TEXT
100
AcDbText
 10
1.826407566886786
 20
0.2979670767581788
 30
0.0
 40
0.0522247191011236
  1
Stylmark  Incorporated
 41
1.221428571428573
 72
     5
 11
3.15534015115645
 21
0.2979670767581788
 31
0.0
100
AcDbText
  0
TEXT
  5
3EF0D9A1ECE7EAD
330
3EF0D9A1ECE7FFF
100
AcDbEntity
  8
TEXT
100
AcDbText
 10
1.826407566886786
 20
0.2047086497918866
 30
0.0
 40
0.0522247191011236
  1
6536 Main St. N.E. * P.O. Box 32008
 41
0.8388932496075366
 72
     5
 11
3.15534015115645
 21
0.2047086497918866
 31
0.0
100
AcDbText
  0
TEXT
  5
3EF0D9A1ECE7EAE
330
3EF0D9A1ECE7FFF
100
AcDbEntity
  8
TEXT
100
AcDbText
 10
1.826407566886786
 20
0.1114502228255945
 30
0.0
 40
0.0522247191011236
  1
Minneapolis, MN 55432-0008
 41
1.11444212721585
 72
     5
 11
3.15534015115645
 21
0.1114502228255945
 31
0.0
100
AcDbText
  0
LWPOLYLINE
  5
3EF0D9A1ECE7EAF
330
3EF0D9A1ECE7FFF
100
AcDbEntity
  8
TEXT
100
AcDbPolyline
 90
        3
 70
     0
 43
0.0006660908203125
 10
-0.3295461251805207
 20
0.1318365584967371
 10
-0.3295461251805207
 20
0.0186011190436095
 10
-0.2163106857273984
 20
0.0186011190436095
  0
LWPOLYLINE
  5
3EF0D9A1ECE7EB4
330
3EF0D9A1ECE7FFF
100
AcDbEntity
  8
TEXT
100
AcDbPolyline
 90
        3
 70
     0
 43
0.0006660908203125
 10
-0.3029024923680232
 20
0.1318365584967371
 10
-0.3029024923680232
 20
0.0452447518561106
 10
-0.2163106857273984
 20
0.0452447518561106
  0
LWPOLYLINE
  5
3EF0D9A1ECE7EB9
330
3EF0D9A1ECE7FFF
100
AcDbEntity
  8
TEXT
100
AcDbPolyline
 90
        2
 70
     0
 43
0.0001332181640625
 10
-0.2562761349461464
 20
0.1418279208014224
 10
-0.3295461251805207
 20
0.1318365584967371
  0
LWPOLYLINE
  5
3EF0D9A1ECE7EBD
330
3EF0D9A1ECE7FFF
100
AcDbEntity
  8
TEXT
100
AcDbPolyline
 90
        2
 70
     0
 43
0.0001332181640625
 10
-0.3029024923680232
 20
0.1318365584967371
 10
-0.2429543185398959
 20
0.1418279208014224
  0
LWPOLYLINE
  5
3EF0D9A1ECE7EC1
330
3EF0D9A1ECE7FFF
100
AcDbEntity
  8
TEXT
100
AcDbPolyline
 90
        2
 70
     0
 43
0.0001332181640625
 10
-0.3029024923680232
 20
0.0452447518561106
 10
-0.2429543185398959
 20
0.1051929256842361
  0
LWPOLYLINE
  5
3EF0D9A1ECE7EC5
330
3EF0D9A1ECE7FFF
100
AcDbEntity
  8
TEXT
100
AcDbPolyline
 90
        3
 70
     0
 43
0.0006660908203125
 10
-0.2163106857273984
 20
0.2850374471686128
 10
-0.3295461251805207
 20
0.2850374471686128
 10
-0.3295461251805207
 20
0.1718020077154851
  0
LWPOLYLINE
  5
3EF0D9A1ECE7ECA
330
3EF0D9A1ECE7FFF
100
AcDbEntity
  8
TEXT
100
AcDbPolyline
 90
        3
 70
     0
 43
0.0006660908203125
 10
-0.2163106857273984
 20
0.2583938143561117
 10
-0.3029024923680232
 20
0.2583938143561117
 10
-0.3029024923680232
 20
0.1718020077154851
  0
LWPOLYLINE
  5
3EF0D9A1ECE7ECF
330
3EF0D9A1ECE7FFF
100
AcDbEntity
  8
TEXT
100
AcDbPolyline
 90
        2
 70
     0
 43
0.0001332181640625
 10
-0.3029024923680232
 20
0.2583938143561117
 10
-0.2429543185398977
 20
0.1984456405279862
  0
LWPOLYLINE
  5
3EF0D9A1ECE7ED3
330
3EF0D9A1ECE7FFF
100
AcDbEntity
  8
TEXT
100
AcDbPolyline
 90
        2
 70
     0
 43
0.0001332181640625
 10
-0.3029024923680232
 20
0.1718020077154851
 10
-0.2429543185398977
 20
0.1618106454107964
  0
LWPOLYLINE
  5
3EF0D9A1ECE7ED7
330
3EF0D9A1ECE7FFF
100
AcDbEntity
  8
TEXT
100
AcDbPolyline
 90
        2
 70
     0
 43
0.0001332181640625
 10
-0.3295461251805207
 20
0.1718020077154851
 10
-0.2562761349461464
 20
0.1618106454107964
  0
LWPOLYLINE
  5
3EF0D9A1ECE7EDB
330
3EF0D9A1ECE7FFF
100
AcDbEntity
  8
TEXT
100
AcDbPolyline
 90
        2
 70
     0
 43
0.0006660908203125
 10
-0.3029024923680232
 20
0.1318365584967371
 10
-0.3295461251805207
 20
0.1318365584967371
  0
LWPOLYLINE
  5
3EF0D9A1ECE7EDF
330
3EF0D9A1ECE7FFF
100
AcDbEntity
  8
TEXT
100
AcDbPolyline
 90
        2
 70
     0
 43
0.0006660908203125
 10
-0.3029024923680232
 20
0.1718020077154851
 10
-0.3295461251805207
 20
0.1718020077154851
  0
LINE
  5
3EF0D9A1ECE7EE3
330
3EF0D9A1ECE7FFF
100
AcDbEntity
  8
TEXT
100
AcDbLine
 10
1.185644303945976
 20
0.2207607525118438
 30
0.0
 11
1.078438030558687
 21
0.2207607525118438
 31
0.0
  0
LINE
  5
3EF0D9A1ECE7EE4
330
3EF0D9A1ECE7FFF
100
AcDbEntity
  8
TEXT
100
AcDbLine
 10
1.214675202290455
 20
0.2850374471686092
 30
0.0
 11
1.079843293073396
 21
0.2850374471686092
 31
0.0
  0
ARC
  5
3EF0D9A1ECE7EE5
330
3EF0D9A1ECE7FFF
100
AcDbEntity
  8
TEXT
100
AcDbCircle
 10
1.139157389466713
 20
0.1158001979055929
 30
0.0
 40
0.0676855811441166
100
AcDbArc
 50
90.0
 51
153.7768192527749
  0
LWPOLYLINE
  5
3EF0D9A1ECE7EE6
330
3EF0D9A1ECE7FFF
100
AcDbEntity
  8
TEXT
100
AcDbPolyline
 90
        2
 70
     0
 43
0.0
 10
1.077405535103877
 20
0.0620553591305364
 42
0.2901071551932823
 10
1.120481467971512
 20
0.0185644141800983
 42
5.328517124445801
  0
ARC
  5
3EF0D9A1ECE7EEA
330
3EF0D9A1ECE7FFF
100
AcDbEntity
  8
TEXT
100
AcDbCircle
 10
0.4340260117952273
 20
0.0783568055181481
 30
0.0
 40
0.0601160179737537
100
AcDbArc
 50
180.0000000000003
 51
264.0521544866073
  0
LINE
  5
3EF0D9A1ECE7EEB
330
3EF0D9A1ECE7FFF
100
AcDbEntity
  8
TEXT
100
AcDbLine
 10
0.4375413674207751
 20
0.3194253647627474
 30
0.0
 11
0.3774987625767681
 21
0.3194253647627474
 31
0.0
  0
ARC
  5
3EF0D9A1ECE7EEC
330
3EF0D9A1ECE7FFF
100
AcDbEntity
  8
TEXT
100
AcDbCircle
 10
0.2017670096782567
 20
0.2029499877221075
 30
0.0
 40
0.0820874594465043
100
AcDbArc
 50
90.0
 51
270.0
  0
LWPOLYLINE
  5
3EF0D9A1ECE7EED
330
3EF0D9A1ECE7FFF
100
AcDbEntity
  8
TEXT
100
AcDbPolyline
 90
        2
 70
     0
 43
0.0001332181640625
 10
-0.2063193234227079
 20
0.2117674569342332
 10
-0.2163106857273984
 20
0.2850374471686128
  0
LWPOLYLINE
  5
3EF0D9A1ECE7EF1
330
3EF0D9A1ECE7FFF
100
AcDbEntity
  8
TEXT
100
AcDbPolyline
 90
        2
 70
     0
 43
0.0001332181640625
 10
-0.2163106857273984
 20
0.2583938143561117
 10
-0.2063193234227079
 20
0.1984456405279862
  0
LWPOLYLINE
  5
3EF0D9A1ECE7EF5
330
3EF0D9A1ECE7FFF
100
AcDbEntity
  8
TEXT
100
AcDbPolyline
 90
        3
 70
     0
 43
0.0006660908203125
 10
-0.063109797055521
 20
0.1718020077154851
 10
-0.063109797055521
 20
0.2850374471686128
 10
-0.1763452365086469
 20
0.2850374471686128
  0
LWPOLYLINE
  5
3EF0D9A1ECE7EFA
330
3EF0D9A1ECE7FFF
100
AcDbEntity
  8
TEXT
100
AcDbPolyline
 90
        3
 70
     0
 43
0.0006660908203125
 10
-0.0897534298680221
 20
0.1718020077154851
 10
-0.0897534298680221
 20
0.2583938143561117
 10
-0.1763452365086469
 20
0.2583938143561117
  0
LWPOLYLINE
  5
3EF0D9A1ECE7EFF
330
3EF0D9A1ECE7FFF
100
AcDbEntity
  8
TEXT
100
AcDbPolyline
 90
        2
 70
     0
 43
0.0001332181640625
 10
-0.0897534298680221
 20
0.2583938143561117
 10
-0.1497016036961458
 20
0.1984456405279862
  0
LWPOLYLINE
  5
3EF0D9A1ECE7F03
330
3EF0D9A1ECE7FFF
100
AcDbEntity
  8
TEXT
100
AcDbPolyline
 90
        2
 70
     0
 43
0.0001332181640625
 10
-0.1763452365086469
 20
0.2583938143561117
 10
-0.1863365988133356
 20
0.1984456405279862
  0
LWPOLYLINE
  5
3EF0D9A1ECE7F07
330
3EF0D9A1ECE7FFF
100
AcDbEntity
  8
TEXT
100
AcDbPolyline
 90
        2
 70
     0
 43
0.0001332181640625
 10
-0.1763452365086469
 20
0.2850374471686128
 10
-0.1863365988133356
 20
0.2117674569342332
  0
LWPOLYLINE
  5
3EF0D9A1ECE7F0B
330
3EF0D9A1ECE7FFF
100
AcDbEntity
  8
TEXT
100
AcDbPolyline
 90
        2
 70
     0
 43
0.0001332181640625
 10
-0.1363797872898971
 20
0.1618106454107964
 10
-0.063109797055521
 20
0.1718020077154851
  0
LWPOLYLINE
  5
3EF0D9A1ECE7F0F
330
3EF0D9A1ECE7FFF
100
AcDbEntity
  8
TEXT
100
AcDbPolyline
 90
        2
 70
     0
 43
0.0001332181640625
 10
-0.0897534298680221
 20
0.1718020077154851
 10
-0.1497016036961458
 20
0.1618106454107964
  0
LWPOLYLINE
  5
3EF0D9A1ECE7F13
330
3EF0D9A1ECE7FFF
100
AcDbEntity
  8
TEXT
100
AcDbPolyline
 90
        2
 70
     0
 43
0.0001332181640625
 10
-0.063109797055521
 20
0.1318365584967371
 10
-0.1363797872898971
 20
0.1418279208014224
  0
LWPOLYLINE
  5
3EF0D9A1ECE7F17
330
3EF0D9A1ECE7FFF
100
AcDbEntity
  8
TEXT
100
AcDbPolyline
 90
        2
 70
     0
 43
0.0001332181640625
 10
-0.0897534298680221
 20
0.1318365584967371
 10
-0.1497016036961458
 20
0.1418279208014224
  0
LWPOLYLINE
  5
3EF0D9A1ECE7F1B
330
3EF0D9A1ECE7FFF
100
AcDbEntity
  8
TEXT
100
AcDbPolyline
 90
        2
 70
     0
 43
0.0001332181640625
 10
-0.0897534298680221
 20
0.0452447518561106
 10
-0.1497016036961458
 20
0.1051929256842361
  0
LWPOLYLINE
  5
3EF0D9A1ECE7F1F
330
3EF0D9A1ECE7FFF
100
AcDbEntity
  8
TEXT
100
AcDbPolyline
 90
        3
 70
     0
 43
0.0006660908203125
 10
-0.1763452365086469
 20
0.0452447518561106
 10
-0.0897534298680221
 20
0.0452447518561106
 10
-0.0897534298680221
 20
0.1318365584967371
  0
LWPOLYLINE
  5
3EF0D9A1ECE7F24
330
3EF0D9A1ECE7FFF
100
AcDbEntity
  8
TEXT
100
AcDbPolyline
 90
        3
 70
     0
 43
0.0006660908203125
 10
-0.1763452365086469
 20
0.0186011190436095
 10
-0.063109797055521
 20
0.0186011190436095
 10
-0.063109797055521
 20
0.1318365584967371
  0
LWPOLYLINE
  5
3EF0D9A1ECE7F29
330
3EF0D9A1ECE7FFF
100
AcDbEntity
  8
TEXT
100
AcDbPolyline
 90
        5
 70
     0
 43
0.0001332181640625
 10
-0.2063193234227079
 20
0.0918711092779856
 10
-0.2063193234227079
 20
0.1051929256842361
 10
-0.2429543185398959
 20
0.1051929256842361
 10
-0.2429543185398959
 20
0.1418279208014224
 10
-0.2562761349461464
 20
0.1418279208014224
  0
LWPOLYLINE
  5
3EF0D9A1ECE7F30
330
3EF0D9A1ECE7FFF
100
AcDbEntity
  8
TEXT
100
AcDbPolyline
 90
        2
 70
     0
 43
0.0006660908203125
 10
-0.2163106857273984
 20
0.0452447518561106
 10
-0.2163106857273984
 20
0.0186011190436095
  0
LWPOLYLINE
  5
3EF0D9A1ECE7F34
330
3EF0D9A1ECE7FFF
100
AcDbEntity
  8
TEXT
100
AcDbPolyline
 90
        2
 70
     0
 43
0.0001332181640625
 10
-0.2163106857273984
 20
0.0452447518561106
 10
-0.2063193234227079
 20
0.1051929256842361
  0
LWPOLYLINE
  5
3EF0D9A1ECE7F38
330
3EF0D9A1ECE7FFF
100
AcDbEntity
  8
TEXT
100
AcDbPolyline
 90
        2
 70
     0
 43
0.0001332181640625
 10
-0.2163106857273984
 20
0.0186011190436095
 10
-0.2063193234227079
 20
0.0918711092779856
  0
LWPOLYLINE
  5
3EF0D9A1ECE7F3C
330
3EF0D9A1ECE7FFF
100
AcDbEntity
  8
TEXT
100
AcDbPolyline
 90
        5
 70
     0
 43
0.0001332181640625
 10
-0.2562761349461464
 20
0.1618106454107964
 10
-0.2429543185398977
 20
0.1618106454107964
 10
-0.2429543185398977
 20
0.1984456405279862
 10
-0.2063193234227079
 20
0.1984456405279862
 10
-0.2063193234227079
 20
0.2117674569342332
  0
LWPOLYLINE
  5
3EF0D9A1ECE7F43
330
3EF0D9A1ECE7FFF
100
AcDbEntity
  8
TEXT
100
AcDbPolyline
 90
        5
 70
     0
 43
0.0001332181640625
 10
-0.1863365988133356
 20
0.2117674569342332
 10
-0.1863365988133356
 20
0.1984456405279862
 10
-0.1497016036961458
 20
0.1984456405279862
 10
-0.1497016036961458
 20
0.1618106454107964
 10
-0.1363797872898971
 20
0.1618106454107964
  0
LWPOLYLINE
  5
3EF0D9A1ECE7F4A
330
3EF0D9A1ECE7FFF
100
AcDbEntity
  8
TEXT
100
AcDbPolyline
 90
        2
 70
     0
 43
0.0001332181640625
 10
-0.1763452365086469
 20
0.0452447518561106
 10
-0.1863365988133356
 20
0.1051929256842361
  0
LWPOLYLINE
  5
3EF0D9A1ECE7F4E
330
3EF0D9A1ECE7FFF
100
AcDbEntity
  8
TEXT
100
AcDbPolyline
 90
        2
 70
     0
 43
0.0001332181640625
 10
-0.1863365988133356
 20
0.0918711092779856
 10
-0.1763452365086469
 20
0.0186011190436095
  0
LWPOLYLINE
  5
3EF0D9A1ECE7F52
330
3EF0D9A1ECE7FFF
100
AcDbEntity
  8
TEXT
100
AcDbPolyline
 90
        2
 70
     0
 43
0.0006660908203125
 10
-0.1763452365086469
 20
0.0452447518561106
 10
-0.1763452365086469
 20
0.0186011190436095
  0
LWPOLYLINE
  5
3EF0D9A1ECE7F56
330
3EF0D9A1ECE7FFF
100
AcDbEntity
  8
TEXT
100
AcDbPolyline
 90
        5
 70
     0
 43
0.0001332181640625
 10
-0.1363797872898971
 20
0.1418279208014224
 10
-0.1497016036961458
 20
0.1418279208014224
 10
-0.1497016036961458
 20
0.1051929256842361
 10
-0.1863365988133356
 20
0.1051929256842361
 10
-0.1863365988133356
 20
0.0918711092779856
  0
LWPOLYLINE
  5
3EF0D9A1ECE7F5D
330
3EF0D9A1ECE7FFF
100
AcDbEntity
  8
TEXT
100
AcDbPolyline
 90
        2
 70
     0
 43
0.0006660908203125
 10
-0.0897534298680221
 20
0.1718020077154851
 10
-0.063109797055521
 20
0.1718020077154851
  0
LWPOLYLINE
  5
3EF0D9A1ECE7F61
330
3EF0D9A1ECE7FFF
100
AcDbEntity
  8
TEXT
100
AcDbPolyline
 90
        2
 70
     0
 43
0.0006660908203125
 10
-0.0897534298680221
 20
0.1318365584967371
 10
-0.063109797055521
 20
0.1318365584967371
  0
LINE
  5
3EF0D9A1ECE7F65
330
3EF0D9A1ECE7FFF
100
AcDbEntity
  8
TEXT
100
AcDbLine
 10
0.2070043397925039
 20
0.2207607525118438
 30
0.0
 11
0.3739099938214752
 21
0.2207607525118438
 31
0.0
  0
LINE
  5
3EF0D9A1ECE7F66
330
3EF0D9A1ECE7FFF
100
AcDbEntity
  8
TEXT
100
AcDbLine
 10
0.2726044760368049
 20
0.1849560309012159
 30
0.0
 11
0.2070043397925039
 21
0.1849560309012159
 31
0.0
  0
LINE
  5
3EF0D9A1ECE7F67
330
3EF0D9A1ECE7FFF
100
AcDbEntity
  8
TEXT
100
AcDbLine
 10
0.1196795502317522
 20
0.0185644141800983
 30
0.0
 11
0.2726044760368049
 21
0.0185644141800983
 31
0.0
  0
LINE
  5
3EF0D9A1ECE7F68
330
3EF0D9A1ECE7FFF
100
AcDbEntity
  8
TEXT
100
AcDbLine
 10
0.2775448499430846
 20
0.0869214205135376
 30
0.0
 11
0.1196795502317505
 21
0.0869214205135376
 31
0.0
  0
LINE
  5
3EF0D9A1ECE7F69
330
3EF0D9A1ECE7FFF
100
AcDbEntity
  8
TEXT
100
AcDbLine
 10
0.2017670096782558
 20
0.1208625282756022
 30
0.0
 11
0.2775448499430846
 21
0.1208625282756022
 31
0.0
  0
ARC
  5
3EF0D9A1ECE7F6A
330
3EF0D9A1ECE7FFF
100
AcDbEntity
  8
TEXT
100
AcDbCircle
 10
0.2070043397925048
 20
0.2028583917065316
 30
0.0
 40
0.017902360805315
100
AcDbArc
 50
90.0
 51
270.0
  0
LINE
  5
3EF0D9A1ECE7F6B
330
3EF0D9A1ECE7FFF
100
AcDbEntity
  8
TEXT
100
AcDbLine
 10
0.1196795502317505
 20
0.0869214205135376
 30
0.0
 11
0.1196795502317522
 21
0.0185644141800983
 31
0.0
  0
LINE
  5
3EF0D9A1ECE7F6C
330
3EF0D9A1ECE7FFF
100
AcDbEntity
  8
TEXT
100
AcDbLine
 10
0.3739099938214752
 20
0.2207607525118438
 30
0.0
 11
0.3739099938214752
 21
0.0783568055181481
 31
0.0
  0
ARC
  5
3EF0D9A1ECE7F6D
330
3EF0D9A1ECE7FFF
100
AcDbEntity
  8
TEXT
100
AcDbCircle
 10
0.2726044760368058
 20
0.1017602225406553
 30
0.0
 40
0.0831958083605586
100
AcDbArc
 50
270.0
 51
90.0
  0
ARC
  5
3EF0D9A1ECE7F6E
330
3EF0D9A1ECE7FFF
100
AcDbEntity
  8
TEXT
100
AcDbCircle
 10
0.2775448499430855
 20
0.1038919743945716
 30
0.0
 40
0.0169705538810321
100
AcDbArc
 50
270.0
 51
90.0
  0
LWPOLYLINE
  5
3EF0D9A1ECE7F6F
330
3EF0D9A1ECE7FFF
100
AcDbEntity
  8
TEXT
100
AcDbPolyline
 90
        2
 70
     0
 43
0.0006660908203125
 10
-0.2163106857273984
 20
0.2583938143561117
 10
-0.2163106857273984
 20
0.2850374471686128
  0
LWPOLYLINE
  5
3EF0D9A1ECE7F73
330
3EF0D9A1ECE7FFF
100
AcDbEntity
  8
TEXT
100
AcDbPolyline
 90
        2
 70
     0
 43
0.0006660908203125
 10
-0.1763452365086469
 20
0.2583938143561117
 10
-0.1763452365086469
 20
0.2850374471686128
  0
LINE
  5
3EF0D9A1ECE7F77
330
3EF0D9A1ECE7FFF
100
AcDbEntity
  8
TEXT
100
AcDbLine
 10
0.3774987625767681
 20
0.2850374471686092
 30
0.0
 11
0.2017670096782558
 21
0.2850374471686092
 31
0.0
  0
LINE
  5
3EF0D9A1ECE7F78
330
3EF0D9A1ECE7FFF
100
AcDbEntity
  8
TEXT
100
AcDbLine
 10
0.3774987625767681
 20
0.3194253647627474
 30
0.0
 11
0.3774987625767681
 21
0.2850374471686092
 31
0.0
  0
LINE
  5
3EF0D9A1ECE7F79
330
3EF0D9A1ECE7FFF
100
AcDbEntity
  8
TEXT
100
AcDbLine
 10
0.5679706545966204
 20
0.1841654510554887
 30
0.0
 11
0.5093403335646825
 21
0.2850374471686092
 31
0.0
  0
LINE
  5
3EF0D9A1ECE7F7A
330
3EF0D9A1ECE7FFF
100
AcDbEntity
  8
TEXT
100
AcDbLine
 10
0.6267192174024859
 20
0.2850374471686092
 30
0.0
 11
0.5679706545966204
 21
0.1841654510554887
 31
0.0
  0
LINE
  5
3EF0D9A1ECE7F7B
330
3EF0D9A1ECE7FFF
100
AcDbEntity
  8
TEXT
100
AcDbLine
 10
0.7236498427622271
 20
0.1009522522830974
 30
0.0
 11
0.7236498427622271
 21
0.3530489249074198
 31
0.0
  0
LINE
  5
3EF0D9A1ECE7F7C
330
3EF0D9A1ECE7FFF
100
AcDbEntity
  8
TEXT
100
AcDbLine
 10
0.7559616968998873
 20
0.2850374471686092
 30
0.0
 11
0.7559616968998873
 21
0.084173240436201
 31
0.0
  0
LINE
  5
3EF0D9A1ECE7F7D
330
3EF0D9A1ECE7FFF
100
AcDbEntity
  8
TEXT
100
AcDbLine
 10
0.7559616968998873
 20
0.084173240436201
 30
0.0
 11
0.738968060015286
 21
0.084173240436201
 31
0.0
  0
LINE
  5
3EF0D9A1ECE7F7E
330
3EF0D9A1ECE7FFF
100
AcDbEntity
  8
TEXT
100
AcDbLine
 10
0.7247894162584219
 20
0.0185644141800983
 30
0.0
 11
0.8227927499578564
 21
0.0185644141800983
 31
0.0
  0
LINE
  5
3EF0D9A1ECE7F7F
330
3EF0D9A1ECE7FFF
100
AcDbEntity
  8
TEXT
100
AcDbLine
 10
0.558370417599666
 20
0.0385229202851112
 30
0.0
 11
0.6556701236931107
 21
0.2028731312203793
 31
0.0
  0
ARC
  5
3EF0D9A1ECE7F80
330
3EF0D9A1ECE7FFF
100
AcDbEntity
  8
TEXT
100
AcDbCircle
 10
0.5243268576874521
 20
0.058112136453794
 30
0.0
 40
0.0392772371940762
100
AcDbArc
 50
270.1604552698595
 51
330.0831797321295
  0
LINE
  5
3EF0D9A1ECE7F81
330
3EF0D9A1ECE7FFF
100
AcDbEntity
  8
TEXT
100
AcDbLine
 10
0.4277966013015809
 20
0.0185644141800983
 30
0.0
 11
0.5244368523765753
 21
0.0188350532783805
 31
0.0
  0
LWPOLYLINE
  5
3EF0D9A1ECE7F82
330
3EF0D9A1ECE7FFF
100
AcDbEntity
  8
TEXT
100
AcDbPolyline
 90
        6
 70
     1
 43
0.0
 10
0.4703204048767305
 20
0.2207607525118438
 10
0.4400038106565223
 20
0.2207607525118438
 10
0.4400038106565223
 20
0.0976497544569495
 42
0.407328721240804
 10
0.4515474618179987
 20
0.0858308397805634
 10
0.5121691608627295
 20
0.0858308397805634
 10
0.5296345012700474
 20
0.1186430688240425
  0
LINE
  5
3EF0D9A1ECE7F8A
330
3EF0D9A1ECE7FFF
100
AcDbEntity
  8
TEXT
100
AcDbLine
 10
0.6556701236931107
 20
0.2028731312203793
 30
0.0
 11
0.6556701236931107
 21
0.070115756395023
 31
0.0
  0
ARC
  5
3EF0D9A1ECE7F8B
330
3EF0D9A1ECE7FFF
100
AcDbEntity
  8
TEXT
100
AcDbCircle
 10
0.7389680600152842
 20
0.0995550466796265
 30
0.0
 40
0.0153818062434269
100
AcDbArc
 50
174.7883570302258
 51
270.0
  0
LWPOLYLINE
  5
3EF0D9A1ECE7F8C
330
3EF0D9A1ECE7FFF
100
AcDbEntity
  8
TEXT
100
AcDbPolyline
 90
        2
 70
     0
 43
0.0
 10
0.6556701236931089
 20
0.0701157563950266
 42
0.3318488747599744
 10
0.7247894162584219
 20
0.0185644141800983
 42
-6.868794160588311
  0
LINE
  5
3EF0D9A1ECE7F90
330
3EF0D9A1ECE7FFF
100
AcDbEntity
  8
TEXT
100
AcDbLine
 10
0.8801818189471175
 20
0.0185644141800983
 30
0.0
 11
0.9472398657289575
 21
0.0185644141800983
 31
0.0
  0
LINE
  5
3EF0D9A1ECE7F91
330
3EF0D9A1ECE7FFF
100
AcDbEntity
  8
TEXT
100
AcDbLine
 10
0.8801818189471175
 20
0.2132069633457339
 30
0.0
 11
0.8801818189471175
 21
0.0185644141800983
 31
0.0
  0
LINE
  5
3EF0D9A1ECE7F92
330
3EF0D9A1ECE7FFF
100
AcDbEntity
  8
TEXT
100
AcDbLine
 10
0.8227927499578564
 20
0.2207607525118438
 30
0.0
 11
0.872628029781004
 21
0.2207607525118438
 31
0.0
  0
LINE
  5
3EF0D9A1ECE7F93
330
3EF0D9A1ECE7FFF
100
AcDbEntity
  8
TEXT
100
AcDbLine
 10
0.8227927499578564
 20
0.0185644141800983
 30
0.0
 11
0.8227927499578564
 21
0.2207607525118438
 31
0.0
  0
LWPOLYLINE
  5
3EF0D9A1ECE7F94
330
3EF0D9A1ECE7FFF
100
AcDbEntity
  8
TEXT
100
AcDbPolyline
 90
        2
 70
     0
 43
0.0
 10
0.8726280297810022
 20
0.2207607525118438
 42
-0.4142135623731017
 10
0.8801818189471157
 20
0.2132069633457339
 42
-0.9999999999999998
  0
LINE
  5
3EF0D9A1ECE7F98
330
3EF0D9A1ECE7FFF
100
AcDbEntity
  8
TEXT
100
AcDbLine
 10
1.078438030558687
 20
0.2207607525118438
 30
0.0
 11
1.078438030558687
 21
0.1457083464376372
 31
0.0
  0
LINE
  5
3EF0D9A1ECE7F99
330
3EF0D9A1ECE7FFF
100
AcDbEntity
  8
TEXT
100
AcDbLine
 10
0.9472398657289575
 20
0.2207607525118438
 30
0.0
 11
1.001373462649907
 21
0.2207607525118438
 31
0.0
  0
LINE
  5
3EF0D9A1ECE7F9A
330
3EF0D9A1ECE7FFF
100
AcDbEntity
  8
TEXT
100
AcDbLine
 10
0.9472398657289575
 20
0.0185644141800983
 30
0.0
 11
0.9472398657289575
 21
0.2207607525118438
 31
0.0
  0
LWPOLYLINE
  5
3EF0D9A1ECE7F9B
330
3EF0D9A1ECE7FFF
100
AcDbEntity
  8
TEXT
100
AcDbPolyline
 90
        2
 70
     0
 43
0.0
 10
1.001373462649906
 20
0.2207607525118438
 42
-0.4142135623731017
 10
1.008927251816019
 20
0.2132069633457339
 42
-0.9999999999999998
  0
LWPOLYLINE
  5
3EF0D9A1ECE7F9F
330
3EF0D9A1ECE7FFF
100
AcDbEntity
  8
TEXT
100
AcDbPolyline
 90
        4
 70
     0
 43
0.0
 10
1.008927251816019
 20
0.2132069633457339
 10
1.008927251816019
 20
0.0185644141800983
 10
1.077405535103877
 20
0.0185644141800983
 10
1.077405535103877
 20
0.0620553591305364
 42
-1.714843617202739
  0
LINE
  5
3EF0D9A1ECE7FA5
330
3EF0D9A1ECE7FFF
100
AcDbEntity
  8
TEXT
100
AcDbLine
 10
0.4375413674207751
 20
0.2850374471686092
 30
0.0
 11
0.4375413674207751
 21
0.3194253647627474
 31
0.0
  0
LINE
  5
3EF0D9A1ECE7FA6
330
3EF0D9A1ECE7FFF
100
AcDbEntity
  8
TEXT
100
AcDbLine
 10
0.5093403335646825
 20
0.2850374471686092
 30
0.0
 11
0.4375413674207751
 21
0.2850374471686092
 31
0.0
  0
LINE
  5
3EF0D9A1ECE7FA7
330
3EF0D9A1ECE7FFF
100
AcDbEntity
  8
TEXT
100
AcDbLine
 10
0.6568411301958621
 20
0.2850374471686092
 30
0.0
 11
0.6267192174024859
 21
0.2850374471686092
 31
0.0
  0
LINE
  5
3EF0D9A1ECE7FA8
330
3EF0D9A1ECE7FFF
100
AcDbEntity
  8
TEXT
100
AcDbLine
 10
0.6568411301958621
 20
0.3530489249074198
 30
0.0
 11
0.6568411301958621
 21
0.2850374471686092
 31
0.0
  0
LINE
  5
3EF0D9A1ECE7FA9
330
3EF0D9A1ECE7FFF
100
AcDbEntity
  8
TEXT
100
AcDbLine
 10
0.7236498427622271
 20
0.3530489249074198
 30
0.0
 11
0.6568411301958621
 21
0.3530489249074198
 31
0.0
  0
LWPOLYLINE
  5
3EF0D9A1ECE7FAA
330
3EF0D9A1ECE7FFF
100
AcDbEntity
  8
TEXT
100
AcDbPolyline
 90
        3
 70
     0
 43
0.0
 10
1.044061602360229
 20
0.2850374471686128
 10
0.9257614435441849
 20
0.2850374471686128
 10
0.9257614435441849
 20
0.2578699504077169
 42
-1.960274751411753
  0
LINE
  5
3EF0D9A1ECE7FAF
330
3EF0D9A1ECE7FFF
100
AcDbEntity
  8
TEXT
100
AcDbLine
 10
0.8899797528310235
 20
0.2850374471686092
 30
0.0
 11
0.7559616968998873
 21
0.2850374471686092
 31
0.0
  0
LWPOLYLINE
  5
3EF0D9A1ECE7FB0
330
3EF0D9A1ECE7FFF
100
AcDbEntity
  8
TEXT
100
AcDbPolyline
 90
        2
 70
     0
 43
0.0
 10
0.8899797528310235
 20
0.2850374471686128
 42
-0.3328679258950098
 10
0.9257614435441849
 20
0.2578699504077169
 42
6.772930709997214
  0
LINE
  5
3EF0D9A1ECE7FB4
330
3EF0D9A1ECE7FFF
100
AcDbEntity
  8
TEXT
100
AcDbLine
 10
1.079843293073396
 20
0.2850374471686092
 30
0.0
 11
1.079843293073396
 21
0.2567149013989654
 31
0.0
  0
LWPOLYLINE
  5
3EF0D9A1ECE7FB5
330
3EF0D9A1ECE7FFF
100
AcDbEntity
  8
TEXT
100
AcDbPolyline
 90
        2
 70
     0
 43
0.0
 10
1.044061602360229
 20
0.2850374471686128
 42
-0.3277054968067132
 10
1.079843293073394
 20
0.2567149013989689
 42
6.667889725900311
  0
LINE
  5
3EF0D9A1ECE7FB9
330
3EF0D9A1ECE7FFF
100
AcDbEntity
  8
TEXT
100
AcDbLine
 10
1.293635141165496
 20
0.1798254686151819
 30
0.0
 11
1.249884369983594
 21
0.2620757446113271
 31
0.0
  0
LINE
  5
3EF0D9A1ECE7FBA
330
3EF0D9A1ECE7FFF
100
AcDbEntity
  8
TEXT
100
AcDbLine
 10
1.293635141165496
 20
0.2850374471686092
 30
0.0
 11
1.293635141165496
 21
0.1798254686151819
 31
0.0
  0
LINE
  5
3EF0D9A1ECE7FBB
330
3EF0D9A1ECE7FFF
100
AcDbEntity
  8
TEXT
100
AcDbLine
 10
1.521318880103865
 20
0.2091721207570711
 30
0.0
 11
1.521318880103865
 21
0.3505016529362099
 31
0.0
  0
LINE
  5
3EF0D9A1ECE7FBC
330
3EF0D9A1ECE7FFF
100
AcDbEntity
  8
TEXT
100
AcDbLine
 10
1.568417038659849
 20
0.2850374471686092
 30
0.0
 11
1.521318880103865
 21
0.2091721207570711
 31
0.0
  0
LINE
  5
3EF0D9A1ECE7FBD
330
3EF0D9A1ECE7FFF
100
AcDbEntity
  8
TEXT
100
AcDbLine
 10
1.578851755423772
 20
0.1751442042276357
 30
0.0
 11
1.643408871389477
 21
0.2850374471686092
 31
0.0
  0
LINE
  5
3EF0D9A1ECE7FBE
330
3EF0D9A1ECE7FFF
100
AcDbEntity
  8
TEXT
100
AcDbLine
 10
1.457483888881092
 20
0.0185644141800983
 30
0.0
 11
1.521862073199712
 21
0.0185644141800983
 31
0.0
  0
LWPOLYLINE
  5
3EF0D9A1ECE7FBF
330
3EF0D9A1ECE7FFF
100
AcDbEntity
  8
TEXT
100
AcDbPolyline
 90
        2
 70
     0
 43
0.0
 10
1.297574818470534
 20
0.0620553591305364
 42
-0.2901071551932486
 10
1.254498885602889
 20
0.0185644141800983
 42
-5.328517124445184
  0
ARC
  5
3EF0D9A1ECE7FC3
330
3EF0D9A1ECE7FFF
100
AcDbEntity
  8
TEXT
100
AcDbCircle
 10
1.185644303945974
 20
0.1924013775118465
 30
0.0
 40
0.028359375
100
AcDbArc
 50
25.78218179591245
 51
90.0
  0
LINE
  5
3EF0D9A1ECE7FC4
330
3EF0D9A1ECE7FFF
100
AcDbEntity
  8
TEXT
100
AcDbLine
 10
1.221445379250098
 20
0.1834857790497115
 30
0.0
 11
1.211180618836533
 21
0.2047363186224058
 31
0.0
  0
LINE
  5
3EF0D9A1ECE7FC5
330
3EF0D9A1ECE7FFF
100
AcDbEntity
  8
TEXT
100
AcDbLine
 10
1.139157389466714
 20
0.1834857790497115
 30
0.0
 11
1.221445379250098
 21
0.1834857790497115
 31
0.0
  0
LWPOLYLINE
  5
3EF0D9A1ECE7FC6
330
3EF0D9A1ECE7FFF
100
AcDbEntity
  8
TEXT
100
AcDbPolyline
 90
        4
 70
     1
 43
0.0
 10
1.234376420532997
 20
0.1215283921641235
 10
1.145716101873138
 20
0.1215283921641235
 42
0.9999999999999998
 10
1.145716101873138
 20
0.0791298516602628
 10
1.234376420532997
 20
0.0791298516602628
 42
1.0
  0
LWPOLYLINE
  5
3EF0D9A1ECE7FCC
330
3EF0D9A1ECE7FFF
100
AcDbEntity
  8
TEXT
100
AcDbPolyline
 90
        2
 70
     0
 43
0.0
 10
1.120481467971512
 20
0.0185644141800983
 10
1.254498885602889
 20
0.0185644141800983
 42
0.9999999999999998
  0
LINE
  5
3EF0D9A1ECE7FD0
330
3EF0D9A1ECE7FFF
100
AcDbEntity
  8
TEXT
100
AcDbLine
 10
1.380835907588529
 20
0.2207607525118438
 30
0.0
 11
1.457483888881086
 21
0.2207607525118438
 31
0.0
  0
LINE
  5
3EF0D9A1ECE7FD1
330
3EF0D9A1ECE7FFF
100
AcDbEntity
  8
TEXT
100
AcDbLine
 10
1.457483888881086
 20
0.2207607525118438
 30
0.0
 11
1.457483888881092
 21
0.0185644141800983
 31
0.0
  0
ARC
  5
3EF0D9A1ECE7FD2
330
3EF0D9A1ECE7FFF
100
AcDbEntity
  8
TEXT
100
AcDbCircle
 10
1.380835907588527
 20
0.195854877229181
 30
0.0
 40
0.0249058752826653
100
AcDbArc
 50
89.99971217465335
 51
179.9999999999985
  0
LINE
  5
3EF0D9A1ECE7FD3
330
3EF0D9A1ECE7FFF
100
AcDbEntity
  8
TEXT
100
AcDbLine
 10
1.355930032305869
 20
0.0185644141800983
 30
0.0
 11
1.355930032305864
 21
0.1958549196115667
 31
0.0
  0
LWPOLYLINE
  5
3EF0D9A1ECE7FD4
330
3EF0D9A1ECE7FFF
100
AcDbEntity
  8
TEXT
100
AcDbPolyline
 90
        2
 70
     0
 43
0.0
 10
1.297574818470534
 20
0.0185644141800983
 10
1.355930032305868
 20
0.0185644141800983
  0
LWPOLYLINE
  5
3EF0D9A1ECE7FD8
330
3EF0D9A1ECE7FFF
100
AcDbEntity
  8
TEXT
100
AcDbPolyline
 90
        2
 70
     0
 43
0.0
 10
1.297574818470534
 20
0.0620553591305364
 10
1.297574818470534
 20
0.0185644141800983
  0
LINE
  5
3EF0D9A1ECE7FDC
330
3EF0D9A1ECE7FFF
100
AcDbEntity
  8
TEXT
100
AcDbLine
 10
1.674343978787383
 20
0.0185644141800983
 30
0.0
 11
1.578851755423772
 21
0.1751442042276357
 31
0.0
  0
LINE
  5
3EF0D9A1ECE7FDD
330
3EF0D9A1ECE7FFF
100
AcDbEntity
  8
TEXT
100
AcDbLine
 10
1.597765606411177
 20
0.0185644141800983
 30
0.0
 11
1.674343978787383
 21
0.0185644141800983
 31
0.0
  0
LINE
  5
3EF0D9A1ECE7FDE
330
3EF0D9A1ECE7FFF
100
AcDbEntity
  8
TEXT
100
AcDbLine
 10
1.521862073199712
 20
0.1501439826562785
 30
0.0
 11
1.597765606411177
 21
0.0185644141800983
 31
0.0
  0
LINE
  5
3EF0D9A1ECE7FDF
330
3EF0D9A1ECE7FFF
100
AcDbEntity
  8
TEXT
100
AcDbLine
 10
1.521862073199712
 20
0.0185644141800983
 30
0.0
 11
1.521862073199712
 21
0.1501439826562785
 31
0.0
  0
LINE
  5
3EF0D9A1ECE7FE0
330
3EF0D9A1ECE7FFF
100
AcDbEntity
  8
TEXT
100
AcDbLine
 10
1.521318880103865
 20
0.3505016529362099
 30
0.0
 11
1.453004001554591
 21
0.3505016529362099
 31
0.0
  0
ARC
  5
3EF0D9A1ECE7FE1
330
3EF0D9A1ECE7FFF
100
AcDbEntity
  8
TEXT
100
AcDbCircle
 10
1.212648262513385
 20
0.2434538800477068
 30
0.0
 40
0.0416329381542859
100
AcDbArc
 50
26.56974201007528
 51
87.20939649401342
  0
LINE
  5
3EF0D9A1ECE7FE2
330
3EF0D9A1ECE7FFF
100
AcDbEntity
  8
TEXT
100
AcDbLine
 10
1.357532047464997
 20
0.2850374471686092
 30
0.0
 11
1.293635141165496
 21
0.2850374471686092
 31
0.0
  0
LINE
  5
3EF0D9A1ECE7FE3
330
3EF0D9A1ECE7FFF
100
AcDbEntity
  8
TEXT
100
AcDbLine
 10
1.357532047464997
 20
0.2574897973077346
 30
0.0
 11
1.357532047464997
 21
0.2850374471686092
 31
0.0
  0
ARC
  5
3EF0D9A1ECE7FE4
330
3EF0D9A1ECE7FFF
100
AcDbEntity
  8
TEXT
100
AcDbCircle
 10
1.388724864528104
 20
0.2537917198863444
 30
0.0
 40
0.0314112657011332
100
AcDbArc
 50
95.88484768694724
 51
173.2388340632136
  0
LINE
  5
3EF0D9A1ECE7FE5
330
3EF0D9A1ECE7FFF
100
AcDbEntity
  8
TEXT
100
AcDbLine
 10
1.453004001554586
 20
0.2850374471686092
 30
0.0
 11
1.38550428390507
 21
0.2850374471686092
 31
0.0
  0
LINE
  5
3EF0D9A1ECE7FE6
330
3EF0D9A1ECE7FFF
100
AcDbEntity
  8
TEXT
100
AcDbLine
 10
1.453004001554591
 20
0.3505016529362099
 30
0.0
 11
1.453004001554586
 21
0.2850374471686092
 31
0.0
  0
LINE
  5
3EF0D9A1ECE7FE7
330
3EF0D9A1ECE7FFF
100
AcDbEntity
  8
TEXT
100
AcDbLine
 10
1.643408871389477
 20
0.2850374471686092
 30
0.0
 11
1.568417038659851
 21
0.2850374471686092
 31
0.0
  0
ENDSEC
  0
SECTION
  2
OBJECTS
  0
DICTIONARY
  5
3EF0D9A1ECE7FF3
330
0
100
AcDbDictionary
  3
ACAD_GROUP
350
3EF0D9A1ECE7FF4
  3
ACAD_LAYOUT
350
3EF0D9A1ECE8019
  3
ACAD_MLINESTYLE
350
3EF0D9A1ECE7FF5
  3
ACAD_PLOTSETTINGS
350
3EF0D9A1ECE801A
  3
ACAD_PLOTSTYLENAME
350
3EF0D9A1ECE8017
  3
ACDBHEADERROUNDTRIPXREC
350
3EF0D9A1ECE8024
  3
ACDBVARIABLEDICTIONARY
350
3EF0D9A1ECE8021
  0
DICTIONARY
  5
3EF0D9A1ECE8046
330
3EF0D9A1ECE7FFF
100
AcDbDictionary
280
     1
  3
ACAD_LAYOUTSELFREF
360
3EF0D9A1ECE8047
  0
DICTIONARY
  5
3EF0D9A1ECE8044
330
3EF0D9A1ECE7FFC
100
AcDbDictionary
280
     1
  3
ACAD_LAYOUTSELFREF
360
3EF0D9A1ECE8045
  0
DICTIONARY
  5
3EF0D9A1ECE7FF4
102
{ACAD_REACTORS
330
3EF0D9A1ECE7FF3
102
}
330
3EF0D9A1ECE7FF3
100
AcDbDictionary
  0
DICTIONARY
  5
3EF0D9A1ECE8019
102
{ACAD_REACTORS
330
3EF0D9A1ECE7FF3
102
}
330
3EF0D9A1ECE7FF3
100
AcDbDictionary
  0
DICTIONARY
  5
3EF0D9A1ECE7FF5
102
{ACAD_REACTORS
330
3EF0D9A1ECE7FF3
102
}
330
3EF0D9A1ECE7FF3
100
AcDbDictionary
  3
STANDARD
350
3EF0D9A1ECE8002
  0
DICTIONARY
  5
3EF0D9A1ECE801A
102
{ACAD_REACTORS
330
3EF0D9A1ECE7FF3
102
}
330
3EF0D9A1ECE7FF3
100
AcDbDictionary
  0
ACDBDICTIONARYWDFLT
  5
3EF0D9A1ECE8017
102
{ACAD_REACTORS
330
3EF0D9A1ECE7FF3
102
}
330
3EF0D9A1ECE7FF3
100
AcDbDictionary
281
     1
  3
Normal
350
3EF0D9A1ECE8018
100
AcDbDictionaryWithDefault
340
3EF0D9A1ECE8018
  0
DICTIONARY
  5
3EF0D9A1ECE8024
102
{ACAD_REACTORS
330
3EF0D9A1ECE7FF3
102
}
330
3EF0D9A1ECE7FF3
100
AcDbDictionary
  3
CEPSNTYPE
350
3EF0D9A1ECE802E
  3
FINGERPRINTGUID
350
3EF0D9A1ECE802F
  3
HYPERLINKBASE
350
3EF0D9A1ECE8027
  3
INSUNITS
350
3EF0D9A1ECE802D
  3
LAYOUTDICT
350
3EF0D9A1ECE8029
  3
LWETCUNION
350
3EF0D9A1ECE802C
  3
PLOTSETDICT
350
3EF0D9A1ECE802A
  3
PLOTSTYLNAMDICT
350
3EF0D9A1ECE802B
  3
PSVPSCALE
350
3EF0D9A1ECE8031
  3
PUCSBASE
350
3EF0D9A1ECE8034
  3
PUCSORGBACK
350
3EF0D9A1ECE803A
  3
PUCSORGBOTTOM
350
3EF0D9A1ECE8036
  3
PUCSORGFRONT
350
3EF0D9A1ECE8039
  3
PUCSORGLEFT
350
3EF0D9A1ECE8037
  3
PUCSORGRIGHT
350
3EF0D9A1ECE8038
  3
PUCSORGTOP
350
3EF0D9A1ECE8035
  3
PUCSORTHOREF
350
3EF0D9A1ECE8032
  3
PUCSORTHOVIEW
350
3EF0D9A1ECE8033
  3
STYLESHEET
350
3EF0D9A1ECE8028
  3
TSTACKALIGN
350
3EF0D9A1ECE8025
  3
TSTACKSIZE
350
3EF0D9A1ECE8026
  3
UCSBASE
350
3EF0D9A1ECE803D
  3
UCSORGBACK
350
3EF0D9A1ECE8043
  3
UCSORGBOTTOM
350
3EF0D9A1ECE803F
  3
UCSORGFRONT
350
3EF0D9A1ECE8042
  3
UCSORGLEFT
350
3EF0D9A1ECE8040
  3
UCSORGRIGHT
350
3EF0D9A1ECE8041
  3
UCSORGTOP
350
3EF0D9A1ECE803E
  3
UCSORTHOREF
350
3EF0D9A1ECE803B
  3
UCSORTHOVIEW
350
3EF0D9A1ECE803C
  3
VERSIONGUID
350
3EF0D9A1ECE8030
  0
DICTIONARY
  5
3EF0D9A1ECE8021
102
{ACAD_REACTORS
330
3EF0D9A1ECE7FF3
102
}
330
3EF0D9A1ECE7FF3
100
AcDbDictionary
  3
DIMASSOC
350
3EF0D9A1ECE8022
  0
XRECORD
  5
3EF0D9A1ECE8047
102
{ACAD_REACTORS
330
3EF0D9A1ECE8046
102
}
330
3EF0D9A1ECE8046
100
AcDbXrecord
340
3EF0D9A1ECE7FFF
  0
XRECORD
  5
3EF0D9A1ECE8045
102
{ACAD_REACTORS
330
3EF0D9A1ECE8044
102
}
330
3EF0D9A1ECE8044
100
AcDbXrecord
340
3EF0D9A1ECE7FFC
  0
MLINESTYLE
  5
3EF0D9A1ECE8002
102
{ACAD_REACTORS
330
3EF0D9A1ECE7FF5
102
}
330
3EF0D9A1ECE7FF5
100
AcDbMlineStyle
  2
STANDARD
 70
     0
  3

 62
     0
 51
90.0
 52
90.0
 71
     2
 49
0.5
 62
   256
  6
BYLAYER
 49
-0.5
 62
   256
  6
BYLAYER
  0
ACDBPLACEHOLDER
  5
3EF0D9A1ECE8018
102
{ACAD_REACTORS
330
3EF0D9A1ECE8017
102
}
330
3EF0D9A1ECE8017
100
AcDbPlaceHolder
280
     0
  0
XRECORD
  5
3EF0D9A1ECE802E
102
{ACAD_REACTORS
330
3EF0D9A1ECE8024
102
}
330
3EF0D9A1ECE8024
100
AcDbXrecord
 90
        0
  0
XRECORD
  5
3EF0D9A1ECE802F
102
{ACAD_REACTORS
330
3EF0D9A1ECE8024
102
}
330
3EF0D9A1ECE8024
100
AcDbXrecord
  1
{1ECC00E0-8DB4-11D6-88E6-0090279574E7}
  0
XRECORD
  5
3EF0D9A1ECE8027
102
{ACAD_REACTORS
330
3EF0D9A1ECE8024
102
}
330
3EF0D9A1ECE8024
100
AcDbXrecord
  1

  0
XRECORD
  5
3EF0D9A1ECE802D
102
{ACAD_REACTORS
330
3EF0D9A1ECE8024
102
}
330
3EF0D9A1ECE8024
100
AcDbXrecord
 90
        0
  0
XRECORD
  5
3EF0D9A1ECE8029
102
{ACAD_REACTORS
330
3EF0D9A1ECE8024
102
}
330
3EF0D9A1ECE8024
100
AcDbXrecord
340
3EF0D9A1ECE8019
  0
XRECORD
  5
3EF0D9A1ECE802C
102
{ACAD_REACTORS
330
3EF0D9A1ECE8024
102
}
330
3EF0D9A1ECE8024
100
AcDbXrecord
 90
    14877
  0
XRECORD
  5
3EF0D9A1ECE802A
102
{ACAD_REACTORS
330
3EF0D9A1ECE8024
102
}
330
3EF0D9A1ECE8024
100
AcDbXrecord
340
3EF0D9A1ECE801A
  0
XRECORD
  5
3EF0D9A1ECE802B
102
{ACAD_REACTORS
330
3EF0D9A1ECE8024
102
}
330
3EF0D9A1ECE8024
100
AcDbXrecord
340
3EF0D9A1ECE8017
  0
XRECORD
  5
3EF0D9A1ECE8031
102
{ACAD_REACTORS
330
3EF0D9A1ECE8024
102
}
330
3EF0D9A1ECE8024
100
AcDbXrecord
 40
0.0
  0
XRECORD
  5
3EF0D9A1ECE8034
102
{ACAD_REACTORS
330
3EF0D9A1ECE8024
102
}
330
3EF0D9A1ECE8024
100
AcDbXrecord
340
0
  0
XRECORD
  5
3EF0D9A1ECE803A
102
{ACAD_REACTORS
330
3EF0D9A1ECE8024
102
}
330
3EF0D9A1ECE8024
100
AcDbXrecord
 10
0.0
 20
0.0
 30
0.0
  0
XRECORD
  5
3EF0D9A1ECE8036
102
{ACAD_REACTORS
330
3EF0D9A1ECE8024
102
}
330
3EF0D9A1ECE8024
100
AcDbXrecord
 10
0.0
 20
0.0
 30
0.0
  0
XRECORD
  5
3EF0D9A1ECE8039
102
{ACAD_REACTORS
330
3EF0D9A1ECE8024
102
}
330
3EF0D9A1ECE8024
100
AcDbXrecord
 10
0.0
 20
0.0
 30
0.0
  0
XRECORD
  5
3EF0D9A1ECE8037
102
{ACAD_REACTORS
330
3EF0D9A1ECE8024
102
}
330
3EF0D9A1ECE8024
100
AcDbXrecord
 10
0.0
 20
0.0
 30
0.0
  0
XRECORD
  5
3EF0D9A1ECE8038
102
{ACAD_REACTORS
330
3EF0D9A1ECE8024
102
}
330
3EF0D9A1ECE8024
100
AcDbXrecord
 10
0.0
 20
0.0
 30
0.0
  0
XRECORD
  5
3EF0D9A1ECE8035
102
{ACAD_REACTORS
330
3EF0D9A1ECE8024
102
}
330
3EF0D9A1ECE8024
100
AcDbXrecord
 10
0.0
 20
0.0
 30
0.0
  0
XRECORD
  5
3EF0D9A1ECE8032
102
{ACAD_REACTORS
330
3EF0D9A1ECE8024
102
}
330
3EF0D9A1ECE8024
100
AcDbXrecord
340
0
  0
XRECORD
  5
3EF0D9A1ECE8033
102
{ACAD_REACTORS
330
3EF0D9A1ECE8024
102
}
330
3EF0D9A1ECE8024
100
AcDbXrecord
 70
     0
  0
XRECORD
  5
3EF0D9A1ECE8028
102
{ACAD_REACTORS
330
3EF0D9A1ECE8024
102
}
330
3EF0D9A1ECE8024
100
AcDbXrecord
  1

  0
XRECORD
  5
3EF0D9A1ECE8025
102
{ACAD_REACTORS
330
3EF0D9A1ECE8024
102
}
330
3EF0D9A1ECE8024
100
AcDbXrecord
 90
        1
  0
XRECORD
  5
3EF0D9A1ECE8026
102
{ACAD_REACTORS
330
3EF0D9A1ECE8024
102
}
330
3EF0D9A1ECE8024
100
AcDbXrecord
 90
       70
  0
XRECORD
  5
3EF0D9A1ECE803D
102
{ACAD_REACTORS
330
3EF0D9A1ECE8024
102
}
330
3EF0D9A1ECE8024
100
AcDbXrecord
340
0
  0
XRECORD
  5
3EF0D9A1ECE8043
102
{ACAD_REACTORS
330
3EF0D9A1ECE8024
102
}
330
3EF0D9A1ECE8024
100
AcDbXrecord
 10
0.0
 20
0.0
 30
0.0
  0
XRECORD
  5
3EF0D9A1ECE803F
102
{ACAD_REACTORS
330
3EF0D9A1ECE8024
102
}
330
3EF0D9A1ECE8024
100
AcDbXrecord
 10
0.0
 20
0.0
 30
0.0
  0
XRECORD
  5
3EF0D9A1ECE8042
102
{ACAD_REACTORS
330
3EF0D9A1ECE8024
102
}
330
3EF0D9A1ECE8024
100
AcDbXrecord
 10
0.0
 20
0.0
 30
0.0
  0
XRECORD
  5
3EF0D9A1ECE8040
102
{ACAD_REACTORS
330
3EF0D9A1ECE8024
102
}
330
3EF0D9A1ECE8024
100
AcDbXrecord
 10
0.0
 20
0.0
 30
0.0
  0
XRECORD
  5
3EF0D9A1ECE8041
102
{ACAD_REACTORS
330
3EF0D9A1ECE8024
102
}
330
3EF0D9A1ECE8024
100
AcDbXrecord
 10
0.0
 20
0.0
 30
0.0
  0
XRECORD
  5
3EF0D9A1ECE803E
102
{ACAD_REACTORS
330
3EF0D9A1ECE8024
102
}
330
3EF0D9A1ECE8024
100
AcDbXrecord
 10
0.0
 20
0.0
 30
0.0
  0
XRECORD
  5
3EF0D9A1ECE803B
102
{ACAD_REACTORS
330
3EF0D9A1ECE8024
102
}
330
3EF0D9A1ECE8024
100
AcDbXrecord
340
0
  0
XRECORD
  5
3EF0D9A1ECE803C
102
{ACAD_REACTORS
330
3EF0D9A1ECE8024
102
}
330
3EF0D9A1ECE8024
100
AcDbXrecord
 70
     0
  0
XRECORD
  5
3EF0D9A1ECE8030
102
{ACAD_REACTORS
330
3EF0D9A1ECE8024
102
}
330
3EF0D9A1ECE8024
100
AcDbXrecord
  1
{1ECC00E2-8DB4-11D6-88E6-0090279574E7}
  0
DICTIONARYVAR
  5
3EF0D9A1ECE8022
102
{ACAD_REACTORS
330
3EF0D9A1ECE8021
102
}
330
3EF0D9A1ECE8021
100
DictionaryVariables
280
     0
  1
1
  0
ENDSEC
  0
EOF
