  0
SECTION
  2
HEADER
  9
$ACADVER
  1
AC1014
  9
$ACADMAINTVER
 70
     9
  9
$DWGCODEPAGE
  3
ANSI_1252
  9
$INSBASE
 10
2.71875
 20
1.822499999999999
 30
0.0
  9
$EXTMIN
 10
0.9757684207728567
 20
1.036356395917418
 30
0.0
  9
$EXTMAX
 10
4.460987742519986
 20
2.346986043456039
 30
0.0
  9
$LIMMIN
 10
0.0
 20
0.0
  9
$LIMMAX
 10
18.0
 20
12.0
  9
$ORTHOMODE
 70
     1
  9
$REGENMODE
 70
     1
  9
$FILLMODE
 70
     1
  9
$QTEXTMODE
 70
     0
  9
$MIRRTEXT
 70
     0
  9
$DRAGMODE
 70
     2
  9
$LTSCALE
 40
1.0
  9
$OSMODE
 70
    39
  9
$ATTMODE
 70
     1
  9
$TEXTSIZE
 40
0.125
  9
$TRACEWID
 40
0.05
  9
$TEXTSTYLE
  7
ROMANS
  9
$CLAYER
  8
0
  9
$CELTYPE
  6
BYLAYER
  9
$CECOLOR
 62
   256
  9
$CELTSCALE
 40
1.0
  9
$DELOBJ
 70
     1
  9
$DISPSILH
 70
     1
  9
$DIMSCALE
 40
1.0
  9
$DIMASZ
 40
0.125
  9
$DIMEXO
 40
0.125
  9
$DIMDLI
 40
0.375
  9
$DIMRND
 40
0.0
  9
$DIMDLE
 40
0.0
  9
$DIMEXE
 40
0.125
  9
$DIMTP
 40
0.0
  9
$DIMTM
 40
0.0
  9
$DIMTXT
 40
0.125
  9
$DIMCEN
 40
-0.125
  9
$DIMTSZ
 40
0.0
  9
$DIMTOL
 70
     0
  9
$DIMLIM
 70
     0
  9
$DIMTIH
 70
     1
  9
$DIMTOH
 70
     1
  9
$DIMSE1
 70
     0
  9
$DIMSE2
 70
     0
  9
$DIMTAD
 70
     0
  9
$DIMZIN
 70
     4
  9
$DIMBLK
  1

  9
$DIMASO
 70
     1
  9
$DIMSHO
 70
     1
  9
$DIMPOST
  1

  9
$DIMAPOST
  1

  9
$DIMALT
 70
     0
  9
$DIMALTD
 70
     2
  9
$DIMALTF
 40
25.4
  9
$DIMLFAC
 40
1.0
  9
$DIMTOFL
 70
     0
  9
$DIMTVP
 40
0.0
  9
$DIMTIX
 70
     1
  9
$DIMSOXD
 70
     0
  9
$DIMSAH
 70
     0
  9
$DIMBLK1
  1

  9
$DIMBLK2
  1

  9
$DIMSTYLE
  2
STANDARD
  9
$DIMCLRD
 70
     0
  9
$DIMCLRE
 70
     0
  9
$DIMCLRT
 70
     0
  9
$DIMTFAC
 40
1.0
  9
$DIMGAP
 40
0.09
  9
$DIMJUST
 70
     0
  9
$DIMSD1
 70
     0
  9
$DIMSD2
 70
     0
  9
$DIMTOLJ
 70
     1
  9
$DIMTZIN
 70
     4
  9
$DIMALTZ
 70
     0
  9
$DIMALTTZ
 70
     0
  9
$DIMFIT
 70
     3
  9
$DIMUPT
 70
     0
  9
$DIMUNIT
 70
     2
  9
$DIMDEC
 70
     3
  9
$DIMTDEC
 70
     3
  9
$DIMALTU
 70
     2
  9
$DIMALTTD
 70
     2
  9
$DIMTXSTY
  7
ROMANS
  9
$DIMAUNIT
 70
     0
  9
$LUNITS
 70
     2
  9
$LUPREC
 70
     3
  9
$SKETCHINC
 40
0.1
  9
$FILLETRAD
 40
0.03125
  9
$AUNITS
 70
     0
  9
$AUPREC
 70
     0
  9
$MENU
  1
ACAD
  9
$ELEVATION
 40
0.0
  9
$PELEVATION
 40
0.0
  9
$THICKNESS
 40
0.0
  9
$LIMCHECK
 70
     0
  9
$BLIPMODE
 70
     0
  9
$CHAMFERA
 40
0.0
  9
$CHAMFERB
 40
0.0
  9
$CHAMFERC
 40
0.0
  9
$CHAMFERD
 40
0.0
  9
$SKPOLY
 70
     0
  9
$TDCREATE
 40
2448994.302640624
  9
$TDUPDATE
 40
2452458.296017522
  9
$TDINDWG
 40
0.0009314468
  9
$TDUSRTIMER
 40
0.0009314468
  9
$USRTIMER
 70
     1
  9
$ANGBASE
 50
0.0
  9
$ANGDIR
 70
     0
  9
$PDMODE
 70
     0
  9
$PDSIZE
 40
0.0
  9
$PLINEWID
 40
0.0
  9
$COORDS
 70
     2
  9
$SPLFRAME
 70
     0
  9
$SPLINETYPE
 70
     6
  9
$SPLINESEGS
 70
     8
  9
$ATTDIA
 70
     0
  9
$ATTREQ
 70
     1
  9
$HANDLING
 70
 22529
  9
$HANDSEED
  5
3EF0D9A1ECE7BF7
  9
$SURFTAB1
 70
     6
  9
$SURFTAB2
 70
     6
  9
$SURFTYPE
 70
     6
  9
$SURFU
 70
     6
  9
$SURFV
 70
     6
  9
$UCSNAME
  2

  9
$UCSORG
 10
0.0
 20
0.0
 30
0.0
  9
$UCSXDIR
 10
1.0
 20
0.0
 30
0.0
  9
$UCSYDIR
 10
0.0
 20
1.0
 30
0.0
  9
$PUCSNAME
  2

  9
$PUCSORG
 10
0.0
 20
0.0
 30
0.0
  9
$PUCSXDIR
 10
1.0
 20
0.0
 30
0.0
  9
$PUCSYDIR
 10
0.0
 20
1.0
 30
0.0
  9
$USERI1
 70
     0
  9
$USERI2
 70
     0
  9
$USERI3
 70
     0
  9
$USERI4
 70
     0
  9
$USERI5
 70
     0
  9
$USERR1
 40
0.0
  9
$USERR2
 40
0.0
  9
$USERR3
 40
0.0
  9
$USERR4
 40
0.0
  9
$USERR5
 40
0.0
  9
$WORLDVIEW
 70
     1
  9
$SHADEDGE
 70
     3
  9
$SHADEDIF
 70
    70
  9
$TILEMODE
 70
     1
  9
$MAXACTVP
 70
    16
  9
$PINSBASE
 10
1.136428117050006
 20
50.00000000000001
 30
1.746951209405215
  9
$PLIMCHECK
 70
     0
  9
$PEXTMIN
 10
1.000000000000000E+20
 20
1.000000000000000E+20
 30
1.000000000000000E+20
  9
$PEXTMAX
 10
-1.000000000000000E+20
 20
-1.000000000000000E+20
 30
-1.000000000000000E+20
  9
$PLIMMIN
 10
0.0
 20
0.0
  9
$PLIMMAX
 10
12.0
 20
9.0
  9
$UNITMODE
 70
     0
  9
$VISRETAIN
 70
     0
  9
$PLINEGEN
 70
     1
  9
$PSLTSCALE
 70
     0
  9
$TREEDEPTH
 70
  3020
  9
$PICKSTYLE
 70
     1
  9
$CMLSTYLE
  2
STANDARD
  9
$CMLJUST
 70
     0
  9
$CMLSCALE
 40
1.0
  9
$PROXYGRAPHICS
 70
     1
  9
$MEASUREMENT
 70
     0
  0
ENDSEC
  0
SECTION
  2
CLASSES
  0
CLASS
  1
LWPOLYLINE
  2
AcDbPolyline
  3
AutoCAD 2000
 90
        0
280
     0
281
     1
  0
CLASS
  1
ACDBDICTIONARYWDFLT
  2
AcDbDictionaryWithDefault
  3
AutoCAD 2000
 90
        0
280
     0
281
     0
  0
CLASS
  1
ACDBPLACEHOLDER
  2
AcDbPlaceHolder
  3
AutoCAD 2000
 90
        0
280
     0
281
     0
  0
CLASS
  1
LAYOUT
  2
AcDbLayout
  3
AutoCAD 2000
 90
        0
280
     0
281
     0
  0
CLASS
  1
DICTIONARYVAR
  2
AcDbDictionaryVar
  3
AutoCAD 2000
 90
        0
280
     0
281
     0
  0
CLASS
  1
LONG_TRANSACTION
  2
AcDbLongTransaction
  3
AutoCAD 2000
 90
        0
280
     0
281
     0
  0
CLASS
  1
LWPOLYLINE
  2
AcDbPolyline
  3
AutoCAD 2000
 90
        0
280
     0
281
     1
  0
CLASS
  1
HATCH
  2
AcDbHatch
  3
AutoCAD 2000
 90
        0
280
     0
281
     1
  0
CLASS
  1
XRECORD
  2
AcDbXrecord
  3
AutoCAD 2000
 90
        0
280
     0
281
     0
  0
ENDSEC
  0
SECTION
  2
TABLES
  0
TABLE
  2
VPORT
  5
3EF0D9A1ECE7B9E
330
0
100
AcDbSymbolTable
 70
     2
  0
VPORT
  5
3EF0D9A1ECE7BD2
330
3EF0D9A1ECE7B9E
100
AcDbSymbolTableRecord
100
AcDbViewportTableRecord
  2
*ACTIVE
 70
     0
 10
0.0
 20
0.0
 11
1.0
 21
1.0
 12
5.69421657265821
 22
1.691528343236456
 13
0.0
 23
0.0
 14
0.015625
 24
0.015625
 15
0.0
 25
0.0
 16
0.0
 26
0.0
 36
1.0
 17
0.0
 27
0.0
 37
0.0
 40
2.282647215150728
 41
4.320930232558139
 42
50.0
 43
0.0
 44
0.0
 50
0.0
 51
0.0
 71
     0
 72
  2000
 73
     1
 74
     0
 75
     1
 76
     0
 77
     0
 78
     0
  0
ENDTAB
  0
TABLE
  2
LTYPE
  5
3EF0D9A1ECE7B9B
330
0
100
AcDbSymbolTable
 70
     1
  0
LTYPE
  5
3EF0D9A1ECE7BA8
330
3EF0D9A1ECE7B9B
100
AcDbSymbolTableRecord
100
AcDbLinetypeTableRecord
  2
BYBLOCK
 70
     0
  3

 72
    65
 73
     0
 40
0.0
  0
LTYPE
  5
3EF0D9A1ECE7BA9
330
3EF0D9A1ECE7B9B
100
AcDbSymbolTableRecord
100
AcDbLinetypeTableRecord
  2
BYLAYER
 70
     0
  3

 72
    65
 73
     0
 40
0.0
  0
LTYPE
  5
3EF0D9A1ECE7BAA
330
3EF0D9A1ECE7B9B
100
AcDbSymbolTableRecord
100
AcDbLinetypeTableRecord
  2
CONTINUOUS
 70
     0
  3
Solid line
 72
    65
 73
     0
 40
0.0
  0
ENDTAB
  0
TABLE
  2
LAYER
  5
3EF0D9A1ECE7B98
330
0
100
AcDbSymbolTable
 70
     2
  0
LAYER
  5
3EF0D9A1ECE7BA5
330
3EF0D9A1ECE7B98
100
AcDbSymbolTableRecord
100
AcDbLayerTableRecord
  2
0
 70
     0
 62
     7
  6
CONTINUOUS
  0
LAYER
  5
3EF0D9A1ECE7BB5
330
3EF0D9A1ECE7B98
100
AcDbSymbolTableRecord
100
AcDbLayerTableRecord
  2
TEXT
 70
     0
 62
     3
  6
CONTINUOUS
  0
ENDTAB
  0
TABLE
  2
STYLE
  5
3EF0D9A1ECE7B99
330
0
100
AcDbSymbolTable
 70
     3
  0
STYLE
  5
3EF0D9A1ECE7BA6
330
3EF0D9A1ECE7B99
100
AcDbSymbolTableRecord
100
AcDbTextStyleTableRecord
  2
STANDARD
 70
     0
 40
0.0
 41
1.0
 50
0.0
 71
     0
 42
0.3125
  3
txt
  4

  0
STYLE
  5
3EF0D9A1ECE7BB2
330
3EF0D9A1ECE7B99
100
AcDbSymbolTableRecord
100
AcDbTextStyleTableRecord
  2
ITALICC
 70
     0
 40
0.0
 41
1.0
 50
0.0
 71
     0
 42
0.125
  3
italicc
  4

  0
STYLE
  5
3EF0D9A1ECE7BC2
330
3EF0D9A1ECE7B99
100
AcDbSymbolTableRecord
100
AcDbTextStyleTableRecord
  2
ROMANS
 70
     0
 40
0.0
 41
1.0
 50
0.0
 71
     0
 42
0.125
  3
romans.shx
  4

  0
ENDTAB
  0
TABLE
  2
VIEW
  5
3EF0D9A1ECE7B9C
330
0
100
AcDbSymbolTable
 70
     0
  0
ENDTAB
  0
TABLE
  2
UCS
  5
3EF0D9A1ECE7B9D
330
0
100
AcDbSymbolTable
 70
     0
  0
ENDTAB
  0
TABLE
  2
APPID
  5
3EF0D9A1ECE7B9F
330
0
100
AcDbSymbolTable
 70
     1
  0
APPID
  5
3EF0D9A1ECE7BA7
330
3EF0D9A1ECE7B9F
100
AcDbSymbolTableRecord
100
AcDbRegAppTableRecord
  2
ACAD
 70
     0
  0
ENDTAB
  0
TABLE
  2
DIMSTYLE
  5
3EF0D9A1ECE7BA0
330
0
100
AcDbSymbolTable
 70
     1
  0
DIMSTYLE
105
3EF0D9A1ECE7BBA
330
3EF0D9A1ECE7BA0
100
AcDbSymbolTableRecord
100
AcDbDimStyleTableRecord
  2
STANDARD
 70
     0
  3

  4

  5

  6

  7

 40
1.0
 41
0.125
 42
0.125
 43
0.375
 44
0.125
 45
0.0
 46
0.0
 47
0.0
 48
0.0
140
0.125
141
-0.125
142
0.0
143
25.4
144
1.0
145
0.0
146
1.0
147
0.09
 71
     0
 72
     0
 73
     1
 74
     1
 75
     0
 76
     0
 77
     0
 78
     4
170
     0
171
     2
172
     0
173
     0
174
     1
175
     0
176
     0
177
     0
178
     0
270
     2
271
     3
272
     3
273
     2
274
     2
340
3EF0D9A1ECE7BC2
275
     0
280
     0
281
     0
282
     0
283
     1
284
     4
285
     0
286
     0
287
     3
288
     0
  0
ENDTAB
  0
TABLE
  2
BLOCK_RECORD
  5
3EF0D9A1ECE7B97
330
0
100
AcDbSymbolTable
 70
     0
  0
BLOCK_RECORD
  5
3EF0D9A1ECE7BAE
102
{ACAD_XDICTIONARY
360
3EF0D9A1ECE7BF5
102
}
330
3EF0D9A1ECE7B97
100
AcDbSymbolTableRecord
100
AcDbBlockTableRecord
  2
*MODEL_SPACE
  0
BLOCK_RECORD
  5
3EF0D9A1ECE7BAB
102
{ACAD_XDICTIONARY
360
3EF0D9A1ECE7BF3
102
}
330
3EF0D9A1ECE7B97
100
AcDbSymbolTableRecord
100
AcDbBlockTableRecord
  2
*PAPER_SPACE
  0
ENDTAB
  0
ENDSEC
  0
SECTION
  2
BLOCKS
  0
BLOCK
  5
3EF0D9A1ECE7BB8
330
3EF0D9A1ECE7BAE
100
AcDbEntity
  8
0
100
AcDbBlockBegin
  2
*MODEL_SPACE
 70
     0
 10
0.0
 20
0.0
 30
0.0
  3
*MODEL_SPACE
  1

  0
ENDBLK
  5
3EF0D9A1ECE7BB9
330
3EF0D9A1ECE7BAE
100
AcDbEntity
  8
0
100
AcDbBlockEnd
  0
BLOCK
  5
3EF0D9A1ECE7BB6
330
3EF0D9A1ECE7BAB
100
AcDbEntity
 67
     1
  8
0
100
AcDbBlockBegin
  2
*PAPER_SPACE
 70
     0
 10
0.0
 20
0.0
 30
0.0
  3
*PAPER_SPACE
  1

  0
ENDBLK
  5
3EF0D9A1ECE7BB7
330
3EF0D9A1ECE7BAB
100
AcDbEntity
 67
     1
  8
0
100
AcDbBlockEnd
  0
ENDSEC
  0
SECTION
  2
ENTITIES
  0
LWPOLYLINE
  5
3EF0D9A1ECE658A
330
3EF0D9A1ECE7BAE
100
AcDbEntity
  8
0
100
AcDbPolyline
 90
       34
 70
     1
 43
0.0
 10
2.70875
 20
1.8125
 10
2.71875
 20
1.822499999999999
 10
2.728749999999999
 20
1.8125
 10
3.109375
 20
1.8125
 10
3.109375
 20
1.796875
 10
3.171875
 20
1.796875
 10
3.171875
 20
2.328125
 42
0.4142135623730951
 10
3.15625
 20
2.34375
 10
3.125
 20
2.34375
 42
0.4142135623730951
 10
3.109375
 20
2.328125
 10
3.109375
 20
1.875
 10
3.046875
 20
1.875
 10
3.046875
 20
2.03125
 10
2.984375
 20
2.03125
 10
2.984375
 20
1.875
 10
2.921875
 20
1.875
 10
2.921875
 20
2.03125
 10
2.859375
 20
2.03125
 10
2.859375
 20
1.875
 10
2.689624999999999
 20
1.875
 10
2.669624999999999
 20
1.913999999999999
 10
2.689625
 20
1.953125
 10
2.656943423732229
 20
1.992073385928757
 42
0.6370702608074898
 10
2.618091664860312
 20
1.981663088514498
 10
2.59928408450951
 20
1.874999999999999
 10
2.370965915490489
 20
1.875
 10
2.353832618595422
 20
1.972167755191105
 42
0.6370702608074968
 10
2.294862400789969
 20
1.987968777429563
 10
2.265625
 20
1.953125
 10
2.300625
 20
1.913999999999999
 10
2.265625
 20
1.875
 10
2.265625
 20
1.796875
 10
2.328125
 20
1.796875
 10
2.328125
 20
1.8125
  0
TEXT
  5
3EF0D9A1ECE7A59
330
3EF0D9A1ECE7BAE
100
AcDbEntity
  8
TEXT
100
AcDbText
 10
1.965773809523809
 20
1.494374999999999
 30
0.0
 40
0.125
  1
PART #110124
  7
ITALICC
 72
     1
 11
2.71875
 21
1.494374999999999
 31
0.0
100
AcDbText
  0
TEXT
  5
3EF0D9A1ECE7A5A
330
3EF0D9A1ECE7BAE
100
AcDbEntity
  8
TEXT
100
AcDbText
 10
3.13205515825032
 20
1.047452357327624
 30
0.0
 40
0.0522247191011236
  1
Phone  1-800-328-2495
 41
1.272321428571429
 72
     5
 11
4.460987742519984
 21
1.047452357327624
 31
0.0
100
AcDbText
  0
TEXT
  5
3EF0D9A1ECE7A5B
330
3EF0D9A1ECE7BAE
100
AcDbEntity
  8
TEXT
100
AcDbText
 10
3.13205515825032
 20
1.327227638226501
 30
0.0
 40
0.0522247191011236
  1
Stylmark  Incorporated
 41
1.221428571428573
 72
     5
 11
4.460987742519984
 21
1.327227638226501
 31
0.0
100
AcDbText
  0
TEXT
  5
3EF0D9A1ECE7A5C
330
3EF0D9A1ECE7BAE
100
AcDbEntity
  8
TEXT
100
AcDbText
 10
3.13205515825032
 20
1.233969211260209
 30
0.0
 40
0.0522247191011236
  1
6536 Main St. N.E. * P.O. Box 32008
 41
0.8388932496075366
 72
     5
 11
4.460987742519984
 21
1.233969211260209
 31
0.0
100
AcDbText
  0
TEXT
  5
3EF0D9A1ECE7A5D
330
3EF0D9A1ECE7BAE
100
AcDbEntity
  8
TEXT
100
AcDbText
 10
3.13205515825032
 20
1.140710784293917
 30
0.0
 40
0.0522247191011236
  1
Minneapolis, MN 55432-0008
 41
1.11444212721585
 72
     5
 11
4.460987742519984
 21
1.140710784293917
 31
0.0
100
AcDbText
  0
LWPOLYLINE
  5
3EF0D9A1ECE7A5E
330
3EF0D9A1ECE7BAE
100
AcDbEntity
  8
TEXT
100
AcDbPolyline
 90
        3
 70
     0
 43
0.0006660908203125
 10
0.9761014661830129
 20
1.161097119965059
 10
0.9761014661830129
 20
1.047861680511932
 10
1.089336905636135
 20
1.047861680511932
  0
LWPOLYLINE
  5
3EF0D9A1ECE7A63
330
3EF0D9A1ECE7BAE
100
AcDbEntity
  8
TEXT
100
AcDbPolyline
 90
        3
 70
     0
 43
0.0006660908203125
 10
1.00274509899551
 20
1.161097119965059
 10
1.00274509899551
 20
1.074505313324433
 10
1.089336905636135
 20
1.074505313324433
  0
LWPOLYLINE
  5
3EF0D9A1ECE7A68
330
3EF0D9A1ECE7BAE
100
AcDbEntity
  8
TEXT
100
AcDbPolyline
 90
        2
 70
     0
 43
0.0001332181640625
 10
1.049371456417387
 20
1.171088482269744
 10
0.9761014661830129
 20
1.161097119965059
  0
LWPOLYLINE
  5
3EF0D9A1ECE7A6C
330
3EF0D9A1ECE7BAE
100
AcDbEntity
  8
TEXT
100
AcDbPolyline
 90
        2
 70
     0
 43
0.0001332181640625
 10
1.00274509899551
 20
1.161097119965059
 10
1.062693272823637
 20
1.171088482269744
  0
LWPOLYLINE
  5
3EF0D9A1ECE7A70
330
3EF0D9A1ECE7BAE
100
AcDbEntity
  8
TEXT
100
AcDbPolyline
 90
        2
 70
     0
 43
0.0001332181640625
 10
1.00274509899551
 20
1.074505313324433
 10
1.062693272823637
 20
1.134453487152558
  0
LWPOLYLINE
  5
3EF0D9A1ECE7A74
330
3EF0D9A1ECE7BAE
100
AcDbEntity
  8
TEXT
100
AcDbPolyline
 90
        3
 70
     0
 43
0.0006660908203125
 10
1.089336905636135
 20
1.314298008636935
 10
0.9761014661830129
 20
1.314298008636935
 10
0.9761014661830129
 20
1.201062569183807
  0
LWPOLYLINE
  5
3EF0D9A1ECE7A79
330
3EF0D9A1ECE7BAE
100
AcDbEntity
  8
TEXT
100
AcDbPolyline
 90
        3
 70
     0
 43
0.0006660908203125
 10
1.089336905636135
 20
1.287654375824434
 10
1.00274509899551
 20
1.287654375824434
 10
1.00274509899551
 20
1.201062569183807
  0
LWPOLYLINE
  5
3EF0D9A1ECE7A7E
330
3EF0D9A1ECE7BAE
100
AcDbEntity
  8
TEXT
100
AcDbPolyline
 90
        2
 70
     0
 43
0.0001332181640625
 10
1.00274509899551
 20
1.287654375824434
 10
1.062693272823636
 20
1.227706201996308
  0
LWPOLYLINE
  5
3EF0D9A1ECE7A82
330
3EF0D9A1ECE7BAE
100
AcDbEntity
  8
TEXT
100
AcDbPolyline
 90
        2
 70
     0
 43
0.0001332181640625
 10
1.00274509899551
 20
1.201062569183807
 10
1.062693272823636
 20
1.191071206879118
  0
LWPOLYLINE
  5
3EF0D9A1ECE7A86
330
3EF0D9A1ECE7BAE
100
AcDbEntity
  8
TEXT
100
AcDbPolyline
 90
        2
 70
     0
 43
0.0001332181640625
 10
0.9761014661830129
 20
1.201062569183807
 10
1.049371456417387
 20
1.191071206879118
  0
LWPOLYLINE
  5
3EF0D9A1ECE7A8A
330
3EF0D9A1ECE7BAE
100
AcDbEntity
  8
TEXT
100
AcDbPolyline
 90
        2
 70
     0
 43
0.0006660908203125
 10
1.00274509899551
 20
1.161097119965059
 10
0.9761014661830129
 20
1.161097119965059
  0
LWPOLYLINE
  5
3EF0D9A1ECE7A8E
330
3EF0D9A1ECE7BAE
100
AcDbEntity
  8
TEXT
100
AcDbPolyline
 90
        2
 70
     0
 43
0.0006660908203125
 10
1.00274509899551
 20
1.201062569183807
 10
0.9761014661830129
 20
1.201062569183807
  0
LINE
  5
3EF0D9A1ECE7A92
330
3EF0D9A1ECE7BAE
100
AcDbEntity
  8
TEXT
100
AcDbLine
 10
2.49129189530951
 20
1.250021313980166
 30
0.0
 11
2.384085621922221
 21
1.250021313980166
 31
0.0
  0
LINE
  5
3EF0D9A1ECE7A93
330
3EF0D9A1ECE7BAE
100
AcDbEntity
  8
TEXT
100
AcDbLine
 10
2.520322793653988
 20
1.314298008636931
 30
0.0
 11
2.385490884436929
 21
1.314298008636931
 31
0.0
  0
ARC
  5
3EF0D9A1ECE7A94
330
3EF0D9A1ECE7BAE
100
AcDbEntity
  8
TEXT
100
AcDbCircle
 10
2.444804980830246
 20
1.145060759373915
 30
0.0
 40
0.0676855811441166
100
AcDbArc
 50
90.0
 51
153.7768192527749
  0
LWPOLYLINE
  5
3EF0D9A1ECE7A95
330
3EF0D9A1ECE7BAE
100
AcDbEntity
  8
TEXT
100
AcDbPolyline
 90
        2
 70
     0
 43
0.0
 10
2.383053126467411
 20
1.091315920598858
 42
0.2901071551932823
 10
2.426129059335046
 20
1.04782497564842
 42
5.328517124445801
  0
ARC
  5
3EF0D9A1ECE7A99
330
3EF0D9A1ECE7BAE
100
AcDbEntity
  8
TEXT
100
AcDbCircle
 10
1.73967360315876
 20
1.10761736698647
 30
0.0
 40
0.0601160179737537
100
AcDbArc
 50
180.0000000000003
 51
264.0521544866073
  0
LINE
  5
3EF0D9A1ECE7A9A
330
3EF0D9A1ECE7BAE
100
AcDbEntity
  8
TEXT
100
AcDbLine
 10
1.743188958784308
 20
1.348685926231069
 30
0.0
 11
1.683146353940301
 21
1.348685926231069
 31
0.0
  0
ARC
  5
3EF0D9A1ECE7A9B
330
3EF0D9A1ECE7BAE
100
AcDbEntity
  8
TEXT
100
AcDbCircle
 10
1.50741460104179
 20
1.23221054919043
 30
0.0
 40
0.0820874594465043
100
AcDbArc
 50
90.0
 51
270.0
  0
LWPOLYLINE
  5
3EF0D9A1ECE7A9C
330
3EF0D9A1ECE7BAE
100
AcDbEntity
  8
TEXT
100
AcDbPolyline
 90
        2
 70
     0
 43
0.0001332181640625
 10
1.099328267940825
 20
1.241028018402555
 10
1.089336905636135
 20
1.314298008636935
  0
LWPOLYLINE
  5
3EF0D9A1ECE7AA0
330
3EF0D9A1ECE7BAE
100
AcDbEntity
  8
TEXT
100
AcDbPolyline
 90
        2
 70
     0
 43
0.0001332181640625
 10
1.089336905636135
 20
1.287654375824434
 10
1.099328267940825
 20
1.227706201996308
  0
LWPOLYLINE
  5
3EF0D9A1ECE7AA4
330
3EF0D9A1ECE7BAE
100
AcDbEntity
  8
TEXT
100
AcDbPolyline
 90
        3
 70
     0
 43
0.0006660908203125
 10
1.242537794308012
 20
1.201062569183807
 10
1.242537794308012
 20
1.314298008636935
 10
1.129302354854886
 20
1.314298008636935
  0
LWPOLYLINE
  5
3EF0D9A1ECE7AA9
330
3EF0D9A1ECE7BAE
100
AcDbEntity
  8
TEXT
100
AcDbPolyline
 90
        3
 70
     0
 43
0.0006660908203125
 10
1.215894161495511
 20
1.201062569183807
 10
1.215894161495511
 20
1.287654375824434
 10
1.129302354854886
 20
1.287654375824434
  0
LWPOLYLINE
  5
3EF0D9A1ECE7AAE
330
3EF0D9A1ECE7BAE
100
AcDbEntity
  8
TEXT
100
AcDbPolyline
 90
        2
 70
     0
 43
0.0001332181640625
 10
1.215894161495511
 20
1.287654375824434
 10
1.155945987667387
 20
1.227706201996308
  0
LWPOLYLINE
  5
3EF0D9A1ECE7AB2
330
3EF0D9A1ECE7BAE
100
AcDbEntity
  8
TEXT
100
AcDbPolyline
 90
        2
 70
     0
 43
0.0001332181640625
 10
1.129302354854886
 20
1.287654375824434
 10
1.119310992550198
 20
1.227706201996308
  0
LWPOLYLINE
  5
3EF0D9A1ECE7AB6
330
3EF0D9A1ECE7BAE
100
AcDbEntity
  8
TEXT
100
AcDbPolyline
 90
        2
 70
     0
 43
0.0001332181640625
 10
1.129302354854886
 20
1.314298008636935
 10
1.119310992550198
 20
1.241028018402555
  0
LWPOLYLINE
  5
3EF0D9A1ECE7ABA
330
3EF0D9A1ECE7BAE
100
AcDbEntity
  8
TEXT
100
AcDbPolyline
 90
        2
 70
     0
 43
0.0001332181640625
 10
1.169267804073636
 20
1.191071206879118
 10
1.242537794308012
 20
1.201062569183807
  0
LWPOLYLINE
  5
3EF0D9A1ECE7ABE
330
3EF0D9A1ECE7BAE
100
AcDbEntity
  8
TEXT
100
AcDbPolyline
 90
        2
 70
     0
 43
0.0001332181640625
 10
1.215894161495511
 20
1.201062569183807
 10
1.155945987667387
 20
1.191071206879118
  0
LWPOLYLINE
  5
3EF0D9A1ECE7AC2
330
3EF0D9A1ECE7BAE
100
AcDbEntity
  8
TEXT
100
AcDbPolyline
 90
        2
 70
     0
 43
0.0001332181640625
 10
1.242537794308012
 20
1.161097119965059
 10
1.169267804073636
 20
1.171088482269744
  0
LWPOLYLINE
  5
3EF0D9A1ECE7AC6
330
3EF0D9A1ECE7BAE
100
AcDbEntity
  8
TEXT
100
AcDbPolyline
 90
        2
 70
     0
 43
0.0001332181640625
 10
1.215894161495511
 20
1.161097119965059
 10
1.155945987667387
 20
1.171088482269744
  0
LWPOLYLINE
  5
3EF0D9A1ECE7ACA
330
3EF0D9A1ECE7BAE
100
AcDbEntity
  8
TEXT
100
AcDbPolyline
 90
        2
 70
     0
 43
0.0001332181640625
 10
1.215894161495511
 20
1.074505313324433
 10
1.155945987667387
 20
1.134453487152558
  0
LWPOLYLINE
  5
3EF0D9A1ECE7ACE
330
3EF0D9A1ECE7BAE
100
AcDbEntity
  8
TEXT
100
AcDbPolyline
 90
        3
 70
     0
 43
0.0006660908203125
 10
1.129302354854886
 20
1.074505313324433
 10
1.215894161495511
 20
1.074505313324433
 10
1.215894161495511
 20
1.161097119965059
  0
LWPOLYLINE
  5
3EF0D9A1ECE7AD3
330
3EF0D9A1ECE7BAE
100
AcDbEntity
  8
TEXT
100
AcDbPolyline
 90
        3
 70
     0
 43
0.0006660908203125
 10
1.129302354854886
 20
1.047861680511932
 10
1.242537794308012
 20
1.047861680511932
 10
1.242537794308012
 20
1.161097119965059
  0
LWPOLYLINE
  5
3EF0D9A1ECE7AD8
330
3EF0D9A1ECE7BAE
100
AcDbEntity
  8
TEXT
100
AcDbPolyline
 90
        5
 70
     0
 43
0.0001332181640625
 10
1.099328267940825
 20
1.121131670746308
 10
1.099328267940825
 20
1.134453487152558
 10
1.062693272823637
 20
1.134453487152558
 10
1.062693272823637
 20
1.171088482269744
 10
1.049371456417387
 20
1.171088482269744
  0
LWPOLYLINE
  5
3EF0D9A1ECE7ADF
330
3EF0D9A1ECE7BAE
100
AcDbEntity
  8
TEXT
100
AcDbPolyline
 90
        2
 70
     0
 43
0.0006660908203125
 10
1.089336905636135
 20
1.074505313324433
 10
1.089336905636135
 20
1.047861680511932
  0
LWPOLYLINE
  5
3EF0D9A1ECE7AE3
330
3EF0D9A1ECE7BAE
100
AcDbEntity
  8
TEXT
100
AcDbPolyline
 90
        2
 70
     0
 43
0.0001332181640625
 10
1.089336905636135
 20
1.074505313324433
 10
1.099328267940825
 20
1.134453487152558
  0
LWPOLYLINE
  5
3EF0D9A1ECE7AE7
330
3EF0D9A1ECE7BAE
100
AcDbEntity
  8
TEXT
100
AcDbPolyline
 90
        2
 70
     0
 43
0.0001332181640625
 10
1.089336905636135
 20
1.047861680511932
 10
1.099328267940825
 20
1.121131670746308
  0
LWPOLYLINE
  5
3EF0D9A1ECE7AEB
330
3EF0D9A1ECE7BAE
100
AcDbEntity
  8
TEXT
100
AcDbPolyline
 90
        5
 70
     0
 43
0.0001332181640625
 10
1.049371456417387
 20
1.191071206879118
 10
1.062693272823636
 20
1.191071206879118
 10
1.062693272823636
 20
1.227706201996308
 10
1.099328267940825
 20
1.227706201996308
 10
1.099328267940825
 20
1.241028018402555
  0
LWPOLYLINE
  5
3EF0D9A1ECE7AF2
330
3EF0D9A1ECE7BAE
100
AcDbEntity
  8
TEXT
100
AcDbPolyline
 90
        5
 70
     0
 43
0.0001332181640625
 10
1.119310992550198
 20
1.241028018402555
 10
1.119310992550198
 20
1.227706201996308
 10
1.155945987667387
 20
1.227706201996308
 10
1.155945987667387
 20
1.191071206879118
 10
1.169267804073636
 20
1.191071206879118
  0
LWPOLYLINE
  5
3EF0D9A1ECE7AF9
330
3EF0D9A1ECE7BAE
100
AcDbEntity
  8
TEXT
100
AcDbPolyline
 90
        2
 70
     0
 43
0.0001332181640625
 10
1.129302354854886
 20
1.074505313324433
 10
1.119310992550198
 20
1.134453487152558
  0
LWPOLYLINE
  5
3EF0D9A1ECE7AFD
330
3EF0D9A1ECE7BAE
100
AcDbEntity
  8
TEXT
100
AcDbPolyline
 90
        2
 70
     0
 43
0.0001332181640625
 10
1.119310992550198
 20
1.121131670746308
 10
1.129302354854886
 20
1.047861680511932
  0
LWPOLYLINE
  5
3EF0D9A1ECE7B01
330
3EF0D9A1ECE7BAE
100
AcDbEntity
  8
TEXT
100
AcDbPolyline
 90
        2
 70
     0
 43
0.0006660908203125
 10
1.129302354854886
 20
1.074505313324433
 10
1.129302354854886
 20
1.047861680511932
  0
LWPOLYLINE
  5
3EF0D9A1ECE7B05
330
3EF0D9A1ECE7BAE
100
AcDbEntity
  8
TEXT
100
AcDbPolyline
 90
        5
 70
     0
 43
0.0001332181640625
 10
1.169267804073636
 20
1.171088482269744
 10
1.155945987667387
 20
1.171088482269744
 10
1.155945987667387
 20
1.134453487152558
 10
1.119310992550198
 20
1.134453487152558
 10
1.119310992550198
 20
1.121131670746308
  0
LWPOLYLINE
  5
3EF0D9A1ECE7B0C
330
3EF0D9A1ECE7BAE
100
AcDbEntity
  8
TEXT
100
AcDbPolyline
 90
        2
 70
     0
 43
0.0006660908203125
 10
1.215894161495511
 20
1.201062569183807
 10
1.242537794308012
 20
1.201062569183807
  0
LWPOLYLINE
  5
3EF0D9A1ECE7B10
330
3EF0D9A1ECE7BAE
100
AcDbEntity
  8
TEXT
100
AcDbPolyline
 90
        2
 70
     0
 43
0.0006660908203125
 10
1.215894161495511
 20
1.161097119965059
 10
1.242537794308012
 20
1.161097119965059
  0
LINE
  5
3EF0D9A1ECE7B14
330
3EF0D9A1ECE7BAE
100
AcDbEntity
  8
TEXT
100
AcDbLine
 10
1.512651931156037
 20
1.250021313980166
 30
0.0
 11
1.679557585185008
 21
1.250021313980166
 31
0.0
  0
LINE
  5
3EF0D9A1ECE7B15
330
3EF0D9A1ECE7BAE
100
AcDbEntity
  8
TEXT
100
AcDbLine
 10
1.578252067400338
 20
1.214216592369538
 30
0.0
 11
1.512651931156037
 21
1.214216592369538
 31
0.0
  0
LINE
  5
3EF0D9A1ECE7B16
330
3EF0D9A1ECE7BAE
100
AcDbEntity
  8
TEXT
100
AcDbLine
 10
1.425327141595285
 20
1.04782497564842
 30
0.0
 11
1.578252067400338
 21
1.04782497564842
 31
0.0
  0
LINE
  5
3EF0D9A1ECE7B17
330
3EF0D9A1ECE7BAE
100
AcDbEntity
  8
TEXT
100
AcDbLine
 10
1.583192441306618
 20
1.11618198198186
 30
0.0
 11
1.425327141595284
 21
1.11618198198186
 31
0.0
  0
LINE
  5
3EF0D9A1ECE7B18
330
3EF0D9A1ECE7BAE
100
AcDbEntity
  8
TEXT
100
AcDbLine
 10
1.507414601041789
 20
1.150123089743924
 30
0.0
 11
1.583192441306618
 21
1.150123089743924
 31
0.0
  0
ARC
  5
3EF0D9A1ECE7B19
330
3EF0D9A1ECE7BAE
100
AcDbEntity
  8
TEXT
100
AcDbCircle
 10
1.512651931156038
 20
1.232118953174854
 30
0.0
 40
0.017902360805315
100
AcDbArc
 50
90.0
 51
270.0
  0
LINE
  5
3EF0D9A1ECE7B1A
330
3EF0D9A1ECE7BAE
100
AcDbEntity
  8
TEXT
100
AcDbLine
 10
1.425327141595284
 20
1.11618198198186
 30
0.0
 11
1.425327141595285
 21
1.04782497564842
 31
0.0
  0
LINE
  5
3EF0D9A1ECE7B1B
330
3EF0D9A1ECE7BAE
100
AcDbEntity
  8
TEXT
100
AcDbLine
 10
1.679557585185008
 20
1.250021313980166
 30
0.0
 11
1.679557585185008
 21
1.10761736698647
 31
0.0
  0
ARC
  5
3EF0D9A1ECE7B1C
330
3EF0D9A1ECE7BAE
100
AcDbEntity
  8
TEXT
100
AcDbCircle
 10
1.578252067400339
 20
1.131020784008977
 30
0.0
 40
0.0831958083605586
100
AcDbArc
 50
270.0
 51
90.0
  0
ARC
  5
3EF0D9A1ECE7B1D
330
3EF0D9A1ECE7BAE
100
AcDbEntity
  8
TEXT
100
AcDbCircle
 10
1.583192441306619
 20
1.133152535862894
 30
0.0
 40
0.0169705538810321
100
AcDbArc
 50
270.0
 51
90.0
  0
LWPOLYLINE
  5
3EF0D9A1ECE7B1E
330
3EF0D9A1ECE7BAE
100
AcDbEntity
  8
TEXT
100
AcDbPolyline
 90
        2
 70
     0
 43
0.0006660908203125
 10
1.089336905636135
 20
1.287654375824434
 10
1.089336905636135
 20
1.314298008636935
  0
LWPOLYLINE
  5
3EF0D9A1ECE7B22
330
3EF0D9A1ECE7BAE
100
AcDbEntity
  8
TEXT
100
AcDbPolyline
 90
        2
 70
     0
 43
0.0006660908203125
 10
1.129302354854886
 20
1.287654375824434
 10
1.129302354854886
 20
1.314298008636935
  0
LINE
  5
3EF0D9A1ECE7B26
330
3EF0D9A1ECE7BAE
100
AcDbEntity
  8
TEXT
100
AcDbLine
 10
1.683146353940301
 20
1.314298008636931
 30
0.0
 11
1.507414601041789
 21
1.314298008636931
 31
0.0
  0
LINE
  5
3EF0D9A1ECE7B27
330
3EF0D9A1ECE7BAE
100
AcDbEntity
  8
TEXT
100
AcDbLine
 10
1.683146353940301
 20
1.348685926231069
 30
0.0
 11
1.683146353940301
 21
1.314298008636931
 31
0.0
  0
LINE
  5
3EF0D9A1ECE7B28
330
3EF0D9A1ECE7BAE
100
AcDbEntity
  8
TEXT
100
AcDbLine
 10
1.873618245960154
 20
1.213426012523811
 30
0.0
 11
1.814987924928216
 21
1.314298008636931
 31
0.0
  0
LINE
  5
3EF0D9A1ECE7B29
330
3EF0D9A1ECE7BAE
100
AcDbEntity
  8
TEXT
100
AcDbLine
 10
1.932366808766019
 20
1.314298008636931
 30
0.0
 11
1.873618245960154
 21
1.213426012523811
 31
0.0
  0
LINE
  5
3EF0D9A1ECE7B2A
330
3EF0D9A1ECE7BAE
100
AcDbEntity
  8
TEXT
100
AcDbLine
 10
2.02929743412576
 20
1.13021281375142
 30
0.0
 11
2.02929743412576
 21
1.382309486375742
 31
0.0
  0
LINE
  5
3EF0D9A1ECE7B2B
330
3EF0D9A1ECE7BAE
100
AcDbEntity
  8
TEXT
100
AcDbLine
 10
2.06160928826342
 20
1.314298008636931
 30
0.0
 11
2.06160928826342
 21
1.113433801904523
 31
0.0
  0
LINE
  5
3EF0D9A1ECE7B2C
330
3EF0D9A1ECE7BAE
100
AcDbEntity
  8
TEXT
100
AcDbLine
 10
2.06160928826342
 20
1.113433801904523
 30
0.0
 11
2.044615651378819
 21
1.113433801904523
 31
0.0
  0
LINE
  5
3EF0D9A1ECE7B2D
330
3EF0D9A1ECE7BAE
100
AcDbEntity
  8
TEXT
100
AcDbLine
 10
2.030437007621955
 20
1.04782497564842
 30
0.0
 11
2.12844034132139
 21
1.04782497564842
 31
0.0
  0
LINE
  5
3EF0D9A1ECE7B2E
330
3EF0D9A1ECE7BAE
100
AcDbEntity
  8
TEXT
100
AcDbLine
 10
1.864018008963199
 20
1.067783481753433
 30
0.0
 11
1.961317715056644
 21
1.232133692688701
 31
0.0
  0
ARC
  5
3EF0D9A1ECE7B2F
330
3EF0D9A1ECE7BAE
100
AcDbEntity
  8
TEXT
100
AcDbCircle
 10
1.829974449050985
 20
1.087372697922116
 30
0.0
 40
0.0392772371940762
100
AcDbArc
 50
270.1604552698595
 51
330.0831797321295
  0
LINE
  5
3EF0D9A1ECE7B30
330
3EF0D9A1ECE7BAE
100
AcDbEntity
  8
TEXT
100
AcDbLine
 10
1.733444192665114
 20
1.04782497564842
 30
0.0
 11
1.830084443740108
 21
1.048095614746703
 31
0.0
  0
LWPOLYLINE
  5
3EF0D9A1ECE7B31
330
3EF0D9A1ECE7BAE
100
AcDbEntity
  8
TEXT
100
AcDbPolyline
 90
        6
 70
     1
 43
0.0
 10
1.775967996240264
 20
1.250021313980166
 10
1.745651402020055
 20
1.250021313980166
 10
1.745651402020055
 20
1.126910315925272
 42
0.407328721240804
 10
1.757195053181532
 20
1.115091401248885
 10
1.817816752226263
 20
1.115091401248885
 10
1.835282092633581
 20
1.147903630292365
  0
LINE
  5
3EF0D9A1ECE7B39
330
3EF0D9A1ECE7BAE
100
AcDbEntity
  8
TEXT
100
AcDbLine
 10
1.961317715056644
 20
1.232133692688701
 30
0.0
 11
1.961317715056644
 21
1.099376317863345
 31
0.0
  0
ARC
  5
3EF0D9A1ECE7B3A
330
3EF0D9A1ECE7BAE
100
AcDbEntity
  8
TEXT
100
AcDbCircle
 10
2.044615651378817
 20
1.128815608147949
 30
0.0
 40
0.0153818062434269
100
AcDbArc
 50
174.7883570302258
 51
270.0
  0
LWPOLYLINE
  5
3EF0D9A1ECE7B3B
330
3EF0D9A1ECE7BAE
100
AcDbEntity
  8
TEXT
100
AcDbPolyline
 90
        2
 70
     0
 43
0.0
 10
1.961317715056642
 20
1.099376317863349
 42
0.3318488747599744
 10
2.030437007621955
 20
1.04782497564842
 42
-6.868794160588311
  0
LINE
  5
3EF0D9A1ECE7B3F
330
3EF0D9A1ECE7BAE
100
AcDbEntity
  8
TEXT
100
AcDbLine
 10
2.185829410310651
 20
1.04782497564842
 30
0.0
 11
2.252887457092491
 21
1.04782497564842
 31
0.0
  0
LINE
  5
3EF0D9A1ECE7B40
330
3EF0D9A1ECE7BAE
100
AcDbEntity
  8
TEXT
100
AcDbLine
 10
2.185829410310651
 20
1.242467524814056
 30
0.0
 11
2.185829410310651
 21
1.04782497564842
 31
0.0
  0
LINE
  5
3EF0D9A1ECE7B41
330
3EF0D9A1ECE7BAE
100
AcDbEntity
  8
TEXT
100
AcDbLine
 10
2.12844034132139
 20
1.250021313980166
 30
0.0
 11
2.178275621144537
 21
1.250021313980166
 31
0.0
  0
LINE
  5
3EF0D9A1ECE7B42
330
3EF0D9A1ECE7BAE
100
AcDbEntity
  8
TEXT
100
AcDbLine
 10
2.12844034132139
 20
1.04782497564842
 30
0.0
 11
2.12844034132139
 21
1.250021313980166
 31
0.0
  0
LWPOLYLINE
  5
3EF0D9A1ECE7B43
330
3EF0D9A1ECE7BAE
100
AcDbEntity
  8
TEXT
100
AcDbPolyline
 90
        2
 70
     0
 43
0.0
 10
2.178275621144535
 20
1.250021313980166
 42
-0.4142135623731017
 10
2.185829410310649
 20
1.242467524814056
 42
-0.9999999999999998
  0
LINE
  5
3EF0D9A1ECE7B47
330
3EF0D9A1ECE7BAE
100
AcDbEntity
  8
TEXT
100
AcDbLine
 10
2.384085621922221
 20
1.250021313980166
 30
0.0
 11
2.384085621922221
 21
1.174968907905959
 31
0.0
  0
LINE
  5
3EF0D9A1ECE7B48
330
3EF0D9A1ECE7BAE
100
AcDbEntity
  8
TEXT
100
AcDbLine
 10
2.252887457092491
 20
1.250021313980166
 30
0.0
 11
2.307021054013441
 21
1.250021313980166
 31
0.0
  0
LINE
  5
3EF0D9A1ECE7B49
330
3EF0D9A1ECE7BAE
100
AcDbEntity
  8
TEXT
100
AcDbLine
 10
2.252887457092491
 20
1.04782497564842
 30
0.0
 11
2.252887457092491
 21
1.250021313980166
 31
0.0
  0
LWPOLYLINE
  5
3EF0D9A1ECE7B4A
330
3EF0D9A1ECE7BAE
100
AcDbEntity
  8
TEXT
100
AcDbPolyline
 90
        2
 70
     0
 43
0.0
 10
2.307021054013439
 20
1.250021313980166
 42
-0.4142135623731017
 10
2.314574843179553
 20
1.242467524814056
 42
-0.9999999999999998
  0
LWPOLYLINE
  5
3EF0D9A1ECE7B4E
330
3EF0D9A1ECE7BAE
100
AcDbEntity
  8
TEXT
100
AcDbPolyline
 90
        4
 70
     0
 43
0.0
 10
2.314574843179553
 20
1.242467524814056
 10
2.314574843179553
 20
1.04782497564842
 10
2.383053126467411
 20
1.04782497564842
 10
2.383053126467411
 20
1.091315920598858
 42
-1.714843617202739
  0
LINE
  5
3EF0D9A1ECE7B54
330
3EF0D9A1ECE7BAE
100
AcDbEntity
  8
TEXT
100
AcDbLine
 10
1.743188958784308
 20
1.314298008636931
 30
0.0
 11
1.743188958784308
 21
1.348685926231069
 31
0.0
  0
LINE
  5
3EF0D9A1ECE7B55
330
3EF0D9A1ECE7BAE
100
AcDbEntity
  8
TEXT
100
AcDbLine
 10
1.814987924928216
 20
1.314298008636931
 30
0.0
 11
1.743188958784308
 21
1.314298008636931
 31
0.0
  0
LINE
  5
3EF0D9A1ECE7B56
330
3EF0D9A1ECE7BAE
100
AcDbEntity
  8
TEXT
100
AcDbLine
 10
1.962488721559395
 20
1.314298008636931
 30
0.0
 11
1.932366808766019
 21
1.314298008636931
 31
0.0
  0
LINE
  5
3EF0D9A1ECE7B57
330
3EF0D9A1ECE7BAE
100
AcDbEntity
  8
TEXT
100
AcDbLine
 10
1.962488721559395
 20
1.382309486375742
 30
0.0
 11
1.962488721559395
 21
1.314298008636931
 31
0.0
  0
LINE
  5
3EF0D9A1ECE7B58
330
3EF0D9A1ECE7BAE
100
AcDbEntity
  8
TEXT
100
AcDbLine
 10
2.02929743412576
 20
1.382309486375742
 30
0.0
 11
1.962488721559395
 21
1.382309486375742
 31
0.0
  0
LWPOLYLINE
  5
3EF0D9A1ECE7B59
330
3EF0D9A1ECE7BAE
100
AcDbEntity
  8
TEXT
100
AcDbPolyline
 90
        3
 70
     0
 43
0.0
 10
2.349709193723763
 20
1.314298008636935
 10
2.231409034907718
 20
1.314298008636935
 10
2.231409034907718
 20
1.287130511876039
 42
-1.960274751411753
  0
LINE
  5
3EF0D9A1ECE7B5E
330
3EF0D9A1ECE7BAE
100
AcDbEntity
  8
TEXT
100
AcDbLine
 10
2.195627344194557
 20
1.314298008636931
 30
0.0
 11
2.06160928826342
 21
1.314298008636931
 31
0.0
  0
LWPOLYLINE
  5
3EF0D9A1ECE7B5F
330
3EF0D9A1ECE7BAE
100
AcDbEntity
  8
TEXT
100
AcDbPolyline
 90
        2
 70
     0
 43
0.0
 10
2.195627344194557
 20
1.314298008636935
 42
-0.3328679258950098
 10
2.231409034907718
 20
1.287130511876039
 42
6.772930709997214
  0
LINE
  5
3EF0D9A1ECE7B63
330
3EF0D9A1ECE7BAE
100
AcDbEntity
  8
TEXT
100
AcDbLine
 10
2.385490884436929
 20
1.314298008636931
 30
0.0
 11
2.385490884436929
 21
1.285975462867287
 31
0.0
  0
LWPOLYLINE
  5
3EF0D9A1ECE7B64
330
3EF0D9A1ECE7BAE
100
AcDbEntity
  8
TEXT
100
AcDbPolyline
 90
        2
 70
     0
 43
0.0
 10
2.349709193723763
 20
1.314298008636935
 42
-0.3277054968067132
 10
2.385490884436928
 20
1.285975462867291
 42
6.667889725900311
  0
LINE
  5
3EF0D9A1ECE7B68
330
3EF0D9A1ECE7BAE
100
AcDbEntity
  8
TEXT
100
AcDbLine
 10
2.599282732529029
 20
1.209086030083504
 30
0.0
 11
2.555531961347128
 21
1.291336306079649
 31
0.0
  0
LINE
  5
3EF0D9A1ECE7B69
330
3EF0D9A1ECE7BAE
100
AcDbEntity
  8
TEXT
100
AcDbLine
 10
2.599282732529029
 20
1.314298008636931
 30
0.0
 11
2.599282732529029
 21
1.209086030083504
 31
0.0
  0
LINE
  5
3EF0D9A1ECE7B6A
330
3EF0D9A1ECE7BAE
100
AcDbEntity
  8
TEXT
100
AcDbLine
 10
2.826966471467398
 20
1.238432682225393
 30
0.0
 11
2.826966471467398
 21
1.379762214404532
 31
0.0
  0
LINE
  5
3EF0D9A1ECE7B6B
330
3EF0D9A1ECE7BAE
100
AcDbEntity
  8
TEXT
100
AcDbLine
 10
2.874064630023383
 20
1.314298008636931
 30
0.0
 11
2.826966471467398
 21
1.238432682225393
 31
0.0
  0
LINE
  5
3EF0D9A1ECE7B6C
330
3EF0D9A1ECE7BAE
100
AcDbEntity
  8
TEXT
100
AcDbLine
 10
2.884499346787306
 20
1.204404765695958
 30
0.0
 11
2.949056462753011
 21
1.314298008636931
 31
0.0
  0
LINE
  5
3EF0D9A1ECE7B6D
330
3EF0D9A1ECE7BAE
100
AcDbEntity
  8
TEXT
100
AcDbLine
 10
2.763131480244625
 20
1.04782497564842
 30
0.0
 11
2.827509664563246
 21
1.04782497564842
 31
0.0
  0
LWPOLYLINE
  5
3EF0D9A1ECE7B6E
330
3EF0D9A1ECE7BAE
100
AcDbEntity
  8
TEXT
100
AcDbPolyline
 90
        2
 70
     0
 43
0.0
 10
2.603222409834067
 20
1.091315920598858
 42
-0.2901071551932486
 10
2.560146476966423
 20
1.04782497564842
 42
-5.328517124445184
  0
ARC
  5
3EF0D9A1ECE7B72
330
3EF0D9A1ECE7BAE
100
AcDbEntity
  8
TEXT
100
AcDbCircle
 10
2.491291895309508
 20
1.221661938980169
 30
0.0
 40
0.028359375
100
AcDbArc
 50
25.78218179591245
 51
90.0
  0
LINE
  5
3EF0D9A1ECE7B73
330
3EF0D9A1ECE7BAE
100
AcDbEntity
  8
TEXT
100
AcDbLine
 10
2.527092970613631
 20
1.212746340518034
 30
0.0
 11
2.516828210200067
 21
1.233996880090728
 31
0.0
  0
LINE
  5
3EF0D9A1ECE7B74
330
3EF0D9A1ECE7BAE
100
AcDbEntity
  8
TEXT
100
AcDbLine
 10
2.444804980830248
 20
1.212746340518034
 30
0.0
 11
2.527092970613631
 21
1.212746340518034
 31
0.0
  0
LWPOLYLINE
  5
3EF0D9A1ECE7B75
330
3EF0D9A1ECE7BAE
100
AcDbEntity
  8
TEXT
100
AcDbPolyline
 90
        4
 70
     1
 43
0.0
 10
2.54002401189653
 20
1.150788953632446
 10
2.451363693236672
 20
1.150788953632446
 42
0.9999999999999998
 10
2.451363693236672
 20
1.108390413128585
 10
2.54002401189653
 20
1.108390413128585
 42
1.0
  0
LWPOLYLINE
  5
3EF0D9A1ECE7B7B
330
3EF0D9A1ECE7BAE
100
AcDbEntity
  8
TEXT
100
AcDbPolyline
 90
        2
 70
     0
 43
0.0
 10
2.426129059335046
 20
1.04782497564842
 10
2.560146476966423
 20
1.04782497564842
 42
0.9999999999999998
  0
LINE
  5
3EF0D9A1ECE7B7F
330
3EF0D9A1ECE7BAE
100
AcDbEntity
  8
TEXT
100
AcDbLine
 10
2.686483498952062
 20
1.250021313980166
 30
0.0
 11
2.76313148024462
 21
1.250021313980166
 31
0.0
  0
LINE
  5
3EF0D9A1ECE7B80
330
3EF0D9A1ECE7BAE
100
AcDbEntity
  8
TEXT
100
AcDbLine
 10
2.76313148024462
 20
1.250021313980166
 30
0.0
 11
2.763131480244625
 21
1.04782497564842
 31
0.0
  0
ARC
  5
3EF0D9A1ECE7B81
330
3EF0D9A1ECE7BAE
100
AcDbEntity
  8
TEXT
100
AcDbCircle
 10
2.68648349895206
 20
1.225115438697503
 30
0.0
 40
0.0249058752826653
100
AcDbArc
 50
89.99971217465335
 51
179.9999999999985
  0
LINE
  5
3EF0D9A1ECE7B82
330
3EF0D9A1ECE7BAE
100
AcDbEntity
  8
TEXT
100
AcDbLine
 10
2.661577623669403
 20
1.04782497564842
 30
0.0
 11
2.661577623669398
 21
1.225115481079889
 31
0.0
  0
LWPOLYLINE
  5
3EF0D9A1ECE7B83
330
3EF0D9A1ECE7BAE
100
AcDbEntity
  8
TEXT
100
AcDbPolyline
 90
        2
 70
     0
 43
0.0
 10
2.603222409834067
 20
1.04782497564842
 10
2.661577623669401
 20
1.04782497564842
  0
LWPOLYLINE
  5
3EF0D9A1ECE7B87
330
3EF0D9A1ECE7BAE
100
AcDbEntity
  8
TEXT
100
AcDbPolyline
 90
        2
 70
     0
 43
0.0
 10
2.603222409834067
 20
1.091315920598858
 10
2.603222409834067
 20
1.04782497564842
  0
LINE
  5
3EF0D9A1ECE7B8B
330
3EF0D9A1ECE7BAE
100
AcDbEntity
  8
TEXT
100
AcDbLine
 10
2.979991570150916
 20
1.04782497564842
 30
0.0
 11
2.884499346787306
 21
1.204404765695958
 31
0.0
  0
LINE
  5
3EF0D9A1ECE7B8C
330
3EF0D9A1ECE7BAE
100
AcDbEntity
  8
TEXT
100
AcDbLine
 10
2.90341319777471
 20
1.04782497564842
 30
0.0
 11
2.979991570150916
 21
1.04782497564842
 31
0.0
  0
LINE
  5
3EF0D9A1ECE7B8D
330
3EF0D9A1ECE7BAE
100
AcDbEntity
  8
TEXT
100
AcDbLine
 10
2.827509664563246
 20
1.179404544124601
 30
0.0
 11
2.90341319777471
 21
1.04782497564842
 31
0.0
  0
LINE
  5
3EF0D9A1ECE7B8E
330
3EF0D9A1ECE7BAE
100
AcDbEntity
  8
TEXT
100
AcDbLine
 10
2.827509664563246
 20
1.04782497564842
 30
0.0
 11
2.827509664563246
 21
1.179404544124601
 31
0.0
  0
LINE
  5
3EF0D9A1ECE7B8F
330
3EF0D9A1ECE7BAE
100
AcDbEntity
  8
TEXT
100
AcDbLine
 10
2.826966471467398
 20
1.379762214404532
 30
0.0
 11
2.758651592918125
 21
1.379762214404532
 31
0.0
  0
ARC
  5
3EF0D9A1ECE7B90
330
3EF0D9A1ECE7BAE
100
AcDbEntity
  8
TEXT
100
AcDbCircle
 10
2.518295853876919
 20
1.272714441516029
 30
0.0
 40
0.0416329381542859
100
AcDbArc
 50
26.56974201007528
 51
87.20939649401342
  0
LINE
  5
3EF0D9A1ECE7B91
330
3EF0D9A1ECE7BAE
100
AcDbEntity
  8
TEXT
100
AcDbLine
 10
2.66317963882853
 20
1.314298008636931
 30
0.0
 11
2.599282732529029
 21
1.314298008636931
 31
0.0
  0
LINE
  5
3EF0D9A1ECE7B92
330
3EF0D9A1ECE7BAE
100
AcDbEntity
  8
TEXT
100
AcDbLine
 10
2.66317963882853
 20
1.286750358776057
 30
0.0
 11
2.66317963882853
 21
1.314298008636931
 31
0.0
  0
ARC
  5
3EF0D9A1ECE7B93
330
3EF0D9A1ECE7BAE
100
AcDbEntity
  8
TEXT
100
AcDbCircle
 10
2.694372455891638
 20
1.283052281354666
 30
0.0
 40
0.0314112657011332
100
AcDbArc
 50
95.88484768694724
 51
173.2388340632136
  0
LINE
  5
3EF0D9A1ECE7B94
330
3EF0D9A1ECE7BAE
100
AcDbEntity
  8
TEXT
100
AcDbLine
 10
2.75865159291812
 20
1.314298008636931
 30
0.0
 11
2.691151875268603
 21
1.314298008636931
 31
0.0
  0
LINE
  5
3EF0D9A1ECE7B95
330
3EF0D9A1ECE7BAE
100
AcDbEntity
  8
TEXT
100
AcDbLine
 10
2.758651592918125
 20
1.379762214404532
 30
0.0
 11
2.75865159291812
 21
1.314298008636931
 31
0.0
  0
LINE
  5
3EF0D9A1ECE7B96
330
3EF0D9A1ECE7BAE
100
AcDbEntity
  8
TEXT
100
AcDbLine
 10
2.949056462753011
 20
1.314298008636931
 30
0.0
 11
2.874064630023385
 21
1.314298008636931
 31
0.0
  0
ENDSEC
  0
SECTION
  2
OBJECTS
  0
DICTIONARY
  5
3EF0D9A1ECE7BA2
330
0
100
AcDbDictionary
  3
ACAD_GROUP
350
3EF0D9A1ECE7BA3
  3
ACAD_LAYOUT
350
3EF0D9A1ECE7BC8
  3
ACAD_MLINESTYLE
350
3EF0D9A1ECE7BA4
  3
ACAD_PLOTSETTINGS
350
3EF0D9A1ECE7BC9
  3
ACAD_PLOTSTYLENAME
350
3EF0D9A1ECE7BC6
  3
ACDBHEADERROUNDTRIPXREC
350
3EF0D9A1ECE7BD3
  3
ACDBVARIABLEDICTIONARY
350
3EF0D9A1ECE7BD0
  0
DICTIONARY
  5
3EF0D9A1ECE7BF5
330
3EF0D9A1ECE7BAE
100
AcDbDictionary
280
     1
  3
ACAD_LAYOUTSELFREF
360
3EF0D9A1ECE7BF6
  0
DICTIONARY
  5
3EF0D9A1ECE7BF3
330
3EF0D9A1ECE7BAB
100
AcDbDictionary
280
     1
  3
ACAD_LAYOUTSELFREF
360
3EF0D9A1ECE7BF4
  0
DICTIONARY
  5
3EF0D9A1ECE7BA3
102
{ACAD_REACTORS
330
3EF0D9A1ECE7BA2
102
}
330
3EF0D9A1ECE7BA2
100
AcDbDictionary
  0
DICTIONARY
  5
3EF0D9A1ECE7BC8
102
{ACAD_REACTORS
330
3EF0D9A1ECE7BA2
102
}
330
3EF0D9A1ECE7BA2
100
AcDbDictionary
  0
DICTIONARY
  5
3EF0D9A1ECE7BA4
102
{ACAD_REACTORS
330
3EF0D9A1ECE7BA2
102
}
330
3EF0D9A1ECE7BA2
100
AcDbDictionary
  3
STANDARD
350
3EF0D9A1ECE7BB1
  0
DICTIONARY
  5
3EF0D9A1ECE7BC9
102
{ACAD_REACTORS
330
3EF0D9A1ECE7BA2
102
}
330
3EF0D9A1ECE7BA2
100
AcDbDictionary
  0
ACDBDICTIONARYWDFLT
  5
3EF0D9A1ECE7BC6
102
{ACAD_REACTORS
330
3EF0D9A1ECE7BA2
102
}
330
3EF0D9A1ECE7BA2
100
AcDbDictionary
281
     1
  3
Normal
350
3EF0D9A1ECE7BC7
100
AcDbDictionaryWithDefault
340
3EF0D9A1ECE7BC7
  0
DICTIONARY
  5
3EF0D9A1ECE7BD3
102
{ACAD_REACTORS
330
3EF0D9A1ECE7BA2
102
}
330
3EF0D9A1ECE7BA2
100
AcDbDictionary
  3
CEPSNTYPE
350
3EF0D9A1ECE7BDD
  3
FINGERPRINTGUID
350
3EF0D9A1ECE7BDE
  3
HYPERLINKBASE
350
3EF0D9A1ECE7BD6
  3
INSUNITS
350
3EF0D9A1ECE7BDC
  3
LAYOUTDICT
350
3EF0D9A1ECE7BD8
  3
LWETCUNION
350
3EF0D9A1ECE7BDB
  3
PLOTSETDICT
350
3EF0D9A1ECE7BD9
  3
PLOTSTYLNAMDICT
350
3EF0D9A1ECE7BDA
  3
PSVPSCALE
350
3EF0D9A1ECE7BE0
  3
PUCSBASE
350
3EF0D9A1ECE7BE3
  3
PUCSORGBACK
350
3EF0D9A1ECE7BE9
  3
PUCSORGBOTTOM
350
3EF0D9A1ECE7BE5
  3
PUCSORGFRONT
350
3EF0D9A1ECE7BE8
  3
PUCSORGLEFT
350
3EF0D9A1ECE7BE6
  3
PUCSORGRIGHT
350
3EF0D9A1ECE7BE7
  3
PUCSORGTOP
350
3EF0D9A1ECE7BE4
  3
PUCSORTHOREF
350
3EF0D9A1ECE7BE1
  3
PUCSORTHOVIEW
350
3EF0D9A1ECE7BE2
  3
STYLESHEET
350
3EF0D9A1ECE7BD7
  3
TSTACKALIGN
350
3EF0D9A1ECE7BD4
  3
TSTACKSIZE
350
3EF0D9A1ECE7BD5
  3
UCSBASE
350
3EF0D9A1ECE7BEC
  3
UCSORGBACK
350
3EF0D9A1ECE7BF2
  3
UCSORGBOTTOM
350
3EF0D9A1ECE7BEE
  3
UCSORGFRONT
350
3EF0D9A1ECE7BF1
  3
UCSORGLEFT
350
3EF0D9A1ECE7BEF
  3
UCSORGRIGHT
350
3EF0D9A1ECE7BF0
  3
UCSORGTOP
350
3EF0D9A1ECE7BED
  3
UCSORTHOREF
350
3EF0D9A1ECE7BEA
  3
UCSORTHOVIEW
350
3EF0D9A1ECE7BEB
  3
VERSIONGUID
350
3EF0D9A1ECE7BDF
  0
DICTIONARY
  5
3EF0D9A1ECE7BD0
102
{ACAD_REACTORS
330
3EF0D9A1ECE7BA2
102
}
330
3EF0D9A1ECE7BA2
100
AcDbDictionary
  3
DIMASSOC
350
3EF0D9A1ECE7BD1
  0
XRECORD
  5
3EF0D9A1ECE7BF6
102
{ACAD_REACTORS
330
3EF0D9A1ECE7BF5
102
}
330
3EF0D9A1ECE7BF5
100
AcDbXrecord
340
3EF0D9A1ECE7BAE
  0
XRECORD
  5
3EF0D9A1ECE7BF4
102
{ACAD_REACTORS
330
3EF0D9A1ECE7BF3
102
}
330
3EF0D9A1ECE7BF3
100
AcDbXrecord
340
3EF0D9A1ECE7BAB
  0
MLINESTYLE
  5
3EF0D9A1ECE7BB1
102
{ACAD_REACTORS
330
3EF0D9A1ECE7BA4
102
}
330
3EF0D9A1ECE7BA4
100
AcDbMlineStyle
  2
STANDARD
 70
     0
  3

 62
     0
 51
90.0
 52
90.0
 71
     2
 49
0.5
 62
   256
  6
BYLAYER
 49
-0.5
 62
   256
  6
BYLAYER
  0
ACDBPLACEHOLDER
  5
3EF0D9A1ECE7BC7
102
{ACAD_REACTORS
330
3EF0D9A1ECE7BC6
102
}
330
3EF0D9A1ECE7BC6
100
AcDbPlaceHolder
280
     0
  0
XRECORD
  5
3EF0D9A1ECE7BDD
102
{ACAD_REACTORS
330
3EF0D9A1ECE7BD3
102
}
330
3EF0D9A1ECE7BD3
100
AcDbXrecord
 90
        0
  0
XRECORD
  5
3EF0D9A1ECE7BDE
102
{ACAD_REACTORS
330
3EF0D9A1ECE7BD3
102
}
330
3EF0D9A1ECE7BD3
100
AcDbXrecord
  1
{1A96B5B0-8DB4-11D6-88E6-0090279574E7}
  0
XRECORD
  5
3EF0D9A1ECE7BD6
102
{ACAD_REACTORS
330
3EF0D9A1ECE7BD3
102
}
330
3EF0D9A1ECE7BD3
100
AcDbXrecord
  1

  0
XRECORD
  5
3EF0D9A1ECE7BDC
102
{ACAD_REACTORS
330
3EF0D9A1ECE7BD3
102
}
330
3EF0D9A1ECE7BD3
100
AcDbXrecord
 90
        0
  0
XRECORD
  5
3EF0D9A1ECE7BD8
102
{ACAD_REACTORS
330
3EF0D9A1ECE7BD3
102
}
330
3EF0D9A1ECE7BD3
100
AcDbXrecord
340
3EF0D9A1ECE7BC8
  0
XRECORD
  5
3EF0D9A1ECE7BDB
102
{ACAD_REACTORS
330
3EF0D9A1ECE7BD3
102
}
330
3EF0D9A1ECE7BD3
100
AcDbXrecord
 90
    14877
  0
XRECORD
  5
3EF0D9A1ECE7BD9
102
{ACAD_REACTORS
330
3EF0D9A1ECE7BD3
102
}
330
3EF0D9A1ECE7BD3
100
AcDbXrecord
340
3EF0D9A1ECE7BC9
  0
XRECORD
  5
3EF0D9A1ECE7BDA
102
{ACAD_REACTORS
330
3EF0D9A1ECE7BD3
102
}
330
3EF0D9A1ECE7BD3
100
AcDbXrecord
340
3EF0D9A1ECE7BC6
  0
XRECORD
  5
3EF0D9A1ECE7BE0
102
{ACAD_REACTORS
330
3EF0D9A1ECE7BD3
102
}
330
3EF0D9A1ECE7BD3
100
AcDbXrecord
 40
0.0
  0
XRECORD
  5
3EF0D9A1ECE7BE3
102
{ACAD_REACTORS
330
3EF0D9A1ECE7BD3
102
}
330
3EF0D9A1ECE7BD3
100
AcDbXrecord
340
0
  0
XRECORD
  5
3EF0D9A1ECE7BE9
102
{ACAD_REACTORS
330
3EF0D9A1ECE7BD3
102
}
330
3EF0D9A1ECE7BD3
100
AcDbXrecord
 10
0.0
 20
0.0
 30
0.0
  0
XRECORD
  5
3EF0D9A1ECE7BE5
102
{ACAD_REACTORS
330
3EF0D9A1ECE7BD3
102
}
330
3EF0D9A1ECE7BD3
100
AcDbXrecord
 10
0.0
 20
0.0
 30
0.0
  0
XRECORD
  5
3EF0D9A1ECE7BE8
102
{ACAD_REACTORS
330
3EF0D9A1ECE7BD3
102
}
330
3EF0D9A1ECE7BD3
100
AcDbXrecord
 10
0.0
 20
0.0
 30
0.0
  0
XRECORD
  5
3EF0D9A1ECE7BE6
102
{ACAD_REACTORS
330
3EF0D9A1ECE7BD3
102
}
330
3EF0D9A1ECE7BD3
100
AcDbXrecord
 10
0.0
 20
0.0
 30
0.0
  0
XRECORD
  5
3EF0D9A1ECE7BE7
102
{ACAD_REACTORS
330
3EF0D9A1ECE7BD3
102
}
330
3EF0D9A1ECE7BD3
100
AcDbXrecord
 10
0.0
 20
0.0
 30
0.0
  0
XRECORD
  5
3EF0D9A1ECE7BE4
102
{ACAD_REACTORS
330
3EF0D9A1ECE7BD3
102
}
330
3EF0D9A1ECE7BD3
100
AcDbXrecord
 10
0.0
 20
0.0
 30
0.0
  0
XRECORD
  5
3EF0D9A1ECE7BE1
102
{ACAD_REACTORS
330
3EF0D9A1ECE7BD3
102
}
330
3EF0D9A1ECE7BD3
100
AcDbXrecord
340
0
  0
XRECORD
  5
3EF0D9A1ECE7BE2
102
{ACAD_REACTORS
330
3EF0D9A1ECE7BD3
102
}
330
3EF0D9A1ECE7BD3
100
AcDbXrecord
 70
     0
  0
XRECORD
  5
3EF0D9A1ECE7BD7
102
{ACAD_REACTORS
330
3EF0D9A1ECE7BD3
102
}
330
3EF0D9A1ECE7BD3
100
AcDbXrecord
  1

  0
XRECORD
  5
3EF0D9A1ECE7BD4
102
{ACAD_REACTORS
330
3EF0D9A1ECE7BD3
102
}
330
3EF0D9A1ECE7BD3
100
AcDbXrecord
 90
        1
  0
XRECORD
  5
3EF0D9A1ECE7BD5
102
{ACAD_REACTORS
330
3EF0D9A1ECE7BD3
102
}
330
3EF0D9A1ECE7BD3
100
AcDbXrecord
 90
       70
  0
XRECORD
  5
3EF0D9A1ECE7BEC
102
{ACAD_REACTORS
330
3EF0D9A1ECE7BD3
102
}
330
3EF0D9A1ECE7BD3
100
AcDbXrecord
340
0
  0
XRECORD
  5
3EF0D9A1ECE7BF2
102
{ACAD_REACTORS
330
3EF0D9A1ECE7BD3
102
}
330
3EF0D9A1ECE7BD3
100
AcDbXrecord
 10
0.0
 20
0.0
 30
0.0
  0
XRECORD
  5
3EF0D9A1ECE7BEE
102
{ACAD_REACTORS
330
3EF0D9A1ECE7BD3
102
}
330
3EF0D9A1ECE7BD3
100
AcDbXrecord
 10
0.0
 20
0.0
 30
0.0
  0
XRECORD
  5
3EF0D9A1ECE7BF1
102
{ACAD_REACTORS
330
3EF0D9A1ECE7BD3
102
}
330
3EF0D9A1ECE7BD3
100
AcDbXrecord
 10
0.0
 20
0.0
 30
0.0
  0
XRECORD
  5
3EF0D9A1ECE7BEF
102
{ACAD_REACTORS
330
3EF0D9A1ECE7BD3
102
}
330
3EF0D9A1ECE7BD3
100
AcDbXrecord
 10
0.0
 20
0.0
 30
0.0
  0
XRECORD
  5
3EF0D9A1ECE7BF0
102
{ACAD_REACTORS
330
3EF0D9A1ECE7BD3
102
}
330
3EF0D9A1ECE7BD3
100
AcDbXrecord
 10
0.0
 20
0.0
 30
0.0
  0
XRECORD
  5
3EF0D9A1ECE7BED
102
{ACAD_REACTORS
330
3EF0D9A1ECE7BD3
102
}
330
3EF0D9A1ECE7BD3
100
AcDbXrecord
 10
0.0
 20
0.0
 30
0.0
  0
XRECORD
  5
3EF0D9A1ECE7BEA
102
{ACAD_REACTORS
330
3EF0D9A1ECE7BD3
102
}
330
3EF0D9A1ECE7BD3
100
AcDbXrecord
340
0
  0
XRECORD
  5
3EF0D9A1ECE7BEB
102
{ACAD_REACTORS
330
3EF0D9A1ECE7BD3
102
}
330
3EF0D9A1ECE7BD3
100
AcDbXrecord
 70
     0
  0
XRECORD
  5
3EF0D9A1ECE7BDF
102
{ACAD_REACTORS
330
3EF0D9A1ECE7BD3
102
}
330
3EF0D9A1ECE7BD3
100
AcDbXrecord
  1
{1A96B5B2-8DB4-11D6-88E6-0090279574E7}
  0
DICTIONARYVAR
  5
3EF0D9A1ECE7BD1
102
{ACAD_REACTORS
330
3EF0D9A1ECE7BD0
102
}
330
3EF0D9A1ECE7BD0
100
DictionaryVariables
280
     0
  1
1
  0
ENDSEC
  0
EOF
