  0
SECTION
  2
HEADER
  9
$ACADVER
  1
AC1014
  9
$ACADMAINTVER
 70
     9
  9
$DWGCODEPAGE
  3
ANSI_1252
  9
$INSBASE
 10
2.921875
 20
1.53125
 30
0.0
  9
$EXTMIN
 10
1.147643420772856
 20
-0.3955186040825813
 30
0.0
  9
$EXTMAX
 10
4.632862742519987
 20
2.375
 30
0.0
  9
$LIMMIN
 10
0.0
 20
0.0
  9
$LIMMAX
 10
18.0
 20
12.0
  9
$ORTHOMODE
 70
     1
  9
$REGENMODE
 70
     1
  9
$FILLMODE
 70
     1
  9
$QTEXTMODE
 70
     0
  9
$MIRRTEXT
 70
     0
  9
$DRAGMODE
 70
     2
  9
$LTSCALE
 40
1.0
  9
$OSMODE
 70
    39
  9
$ATTMODE
 70
     1
  9
$TEXTSIZE
 40
0.125
  9
$TRACEWID
 40
0.05
  9
$TEXTSTYLE
  7
ROMANS
  9
$CLAYER
  8
0
  9
$CELTYPE
  6
BYLAYER
  9
$CECOLOR
 62
   256
  9
$CELTSCALE
 40
1.0
  9
$DELOBJ
 70
     1
  9
$DISPSILH
 70
     1
  9
$DIMSCALE
 40
1.0
  9
$DIMASZ
 40
0.125
  9
$DIMEXO
 40
0.125
  9
$DIMDLI
 40
0.375
  9
$DIMRND
 40
0.0
  9
$DIMDLE
 40
0.0
  9
$DIMEXE
 40
0.125
  9
$DIMTP
 40
0.0
  9
$DIMTM
 40
0.0
  9
$DIMTXT
 40
0.125
  9
$DIMCEN
 40
-0.125
  9
$DIMTSZ
 40
0.0
  9
$DIMTOL
 70
     0
  9
$DIMLIM
 70
     0
  9
$DIMTIH
 70
     1
  9
$DIMTOH
 70
     1
  9
$DIMSE1
 70
     0
  9
$DIMSE2
 70
     0
  9
$DIMTAD
 70
     0
  9
$DIMZIN
 70
     4
  9
$DIMBLK
  1

  9
$DIMASO
 70
     1
  9
$DIMSHO
 70
     1
  9
$DIMPOST
  1

  9
$DIMAPOST
  1

  9
$DIMALT
 70
     0
  9
$DIMALTD
 70
     2
  9
$DIMALTF
 40
25.4
  9
$DIMLFAC
 40
1.0
  9
$DIMTOFL
 70
     0
  9
$DIMTVP
 40
0.0
  9
$DIMTIX
 70
     1
  9
$DIMSOXD
 70
     0
  9
$DIMSAH
 70
     0
  9
$DIMBLK1
  1

  9
$DIMBLK2
  1

  9
$DIMSTYLE
  2
STANDARD
  9
$DIMCLRD
 70
     0
  9
$DIMCLRE
 70
     0
  9
$DIMCLRT
 70
     0
  9
$DIMTFAC
 40
1.0
  9
$DIMGAP
 40
0.09
  9
$DIMJUST
 70
     0
  9
$DIMSD1
 70
     0
  9
$DIMSD2
 70
     0
  9
$DIMTOLJ
 70
     1
  9
$DIMTZIN
 70
     4
  9
$DIMALTZ
 70
     0
  9
$DIMALTTZ
 70
     0
  9
$DIMFIT
 70
     3
  9
$DIMUPT
 70
     0
  9
$DIMUNIT
 70
     2
  9
$DIMDEC
 70
     3
  9
$DIMTDEC
 70
     3
  9
$DIMALTU
 70
     2
  9
$DIMALTTD
 70
     2
  9
$DIMTXSTY
  7
ROMANS
  9
$DIMAUNIT
 70
     0
  9
$LUNITS
 70
     2
  9
$LUPREC
 70
     3
  9
$SKETCHINC
 40
0.1
  9
$FILLETRAD
 40
0.03125
  9
$AUNITS
 70
     0
  9
$AUPREC
 70
     0
  9
$MENU
  1
ACAD
  9
$ELEVATION
 40
0.0
  9
$PELEVATION
 40
0.0
  9
$THICKNESS
 40
0.0
  9
$LIMCHECK
 70
     0
  9
$BLIPMODE
 70
     0
  9
$CHAMFERA
 40
0.0
  9
$CHAMFERB
 40
0.0
  9
$CHAMFERC
 40
0.0
  9
$CHAMFERD
 40
0.0
  9
$SKPOLY
 70
     0
  9
$TDCREATE
 40
2448994.301660416
  9
$TDUPDATE
 40
2452458.295933842
  9
$TDINDWG
 40
0.0007564468
  9
$TDUSRTIMER
 40
0.0007564468
  9
$USRTIMER
 70
     1
  9
$ANGBASE
 50
0.0
  9
$ANGDIR
 70
     0
  9
$PDMODE
 70
     0
  9
$PDSIZE
 40
0.0
  9
$PLINEWID
 40
0.0
  9
$COORDS
 70
     2
  9
$SPLFRAME
 70
     0
  9
$SPLINETYPE
 70
     6
  9
$SPLINESEGS
 70
     8
  9
$ATTDIA
 70
     0
  9
$ATTREQ
 70
     1
  9
$HANDLING
 70
 22529
  9
$HANDSEED
  5
3EF0D9A1ECE7706
  9
$SURFTAB1
 70
     6
  9
$SURFTAB2
 70
     6
  9
$SURFTYPE
 70
     6
  9
$SURFU
 70
     6
  9
$SURFV
 70
     6
  9
$UCSNAME
  2

  9
$UCSORG
 10
0.0
 20
0.0
 30
0.0
  9
$UCSXDIR
 10
1.0
 20
0.0
 30
0.0
  9
$UCSYDIR
 10
0.0
 20
1.0
 30
0.0
  9
$PUCSNAME
  2

  9
$PUCSORG
 10
0.0
 20
0.0
 30
0.0
  9
$PUCSXDIR
 10
1.0
 20
0.0
 30
0.0
  9
$PUCSYDIR
 10
0.0
 20
1.0
 30
0.0
  9
$USERI1
 70
     0
  9
$USERI2
 70
     0
  9
$USERI3
 70
     0
  9
$USERI4
 70
     0
  9
$USERI5
 70
     0
  9
$USERR1
 40
0.0
  9
$USERR2
 40
0.0
  9
$USERR3
 40
0.0
  9
$USERR4
 40
0.0
  9
$USERR5
 40
0.0
  9
$WORLDVIEW
 70
     1
  9
$SHADEDGE
 70
     3
  9
$SHADEDIF
 70
    70
  9
$TILEMODE
 70
     1
  9
$MAXACTVP
 70
    16
  9
$PINSBASE
 10
0.8012884581078322
 20
50.00000000000001
 30
2.539634142037108
  9
$PLIMCHECK
 70
     0
  9
$PEXTMIN
 10
1.000000000000000E+20
 20
1.000000000000000E+20
 30
1.000000000000000E+20
  9
$PEXTMAX
 10
-1.000000000000000E+20
 20
-1.000000000000000E+20
 30
-1.000000000000000E+20
  9
$PLIMMIN
 10
0.0
 20
0.0
  9
$PLIMMAX
 10
12.0
 20
9.0
  9
$UNITMODE
 70
     0
  9
$VISRETAIN
 70
     0
  9
$PLINEGEN
 70
     1
  9
$PSLTSCALE
 70
     0
  9
$TREEDEPTH
 70
  3020
  9
$PICKSTYLE
 70
     1
  9
$CMLSTYLE
  2
STANDARD
  9
$CMLJUST
 70
     0
  9
$CMLSCALE
 40
1.0
  9
$PROXYGRAPHICS
 70
     1
  9
$MEASUREMENT
 70
     0
  0
ENDSEC
  0
SECTION
  2
CLASSES
  0
CLASS
  1
LWPOLYLINE
  2
AcDbPolyline
  3
AutoCAD 2000
 90
        0
280
     0
281
     1
  0
CLASS
  1
ACDBDICTIONARYWDFLT
  2
AcDbDictionaryWithDefault
  3
AutoCAD 2000
 90
        0
280
     0
281
     0
  0
CLASS
  1
ACDBPLACEHOLDER
  2
AcDbPlaceHolder
  3
AutoCAD 2000
 90
        0
280
     0
281
     0
  0
CLASS
  1
LAYOUT
  2
AcDbLayout
  3
AutoCAD 2000
 90
        0
280
     0
281
     0
  0
CLASS
  1
DICTIONARYVAR
  2
AcDbDictionaryVar
  3
AutoCAD 2000
 90
        0
280
     0
281
     0
  0
CLASS
  1
LONG_TRANSACTION
  2
AcDbLongTransaction
  3
AutoCAD 2000
 90
        0
280
     0
281
     0
  0
CLASS
  1
LWPOLYLINE
  2
AcDbPolyline
  3
AutoCAD 2000
 90
        0
280
     0
281
     1
  0
CLASS
  1
HATCH
  2
AcDbHatch
  3
AutoCAD 2000
 90
        0
280
     0
281
     1
  0
CLASS
  1
XRECORD
  2
AcDbXrecord
  3
AutoCAD 2000
 90
        0
280
     0
281
     0
  0
ENDSEC
  0
SECTION
  2
TABLES
  0
TABLE
  2
VPORT
  5
3EF0D9A1ECE76AD
330
0
100
AcDbSymbolTable
 70
     2
  0
VPORT
  5
3EF0D9A1ECE76E1
330
3EF0D9A1ECE76AD
100
AcDbSymbolTableRecord
100
AcDbViewportTableRecord
  2
*ACTIVE
 70
     0
 10
0.0
 20
0.0
 11
1.0
 21
1.0
 12
6.969053397062953
 22
0.9895580600703173
 13
0.0
 23
0.0
 14
0.015625
 24
0.015625
 15
0.0
 25
0.0
 16
0.0
 26
0.0
 36
1.0
 17
0.0
 27
0.0
 37
0.0
 40
3.128181035472756
 41
4.320930232558139
 42
50.0
 43
0.0
 44
0.0
 50
0.0
 51
0.0
 71
     0
 72
  2000
 73
     1
 74
     0
 75
     1
 76
     0
 77
     0
 78
     0
  0
ENDTAB
  0
TABLE
  2
LTYPE
  5
3EF0D9A1ECE76AA
330
0
100
AcDbSymbolTable
 70
     1
  0
LTYPE
  5
3EF0D9A1ECE76B7
330
3EF0D9A1ECE76AA
100
AcDbSymbolTableRecord
100
AcDbLinetypeTableRecord
  2
BYBLOCK
 70
     0
  3

 72
    65
 73
     0
 40
0.0
  0
LTYPE
  5
3EF0D9A1ECE76B8
330
3EF0D9A1ECE76AA
100
AcDbSymbolTableRecord
100
AcDbLinetypeTableRecord
  2
BYLAYER
 70
     0
  3

 72
    65
 73
     0
 40
0.0
  0
LTYPE
  5
3EF0D9A1ECE76B9
330
3EF0D9A1ECE76AA
100
AcDbSymbolTableRecord
100
AcDbLinetypeTableRecord
  2
CONTINUOUS
 70
     0
  3
Solid line
 72
    65
 73
     0
 40
0.0
  0
ENDTAB
  0
TABLE
  2
LAYER
  5
3EF0D9A1ECE76A7
330
0
100
AcDbSymbolTable
 70
     2
  0
LAYER
  5
3EF0D9A1ECE76B4
330
3EF0D9A1ECE76A7
100
AcDbSymbolTableRecord
100
AcDbLayerTableRecord
  2
0
 70
     0
 62
     7
  6
CONTINUOUS
  0
LAYER
  5
3EF0D9A1ECE76C4
330
3EF0D9A1ECE76A7
100
AcDbSymbolTableRecord
100
AcDbLayerTableRecord
  2
TEXT
 70
     0
 62
     3
  6
CONTINUOUS
  0
ENDTAB
  0
TABLE
  2
STYLE
  5
3EF0D9A1ECE76A8
330
0
100
AcDbSymbolTable
 70
     3
  0
STYLE
  5
3EF0D9A1ECE76B5
330
3EF0D9A1ECE76A8
100
AcDbSymbolTableRecord
100
AcDbTextStyleTableRecord
  2
STANDARD
 70
     0
 40
0.0
 41
1.0
 50
0.0
 71
     0
 42
0.3125
  3
txt
  4

  0
STYLE
  5
3EF0D9A1ECE76C1
330
3EF0D9A1ECE76A8
100
AcDbSymbolTableRecord
100
AcDbTextStyleTableRecord
  2
ITALICC
 70
     0
 40
0.0
 41
1.0
 50
0.0
 71
     0
 42
0.125
  3
italicc
  4

  0
STYLE
  5
3EF0D9A1ECE76D1
330
3EF0D9A1ECE76A8
100
AcDbSymbolTableRecord
100
AcDbTextStyleTableRecord
  2
ROMANS
 70
     0
 40
0.0
 41
1.0
 50
0.0
 71
     0
 42
0.125
  3
romans.shx
  4

  0
ENDTAB
  0
TABLE
  2
VIEW
  5
3EF0D9A1ECE76AB
330
0
100
AcDbSymbolTable
 70
     0
  0
ENDTAB
  0
TABLE
  2
UCS
  5
3EF0D9A1ECE76AC
330
0
100
AcDbSymbolTable
 70
     0
  0
ENDTAB
  0
TABLE
  2
APPID
  5
3EF0D9A1ECE76AE
330
0
100
AcDbSymbolTable
 70
     1
  0
APPID
  5
3EF0D9A1ECE76B6
330
3EF0D9A1ECE76AE
100
AcDbSymbolTableRecord
100
AcDbRegAppTableRecord
  2
ACAD
 70
     0
  0
ENDTAB
  0
TABLE
  2
DIMSTYLE
  5
3EF0D9A1ECE76AF
330
0
100
AcDbSymbolTable
 70
     1
  0
DIMSTYLE
105
3EF0D9A1ECE76C9
330
3EF0D9A1ECE76AF
100
AcDbSymbolTableRecord
100
AcDbDimStyleTableRecord
  2
STANDARD
 70
     0
  3

  4

  5

  6

  7

 40
1.0
 41
0.125
 42
0.125
 43
0.375
 44
0.125
 45
0.0
 46
0.0
 47
0.0
 48
0.0
140
0.125
141
-0.125
142
0.0
143
25.4
144
1.0
145
0.0
146
1.0
147
0.09
 71
     0
 72
     0
 73
     1
 74
     1
 75
     0
 76
     0
 77
     0
 78
     4
170
     0
171
     2
172
     0
173
     0
174
     1
175
     0
176
     0
177
     0
178
     0
270
     2
271
     3
272
     3
273
     2
274
     2
340
3EF0D9A1ECE76D1
275
     0
280
     0
281
     0
282
     0
283
     1
284
     4
285
     0
286
     0
287
     3
288
     0
  0
ENDTAB
  0
TABLE
  2
BLOCK_RECORD
  5
3EF0D9A1ECE76A6
330
0
100
AcDbSymbolTable
 70
     0
  0
BLOCK_RECORD
  5
3EF0D9A1ECE76BD
102
{ACAD_XDICTIONARY
360
3EF0D9A1ECE7704
102
}
330
3EF0D9A1ECE76A6
100
AcDbSymbolTableRecord
100
AcDbBlockTableRecord
  2
*MODEL_SPACE
  0
BLOCK_RECORD
  5
3EF0D9A1ECE76BA
102
{ACAD_XDICTIONARY
360
3EF0D9A1ECE7702
102
}
330
3EF0D9A1ECE76A6
100
AcDbSymbolTableRecord
100
AcDbBlockTableRecord
  2
*PAPER_SPACE
  0
ENDTAB
  0
ENDSEC
  0
SECTION
  2
BLOCKS
  0
BLOCK
  5
3EF0D9A1ECE76C7
330
3EF0D9A1ECE76BD
100
AcDbEntity
  8
0
100
AcDbBlockBegin
  2
*MODEL_SPACE
 70
     0
 10
0.0
 20
0.0
 30
0.0
  3
*MODEL_SPACE
  1

  0
ENDBLK
  5
3EF0D9A1ECE76C8
330
3EF0D9A1ECE76BD
100
AcDbEntity
  8
0
100
AcDbBlockEnd
  0
BLOCK
  5
3EF0D9A1ECE76C5
330
3EF0D9A1ECE76BA
100
AcDbEntity
 67
     1
  8
0
100
AcDbBlockBegin
  2
*PAPER_SPACE
 70
     0
 10
0.0
 20
0.0
 30
0.0
  3
*PAPER_SPACE
  1

  0
ENDBLK
  5
3EF0D9A1ECE76C6
330
3EF0D9A1ECE76BA
100
AcDbEntity
 67
     1
  8
0
100
AcDbBlockEnd
  0
ENDSEC
  0
SECTION
  2
ENTITIES
  0
LWPOLYLINE
  5
3EF0D9A1ECE60EE
330
3EF0D9A1ECE76BD
100
AcDbEntity
  8
0
100
AcDbPolyline
 90
       23
 70
     1
 43
0.0
 10
3.140625
 20
2.3125
 10
3.140625
 20
2.375
 10
2.640625
 20
2.375
 10
2.640625
 20
2.3125
 10
2.921875
 20
2.3125
 10
2.921875
 20
1.921874999999999
 10
2.640625
 20
1.921874999999999
 10
2.640625
 20
1.859375
 10
2.921875
 20
1.859375
 10
2.921875
 20
1.484375
 10
2.640625
 20
1.484375
 10
2.640625
 20
1.421875
 10
2.921875
 20
1.421875
 10
2.921875
 20
1.031749999999999
 10
2.640874999999999
 20
1.031749999999999
 10
2.640874999999999
 20
0.9692499999999997
 10
2.755874999999999
 20
0.9692500000000002
 10
2.765774494936611
 20
0.9791494949366118
 10
2.775673989873223
 20
0.9692500000000002
 10
2.921673989873223
 20
0.9692500000000002
 10
2.921673989873223
 20
0.3754999999999997
 10
2.984173989873222
 20
0.3754999999999997
 10
2.984173989873223
 20
2.3125
  0
TEXT
  5
3EF0D9A1ECE7568
330
3EF0D9A1ECE76BD
100
AcDbEntity
  8
TEXT
100
AcDbText
 10
2.137648809523809
 20
0.0625
 30
0.0
 40
0.125
  1
PART #110122
  7
ITALICC
 72
     1
 11
2.890625
 21
0.0625
 31
0.0
100
AcDbText
  0
TEXT
  5
3EF0D9A1ECE7569
330
3EF0D9A1ECE76BD
100
AcDbEntity
  8
TEXT
100
AcDbText
 10
3.30393015825032
 20
-0.3844226426723751
 30
0.0
 40
0.0522247191011236
  1
Phone  1-800-328-2495
 41
1.272321428571429
 72
     5
 11
4.632862742519984
 21
-0.3844226426723751
 31
0.0
100
AcDbText
  0
TEXT
  5
3EF0D9A1ECE756A
330
3EF0D9A1ECE76BD
100
AcDbEntity
  8
TEXT
100
AcDbText
 10
3.30393015825032
 20
-0.1046473617734986
 30
0.0
 40
0.0522247191011236
  1
Stylmark  Incorporated
 41
1.221428571428573
 72
     5
 11
4.632862742519984
 21
-0.1046473617734986
 31
0.0
100
AcDbText
  0
TEXT
  5
3EF0D9A1ECE756B
330
3EF0D9A1ECE76BD
100
AcDbEntity
  8
TEXT
100
AcDbText
 10
3.30393015825032
 20
-0.1979057887397908
 30
0.0
 40
0.0522247191011236
  1
6536 Main St. N.E. * P.O. Box 32008
 41
0.8388932496075366
 72
     5
 11
4.632862742519984
 21
-0.1979057887397908
 31
0.0
100
AcDbText
  0
TEXT
  5
3EF0D9A1ECE756C
330
3EF0D9A1ECE76BD
100
AcDbEntity
  8
TEXT
100
AcDbText
 10
3.30393015825032
 20
-0.291164215706083
 30
0.0
 40
0.0522247191011236
  1
Minneapolis, MN 55432-0008
 41
1.11444212721585
 72
     5
 11
4.632862742519984
 21
-0.291164215706083
 31
0.0
100
AcDbText
  0
LWPOLYLINE
  5
3EF0D9A1ECE756D
330
3EF0D9A1ECE76BD
100
AcDbEntity
  8
TEXT
100
AcDbPolyline
 90
        3
 70
     0
 43
0.0006660908203125
 10
1.147976466183012
 20
-0.2707778800349403
 10
1.147976466183012
 20
-0.3840133194880679
 10
1.261211905636135
 20
-0.3840133194880679
  0
LWPOLYLINE
  5
3EF0D9A1ECE7572
330
3EF0D9A1ECE76BD
100
AcDbEntity
  8
TEXT
100
AcDbPolyline
 90
        3
 70
     0
 43
0.0006660908203125
 10
1.17462009899551
 20
-0.2707778800349403
 10
1.17462009899551
 20
-0.3573696866755669
 10
1.261211905636135
 20
-0.3573696866755669
  0
LWPOLYLINE
  5
3EF0D9A1ECE7577
330
3EF0D9A1ECE76BD
100
AcDbEntity
  8
TEXT
100
AcDbPolyline
 90
        2
 70
     0
 43
0.0001332181640625
 10
1.221246456417387
 20
-0.2607865177302551
 10
1.147976466183012
 20
-0.2707778800349403
  0
LWPOLYLINE
  5
3EF0D9A1ECE757B
330
3EF0D9A1ECE76BD
100
AcDbEntity
  8
TEXT
100
AcDbPolyline
 90
        2
 70
     0
 43
0.0001332181640625
 10
1.17462009899551
 20
-0.2707778800349403
 10
1.234568272823637
 20
-0.2607865177302551
  0
LWPOLYLINE
  5
3EF0D9A1ECE757F
330
3EF0D9A1ECE76BD
100
AcDbEntity
  8
TEXT
100
AcDbPolyline
 90
        2
 70
     0
 43
0.0001332181640625
 10
1.17462009899551
 20
-0.3573696866755669
 10
1.234568272823637
 20
-0.2974215128474413
  0
LWPOLYLINE
  5
3EF0D9A1ECE7583
330
3EF0D9A1ECE76BD
100
AcDbEntity
  8
TEXT
100
AcDbPolyline
 90
        3
 70
     0
 43
0.0006660908203125
 10
1.261211905636135
 20
-0.1175769913630646
 10
1.147976466183012
 20
-0.1175769913630646
 10
1.147976466183012
 20
-0.2308124308161923
  0
LWPOLYLINE
  5
3EF0D9A1ECE7588
330
3EF0D9A1ECE76BD
100
AcDbEntity
  8
TEXT
100
AcDbPolyline
 90
        3
 70
     0
 43
0.0006660908203125
 10
1.261211905636135
 20
-0.1442206241755657
 10
1.17462009899551
 20
-0.1442206241755657
 10
1.17462009899551
 20
-0.2308124308161923
  0
LWPOLYLINE
  5
3EF0D9A1ECE758D
330
3EF0D9A1ECE76BD
100
AcDbEntity
  8
TEXT
100
AcDbPolyline
 90
        2
 70
     0
 43
0.0001332181640625
 10
1.17462009899551
 20
-0.1442206241755657
 10
1.234568272823636
 20
-0.2041687980036912
  0
LWPOLYLINE
  5
3EF0D9A1ECE7591
330
3EF0D9A1ECE76BD
100
AcDbEntity
  8
TEXT
100
AcDbPolyline
 90
        2
 70
     0
 43
0.0001332181640625
 10
1.17462009899551
 20
-0.2308124308161923
 10
1.234568272823636
 20
-0.2408037931208811
  0
LWPOLYLINE
  5
3EF0D9A1ECE7595
330
3EF0D9A1ECE76BD
100
AcDbEntity
  8
TEXT
100
AcDbPolyline
 90
        2
 70
     0
 43
0.0001332181640625
 10
1.147976466183012
 20
-0.2308124308161923
 10
1.221246456417387
 20
-0.2408037931208811
  0
LWPOLYLINE
  5
3EF0D9A1ECE7599
330
3EF0D9A1ECE76BD
100
AcDbEntity
  8
TEXT
100
AcDbPolyline
 90
        2
 70
     0
 43
0.0006660908203125
 10
1.17462009899551
 20
-0.2707778800349403
 10
1.147976466183012
 20
-0.2707778800349403
  0
LWPOLYLINE
  5
3EF0D9A1ECE759D
330
3EF0D9A1ECE76BD
100
AcDbEntity
  8
TEXT
100
AcDbPolyline
 90
        2
 70
     0
 43
0.0006660908203125
 10
1.17462009899551
 20
-0.2308124308161923
 10
1.147976466183012
 20
-0.2308124308161923
  0
LINE
  5
3EF0D9A1ECE75A1
330
3EF0D9A1ECE76BD
100
AcDbEntity
  8
TEXT
100
AcDbLine
 10
2.66316689530951
 20
-0.1818536860198337
 30
0.0
 11
2.555960621922221
 21
-0.1818536860198337
 31
0.0
  0
LINE
  5
3EF0D9A1ECE75A2
330
3EF0D9A1ECE76BD
100
AcDbEntity
  8
TEXT
100
AcDbLine
 10
2.692197793653988
 20
-0.1175769913630682
 30
0.0
 11
2.557365884436929
 21
-0.1175769913630682
 31
0.0
  0
ARC
  5
3EF0D9A1ECE75A3
330
3EF0D9A1ECE76BD
100
AcDbEntity
  8
TEXT
100
AcDbCircle
 10
2.616679980830246
 20
-0.2868142406260845
 30
0.0
 40
0.0676855811441166
100
AcDbArc
 50
90.0
 51
153.7768192527749
  0
LWPOLYLINE
  5
3EF0D9A1ECE75A4
330
3EF0D9A1ECE76BD
100
AcDbEntity
  8
TEXT
100
AcDbPolyline
 90
        2
 70
     0
 43
0.0
 10
2.554928126467411
 20
-0.340559079401141
 42
0.2901071551932823
 10
2.598004059335046
 20
-0.3840500243515792
 42
5.328517124445801
  0
ARC
  5
3EF0D9A1ECE75A8
330
3EF0D9A1ECE76BD
100
AcDbEntity
  8
TEXT
100
AcDbCircle
 10
1.91154860315876
 20
-0.3242576330135294
 30
0.0
 40
0.0601160179737537
100
AcDbArc
 50
180.0000000000003
 51
264.0521544866073
  0
LINE
  5
3EF0D9A1ECE75A9
330
3EF0D9A1ECE76BD
100
AcDbEntity
  8
TEXT
100
AcDbLine
 10
1.915063958784308
 20
-0.0831890737689301
 30
0.0
 11
1.855021353940301
 21
-0.0831890737689301
 31
0.0
  0
ARC
  5
3EF0D9A1ECE75AA
330
3EF0D9A1ECE76BD
100
AcDbEntity
  8
TEXT
100
AcDbCircle
 10
1.67928960104179
 20
-0.19966445080957
 30
0.0
 40
0.0820874594465043
100
AcDbArc
 50
90.0
 51
270.0
  0
LWPOLYLINE
  5
3EF0D9A1ECE75AB
330
3EF0D9A1ECE76BD
100
AcDbEntity
  8
TEXT
100
AcDbPolyline
 90
        2
 70
     0
 43
0.0001332181640625
 10
1.271203267940825
 20
-0.1908469815974443
 10
1.261211905636135
 20
-0.1175769913630646
  0
LWPOLYLINE
  5
3EF0D9A1ECE75AF
330
3EF0D9A1ECE76BD
100
AcDbEntity
  8
TEXT
100
AcDbPolyline
 90
        2
 70
     0
 43
0.0001332181640625
 10
1.261211905636135
 20
-0.1442206241755657
 10
1.271203267940825
 20
-0.2041687980036912
  0
LWPOLYLINE
  5
3EF0D9A1ECE75B3
330
3EF0D9A1ECE76BD
100
AcDbEntity
  8
TEXT
100
AcDbPolyline
 90
        3
 70
     0
 43
0.0006660908203125
 10
1.414412794308012
 20
-0.2308124308161923
 10
1.414412794308012
 20
-0.1175769913630646
 10
1.301177354854886
 20
-0.1175769913630646
  0
LWPOLYLINE
  5
3EF0D9A1ECE75B8
330
3EF0D9A1ECE76BD
100
AcDbEntity
  8
TEXT
100
AcDbPolyline
 90
        3
 70
     0
 43
0.0006660908203125
 10
1.387769161495511
 20
-0.2308124308161923
 10
1.387769161495511
 20
-0.1442206241755657
 10
1.301177354854886
 20
-0.1442206241755657
  0
LWPOLYLINE
  5
3EF0D9A1ECE75BD
330
3EF0D9A1ECE76BD
100
AcDbEntity
  8
TEXT
100
AcDbPolyline
 90
        2
 70
     0
 43
0.0001332181640625
 10
1.387769161495511
 20
-0.1442206241755657
 10
1.327820987667387
 20
-0.2041687980036912
  0
LWPOLYLINE
  5
3EF0D9A1ECE75C1
330
3EF0D9A1ECE76BD
100
AcDbEntity
  8
TEXT
100
AcDbPolyline
 90
        2
 70
     0
 43
0.0001332181640625
 10
1.301177354854886
 20
-0.1442206241755657
 10
1.291185992550198
 20
-0.2041687980036912
  0
LWPOLYLINE
  5
3EF0D9A1ECE75C5
330
3EF0D9A1ECE76BD
100
AcDbEntity
  8
TEXT
100
AcDbPolyline
 90
        2
 70
     0
 43
0.0001332181640625
 10
1.301177354854886
 20
-0.1175769913630646
 10
1.291185992550198
 20
-0.1908469815974443
  0
LWPOLYLINE
  5
3EF0D9A1ECE75C9
330
3EF0D9A1ECE76BD
100
AcDbEntity
  8
TEXT
100
AcDbPolyline
 90
        2
 70
     0
 43
0.0001332181640625
 10
1.341142804073636
 20
-0.2408037931208811
 10
1.414412794308012
 20
-0.2308124308161923
  0
LWPOLYLINE
  5
3EF0D9A1ECE75CD
330
3EF0D9A1ECE76BD
100
AcDbEntity
  8
TEXT
100
AcDbPolyline
 90
        2
 70
     0
 43
0.0001332181640625
 10
1.387769161495511
 20
-0.2308124308161923
 10
1.327820987667387
 20
-0.2408037931208811
  0
LWPOLYLINE
  5
3EF0D9A1ECE75D1
330
3EF0D9A1ECE76BD
100
AcDbEntity
  8
TEXT
100
AcDbPolyline
 90
        2
 70
     0
 43
0.0001332181640625
 10
1.414412794308012
 20
-0.2707778800349403
 10
1.341142804073636
 20
-0.2607865177302551
  0
LWPOLYLINE
  5
3EF0D9A1ECE75D5
330
3EF0D9A1ECE76BD
100
AcDbEntity
  8
TEXT
100
AcDbPolyline
 90
        2
 70
     0
 43
0.0001332181640625
 10
1.387769161495511
 20
-0.2707778800349403
 10
1.327820987667387
 20
-0.2607865177302551
  0
LWPOLYLINE
  5
3EF0D9A1ECE75D9
330
3EF0D9A1ECE76BD
100
AcDbEntity
  8
TEXT
100
AcDbPolyline
 90
        2
 70
     0
 43
0.0001332181640625
 10
1.387769161495511
 20
-0.3573696866755669
 10
1.327820987667387
 20
-0.2974215128474413
  0
LWPOLYLINE
  5
3EF0D9A1ECE75DD
330
3EF0D9A1ECE76BD
100
AcDbEntity
  8
TEXT
100
AcDbPolyline
 90
        3
 70
     0
 43
0.0006660908203125
 10
1.301177354854886
 20
-0.3573696866755669
 10
1.387769161495511
 20
-0.3573696866755669
 10
1.387769161495511
 20
-0.2707778800349403
  0
LWPOLYLINE
  5
3EF0D9A1ECE75E2
330
3EF0D9A1ECE76BD
100
AcDbEntity
  8
TEXT
100
AcDbPolyline
 90
        3
 70
     0
 43
0.0006660908203125
 10
1.301177354854886
 20
-0.3840133194880679
 10
1.414412794308012
 20
-0.3840133194880679
 10
1.414412794308012
 20
-0.2707778800349403
  0
LWPOLYLINE
  5
3EF0D9A1ECE75E7
330
3EF0D9A1ECE76BD
100
AcDbEntity
  8
TEXT
100
AcDbPolyline
 90
        5
 70
     0
 43
0.0001332181640625
 10
1.271203267940825
 20
-0.3107433292536919
 10
1.271203267940825
 20
-0.2974215128474413
 10
1.234568272823637
 20
-0.2974215128474413
 10
1.234568272823637
 20
-0.2607865177302551
 10
1.221246456417387
 20
-0.2607865177302551
  0
LWPOLYLINE
  5
3EF0D9A1ECE75EE
330
3EF0D9A1ECE76BD
100
AcDbEntity
  8
TEXT
100
AcDbPolyline
 90
        2
 70
     0
 43
0.0006660908203125
 10
1.261211905636135
 20
-0.3573696866755669
 10
1.261211905636135
 20
-0.3840133194880679
  0
LWPOLYLINE
  5
3EF0D9A1ECE75F2
330
3EF0D9A1ECE76BD
100
AcDbEntity
  8
TEXT
100
AcDbPolyline
 90
        2
 70
     0
 43
0.0001332181640625
 10
1.261211905636135
 20
-0.3573696866755669
 10
1.271203267940825
 20
-0.2974215128474413
  0
LWPOLYLINE
  5
3EF0D9A1ECE75F6
330
3EF0D9A1ECE76BD
100
AcDbEntity
  8
TEXT
100
AcDbPolyline
 90
        2
 70
     0
 43
0.0001332181640625
 10
1.261211905636135
 20
-0.3840133194880679
 10
1.271203267940825
 20
-0.3107433292536919
  0
LWPOLYLINE
  5
3EF0D9A1ECE75FA
330
3EF0D9A1ECE76BD
100
AcDbEntity
  8
TEXT
100
AcDbPolyline
 90
        5
 70
     0
 43
0.0001332181640625
 10
1.221246456417387
 20
-0.2408037931208811
 10
1.234568272823636
 20
-0.2408037931208811
 10
1.234568272823636
 20
-0.2041687980036912
 10
1.271203267940825
 20
-0.2041687980036912
 10
1.271203267940825
 20
-0.1908469815974443
  0
LWPOLYLINE
  5
3EF0D9A1ECE7601
330
3EF0D9A1ECE76BD
100
AcDbEntity
  8
TEXT
100
AcDbPolyline
 90
        5
 70
     0
 43
0.0001332181640625
 10
1.291185992550198
 20
-0.1908469815974443
 10
1.291185992550198
 20
-0.2041687980036912
 10
1.327820987667387
 20
-0.2041687980036912
 10
1.327820987667387
 20
-0.2408037931208811
 10
1.341142804073636
 20
-0.2408037931208811
  0
LWPOLYLINE
  5
3EF0D9A1ECE7608
330
3EF0D9A1ECE76BD
100
AcDbEntity
  8
TEXT
100
AcDbPolyline
 90
        2
 70
     0
 43
0.0001332181640625
 10
1.301177354854886
 20
-0.3573696866755669
 10
1.291185992550198
 20
-0.2974215128474413
  0
LWPOLYLINE
  5
3EF0D9A1ECE760C
330
3EF0D9A1ECE76BD
100
AcDbEntity
  8
TEXT
100
AcDbPolyline
 90
        2
 70
     0
 43
0.0001332181640625
 10
1.291185992550198
 20
-0.3107433292536919
 10
1.301177354854886
 20
-0.3840133194880679
  0
LWPOLYLINE
  5
3EF0D9A1ECE7610
330
3EF0D9A1ECE76BD
100
AcDbEntity
  8
TEXT
100
AcDbPolyline
 90
        2
 70
     0
 43
0.0006660908203125
 10
1.301177354854886
 20
-0.3573696866755669
 10
1.301177354854886
 20
-0.3840133194880679
  0
LWPOLYLINE
  5
3EF0D9A1ECE7614
330
3EF0D9A1ECE76BD
100
AcDbEntity
  8
TEXT
100
AcDbPolyline
 90
        5
 70
     0
 43
0.0001332181640625
 10
1.341142804073636
 20
-0.2607865177302551
 10
1.327820987667387
 20
-0.2607865177302551
 10
1.327820987667387
 20
-0.2974215128474413
 10
1.291185992550198
 20
-0.2974215128474413
 10
1.291185992550198
 20
-0.3107433292536919
  0
LWPOLYLINE
  5
3EF0D9A1ECE761B
330
3EF0D9A1ECE76BD
100
AcDbEntity
  8
TEXT
100
AcDbPolyline
 90
        2
 70
     0
 43
0.0006660908203125
 10
1.387769161495511
 20
-0.2308124308161923
 10
1.414412794308012
 20
-0.2308124308161923
  0
LWPOLYLINE
  5
3EF0D9A1ECE761F
330
3EF0D9A1ECE76BD
100
AcDbEntity
  8
TEXT
100
AcDbPolyline
 90
        2
 70
     0
 43
0.0006660908203125
 10
1.387769161495511
 20
-0.2707778800349403
 10
1.414412794308012
 20
-0.2707778800349403
  0
LINE
  5
3EF0D9A1ECE7623
330
3EF0D9A1ECE76BD
100
AcDbEntity
  8
TEXT
100
AcDbLine
 10
1.684526931156037
 20
-0.1818536860198337
 30
0.0
 11
1.851432585185008
 21
-0.1818536860198337
 31
0.0
  0
LINE
  5
3EF0D9A1ECE7624
330
3EF0D9A1ECE76BD
100
AcDbEntity
  8
TEXT
100
AcDbLine
 10
1.750127067400338
 20
-0.2176584076304615
 30
0.0
 11
1.684526931156037
 21
-0.2176584076304615
 31
0.0
  0
LINE
  5
3EF0D9A1ECE7625
330
3EF0D9A1ECE76BD
100
AcDbEntity
  8
TEXT
100
AcDbLine
 10
1.597202141595285
 20
-0.3840500243515792
 30
0.0
 11
1.750127067400338
 21
-0.3840500243515792
 31
0.0
  0
LINE
  5
3EF0D9A1ECE7626
330
3EF0D9A1ECE76BD
100
AcDbEntity
  8
TEXT
100
AcDbLine
 10
1.755067441306618
 20
-0.3156930180181399
 30
0.0
 11
1.597202141595284
 21
-0.3156930180181399
 31
0.0
  0
LINE
  5
3EF0D9A1ECE7627
330
3EF0D9A1ECE76BD
100
AcDbEntity
  8
TEXT
100
AcDbLine
 10
1.679289601041789
 20
-0.2817519102560753
 30
0.0
 11
1.755067441306618
 21
-0.2817519102560753
 31
0.0
  0
ARC
  5
3EF0D9A1ECE7628
330
3EF0D9A1ECE76BD
100
AcDbEntity
  8
TEXT
100
AcDbCircle
 10
1.684526931156038
 20
-0.1997560468251458
 30
0.0
 40
0.017902360805315
100
AcDbArc
 50
90.0
 51
270.0
  0
LINE
  5
3EF0D9A1ECE7629
330
3EF0D9A1ECE76BD
100
AcDbEntity
  8
TEXT
100
AcDbLine
 10
1.597202141595284
 20
-0.3156930180181399
 30
0.0
 11
1.597202141595285
 21
-0.3840500243515792
 31
0.0
  0
LINE
  5
3EF0D9A1ECE762A
330
3EF0D9A1ECE76BD
100
AcDbEntity
  8
TEXT
100
AcDbLine
 10
1.851432585185008
 20
-0.1818536860198337
 30
0.0
 11
1.851432585185008
 21
-0.3242576330135294
 31
0.0
  0
ARC
  5
3EF0D9A1ECE762B
330
3EF0D9A1ECE76BD
100
AcDbEntity
  8
TEXT
100
AcDbCircle
 10
1.750127067400339
 20
-0.3008542159910221
 30
0.0
 40
0.0831958083605586
100
AcDbArc
 50
270.0
 51
90.0
  0
ARC
  5
3EF0D9A1ECE762C
330
3EF0D9A1ECE76BD
100
AcDbEntity
  8
TEXT
100
AcDbCircle
 10
1.755067441306619
 20
-0.2987224641371058
 30
0.0
 40
0.0169705538810321
100
AcDbArc
 50
270.0
 51
90.0
  0
LWPOLYLINE
  5
3EF0D9A1ECE762D
330
3EF0D9A1ECE76BD
100
AcDbEntity
  8
TEXT
100
AcDbPolyline
 90
        2
 70
     0
 43
0.0006660908203125
 10
1.261211905636135
 20
-0.1442206241755657
 10
1.261211905636135
 20
-0.1175769913630646
  0
LWPOLYLINE
  5
3EF0D9A1ECE7631
330
3EF0D9A1ECE76BD
100
AcDbEntity
  8
TEXT
100
AcDbPolyline
 90
        2
 70
     0
 43
0.0006660908203125
 10
1.301177354854886
 20
-0.1442206241755657
 10
1.301177354854886
 20
-0.1175769913630646
  0
LINE
  5
3EF0D9A1ECE7635
330
3EF0D9A1ECE76BD
100
AcDbEntity
  8
TEXT
100
AcDbLine
 10
1.855021353940301
 20
-0.1175769913630682
 30
0.0
 11
1.679289601041789
 21
-0.1175769913630682
 31
0.0
  0
LINE
  5
3EF0D9A1ECE7636
330
3EF0D9A1ECE76BD
100
AcDbEntity
  8
TEXT
100
AcDbLine
 10
1.855021353940301
 20
-0.0831890737689301
 30
0.0
 11
1.855021353940301
 21
-0.1175769913630682
 31
0.0
  0
LINE
  5
3EF0D9A1ECE7637
330
3EF0D9A1ECE76BD
100
AcDbEntity
  8
TEXT
100
AcDbLine
 10
2.045493245960154
 20
-0.2184489874761888
 30
0.0
 11
1.986862924928216
 21
-0.1175769913630682
 31
0.0
  0
LINE
  5
3EF0D9A1ECE7638
330
3EF0D9A1ECE76BD
100
AcDbEntity
  8
TEXT
100
AcDbLine
 10
2.104241808766019
 20
-0.1175769913630682
 30
0.0
 11
2.045493245960154
 21
-0.2184489874761888
 31
0.0
  0
LINE
  5
3EF0D9A1ECE7639
330
3EF0D9A1ECE76BD
100
AcDbEntity
  8
TEXT
100
AcDbLine
 10
2.20117243412576
 20
-0.30166218624858
 30
0.0
 11
2.20117243412576
 21
-0.0495655136242577
 31
0.0
  0
LINE
  5
3EF0D9A1ECE763A
330
3EF0D9A1ECE76BD
100
AcDbEntity
  8
TEXT
100
AcDbLine
 10
2.23348428826342
 20
-0.1175769913630682
 30
0.0
 11
2.23348428826342
 21
-0.3184411980954764
 31
0.0
  0
LINE
  5
3EF0D9A1ECE763B
330
3EF0D9A1ECE76BD
100
AcDbEntity
  8
TEXT
100
AcDbLine
 10
2.23348428826342
 20
-0.3184411980954764
 30
0.0
 11
2.216490651378819
 21
-0.3184411980954764
 31
0.0
  0
LINE
  5
3EF0D9A1ECE763C
330
3EF0D9A1ECE76BD
100
AcDbEntity
  8
TEXT
100
AcDbLine
 10
2.202312007621955
 20
-0.3840500243515792
 30
0.0
 11
2.30031534132139
 21
-0.3840500243515792
 31
0.0
  0
LINE
  5
3EF0D9A1ECE763D
330
3EF0D9A1ECE76BD
100
AcDbEntity
  8
TEXT
100
AcDbLine
 10
2.035893008963199
 20
-0.3640915182465663
 30
0.0
 11
2.133192715056644
 21
-0.1997413073112981
 31
0.0
  0
ARC
  5
3EF0D9A1ECE763E
330
3EF0D9A1ECE76BD
100
AcDbEntity
  8
TEXT
100
AcDbCircle
 10
2.001849449050985
 20
-0.3445023020778835
 30
0.0
 40
0.0392772371940762
100
AcDbArc
 50
270.1604552698595
 51
330.0831797321295
  0
LINE
  5
3EF0D9A1ECE763F
330
3EF0D9A1ECE76BD
100
AcDbEntity
  8
TEXT
100
AcDbLine
 10
1.905319192665114
 20
-0.3840500243515792
 30
0.0
 11
2.001959443740108
 21
-0.3837793852532969
 31
0.0
  0
LWPOLYLINE
  5
3EF0D9A1ECE7640
330
3EF0D9A1ECE76BD
100
AcDbEntity
  8
TEXT
100
AcDbPolyline
 90
        6
 70
     1
 43
0.0
 10
1.947842996240264
 20
-0.1818536860198337
 10
1.917526402020055
 20
-0.1818536860198337
 10
1.917526402020055
 20
-0.304964684074728
 42
0.407328721240804
 10
1.929070053181532
 20
-0.3167835987511141
 10
1.989691752226263
 20
-0.3167835987511141
 10
2.007157092633581
 20
-0.2839713697076349
  0
LINE
  5
3EF0D9A1ECE7648
330
3EF0D9A1ECE76BD
100
AcDbEntity
  8
TEXT
100
AcDbLine
 10
2.133192715056644
 20
-0.1997413073112981
 30
0.0
 11
2.133192715056644
 21
-0.3324986821366544
 31
0.0
  0
ARC
  5
3EF0D9A1ECE7649
330
3EF0D9A1ECE76BD
100
AcDbEntity
  8
TEXT
100
AcDbCircle
 10
2.216490651378817
 20
-0.303059391852051
 30
0.0
 40
0.0153818062434269
100
AcDbArc
 50
174.7883570302258
 51
270.0
  0
LWPOLYLINE
  5
3EF0D9A1ECE764A
330
3EF0D9A1ECE76BD
100
AcDbEntity
  8
TEXT
100
AcDbPolyline
 90
        2
 70
     0
 43
0.0
 10
2.133192715056642
 20
-0.3324986821366509
 42
0.3318488747599744
 10
2.202312007621955
 20
-0.3840500243515792
 42
-6.868794160588311
  0
LINE
  5
3EF0D9A1ECE764E
330
3EF0D9A1ECE76BD
100
AcDbEntity
  8
TEXT
100
AcDbLine
 10
2.357704410310651
 20
-0.3840500243515792
 30
0.0
 11
2.424762457092491
 21
-0.3840500243515792
 31
0.0
  0
LINE
  5
3EF0D9A1ECE764F
330
3EF0D9A1ECE76BD
100
AcDbEntity
  8
TEXT
100
AcDbLine
 10
2.357704410310651
 20
-0.1894074751859436
 30
0.0
 11
2.357704410310651
 21
-0.3840500243515792
 31
0.0
  0
LINE
  5
3EF0D9A1ECE7650
330
3EF0D9A1ECE76BD
100
AcDbEntity
  8
TEXT
100
AcDbLine
 10
2.30031534132139
 20
-0.1818536860198337
 30
0.0
 11
2.350150621144537
 21
-0.1818536860198337
 31
0.0
  0
LINE
  5
3EF0D9A1ECE7651
330
3EF0D9A1ECE76BD
100
AcDbEntity
  8
TEXT
100
AcDbLine
 10
2.30031534132139
 20
-0.3840500243515792
 30
0.0
 11
2.30031534132139
 21
-0.1818536860198337
 31
0.0
  0
LWPOLYLINE
  5
3EF0D9A1ECE7652
330
3EF0D9A1ECE76BD
100
AcDbEntity
  8
TEXT
100
AcDbPolyline
 90
        2
 70
     0
 43
0.0
 10
2.350150621144535
 20
-0.1818536860198337
 42
-0.4142135623731017
 10
2.357704410310649
 20
-0.1894074751859436
 42
-0.9999999999999998
  0
LINE
  5
3EF0D9A1ECE7656
330
3EF0D9A1ECE76BD
100
AcDbEntity
  8
TEXT
100
AcDbLine
 10
2.555960621922221
 20
-0.1818536860198337
 30
0.0
 11
2.555960621922221
 21
-0.2569060920940402
 31
0.0
  0
LINE
  5
3EF0D9A1ECE7657
330
3EF0D9A1ECE76BD
100
AcDbEntity
  8
TEXT
100
AcDbLine
 10
2.424762457092491
 20
-0.1818536860198337
 30
0.0
 11
2.478896054013441
 21
-0.1818536860198337
 31
0.0
  0
LINE
  5
3EF0D9A1ECE7658
330
3EF0D9A1ECE76BD
100
AcDbEntity
  8
TEXT
100
AcDbLine
 10
2.424762457092491
 20
-0.3840500243515792
 30
0.0
 11
2.424762457092491
 21
-0.1818536860198337
 31
0.0
  0
LWPOLYLINE
  5
3EF0D9A1ECE7659
330
3EF0D9A1ECE76BD
100
AcDbEntity
  8
TEXT
100
AcDbPolyline
 90
        2
 70
     0
 43
0.0
 10
2.478896054013439
 20
-0.1818536860198337
 42
-0.4142135623731017
 10
2.486449843179553
 20
-0.1894074751859436
 42
-0.9999999999999998
  0
LWPOLYLINE
  5
3EF0D9A1ECE765D
330
3EF0D9A1ECE76BD
100
AcDbEntity
  8
TEXT
100
AcDbPolyline
 90
        4
 70
     0
 43
0.0
 10
2.486449843179553
 20
-0.1894074751859436
 10
2.486449843179553
 20
-0.3840500243515792
 10
2.554928126467411
 20
-0.3840500243515792
 10
2.554928126467411
 20
-0.340559079401141
 42
-1.714843617202739
  0
LINE
  5
3EF0D9A1ECE7663
330
3EF0D9A1ECE76BD
100
AcDbEntity
  8
TEXT
100
AcDbLine
 10
1.915063958784308
 20
-0.1175769913630682
 30
0.0
 11
1.915063958784308
 21
-0.0831890737689301
 31
0.0
  0
LINE
  5
3EF0D9A1ECE7664
330
3EF0D9A1ECE76BD
100
AcDbEntity
  8
TEXT
100
AcDbLine
 10
1.986862924928216
 20
-0.1175769913630682
 30
0.0
 11
1.915063958784308
 21
-0.1175769913630682
 31
0.0
  0
LINE
  5
3EF0D9A1ECE7665
330
3EF0D9A1ECE76BD
100
AcDbEntity
  8
TEXT
100
AcDbLine
 10
2.134363721559395
 20
-0.1175769913630682
 30
0.0
 11
2.104241808766019
 21
-0.1175769913630682
 31
0.0
  0
LINE
  5
3EF0D9A1ECE7666
330
3EF0D9A1ECE76BD
100
AcDbEntity
  8
TEXT
100
AcDbLine
 10
2.134363721559395
 20
-0.0495655136242577
 30
0.0
 11
2.134363721559395
 21
-0.1175769913630682
 31
0.0
  0
LINE
  5
3EF0D9A1ECE7667
330
3EF0D9A1ECE76BD
100
AcDbEntity
  8
TEXT
100
AcDbLine
 10
2.20117243412576
 20
-0.0495655136242577
 30
0.0
 11
2.134363721559395
 21
-0.0495655136242577
 31
0.0
  0
LWPOLYLINE
  5
3EF0D9A1ECE7668
330
3EF0D9A1ECE76BD
100
AcDbEntity
  8
TEXT
100
AcDbPolyline
 90
        3
 70
     0
 43
0.0
 10
2.521584193723763
 20
-0.1175769913630646
 10
2.403284034907718
 20
-0.1175769913630646
 10
2.403284034907718
 20
-0.1447444881239606
 42
-1.960274751411753
  0
LINE
  5
3EF0D9A1ECE766D
330
3EF0D9A1ECE76BD
100
AcDbEntity
  8
TEXT
100
AcDbLine
 10
2.367502344194557
 20
-0.1175769913630682
 30
0.0
 11
2.23348428826342
 21
-0.1175769913630682
 31
0.0
  0
LWPOLYLINE
  5
3EF0D9A1ECE766E
330
3EF0D9A1ECE76BD
100
AcDbEntity
  8
TEXT
100
AcDbPolyline
 90
        2
 70
     0
 43
0.0
 10
2.367502344194557
 20
-0.1175769913630646
 42
-0.3328679258950098
 10
2.403284034907718
 20
-0.1447444881239606
 42
6.772930709997214
  0
LINE
  5
3EF0D9A1ECE7672
330
3EF0D9A1ECE76BD
100
AcDbEntity
  8
TEXT
100
AcDbLine
 10
2.557365884436929
 20
-0.1175769913630682
 30
0.0
 11
2.557365884436929
 21
-0.1458995371327121
 31
0.0
  0
LWPOLYLINE
  5
3EF0D9A1ECE7673
330
3EF0D9A1ECE76BD
100
AcDbEntity
  8
TEXT
100
AcDbPolyline
 90
        2
 70
     0
 43
0.0
 10
2.521584193723763
 20
-0.1175769913630646
 42
-0.3277054968067132
 10
2.557365884436928
 20
-0.1458995371327085
 42
6.667889725900311
  0
LINE
  5
3EF0D9A1ECE7677
330
3EF0D9A1ECE76BD
100
AcDbEntity
  8
TEXT
100
AcDbLine
 10
2.771157732529029
 20
-0.2227889699164955
 30
0.0
 11
2.727406961347128
 21
-0.1405386939203503
 31
0.0
  0
LINE
  5
3EF0D9A1ECE7678
330
3EF0D9A1ECE76BD
100
AcDbEntity
  8
TEXT
100
AcDbLine
 10
2.771157732529029
 20
-0.1175769913630682
 30
0.0
 11
2.771157732529029
 21
-0.2227889699164955
 31
0.0
  0
LINE
  5
3EF0D9A1ECE7679
330
3EF0D9A1ECE76BD
100
AcDbEntity
  8
TEXT
100
AcDbLine
 10
2.998841471467398
 20
-0.1934423177746063
 30
0.0
 11
2.998841471467398
 21
-0.0521127855954675
 31
0.0
  0
LINE
  5
3EF0D9A1ECE767A
330
3EF0D9A1ECE76BD
100
AcDbEntity
  8
TEXT
100
AcDbLine
 10
3.045939630023383
 20
-0.1175769913630682
 30
0.0
 11
2.998841471467398
 21
-0.1934423177746063
 31
0.0
  0
LINE
  5
3EF0D9A1ECE767B
330
3EF0D9A1ECE76BD
100
AcDbEntity
  8
TEXT
100
AcDbLine
 10
3.056374346787306
 20
-0.2274702343040418
 30
0.0
 11
3.120931462753011
 21
-0.1175769913630682
 31
0.0
  0
LINE
  5
3EF0D9A1ECE767C
330
3EF0D9A1ECE76BD
100
AcDbEntity
  8
TEXT
100
AcDbLine
 10
2.935006480244625
 20
-0.3840500243515792
 30
0.0
 11
2.999384664563246
 21
-0.3840500243515792
 31
0.0
  0
LWPOLYLINE
  5
3EF0D9A1ECE767D
330
3EF0D9A1ECE76BD
100
AcDbEntity
  8
TEXT
100
AcDbPolyline
 90
        2
 70
     0
 43
0.0
 10
2.775097409834067
 20
-0.340559079401141
 42
-0.2901071551932486
 10
2.732021476966423
 20
-0.3840500243515792
 42
-5.328517124445184
  0
ARC
  5
3EF0D9A1ECE7681
330
3EF0D9A1ECE76BD
100
AcDbEntity
  8
TEXT
100
AcDbCircle
 10
2.663166895309508
 20
-0.2102130610198309
 30
0.0
 40
0.028359375
100
AcDbArc
 50
25.78218179591245
 51
90.0
  0
LINE
  5
3EF0D9A1ECE7682
330
3EF0D9A1ECE76BD
100
AcDbEntity
  8
TEXT
100
AcDbLine
 10
2.698967970613631
 20
-0.2191286594819659
 30
0.0
 11
2.688703210200067
 21
-0.1978781199092716
 31
0.0
  0
LINE
  5
3EF0D9A1ECE7683
330
3EF0D9A1ECE76BD
100
AcDbEntity
  8
TEXT
100
AcDbLine
 10
2.616679980830248
 20
-0.2191286594819659
 30
0.0
 11
2.698967970613631
 21
-0.2191286594819659
 31
0.0
  0
LWPOLYLINE
  5
3EF0D9A1ECE7684
330
3EF0D9A1ECE76BD
100
AcDbEntity
  8
TEXT
100
AcDbPolyline
 90
        4
 70
     1
 43
0.0
 10
2.71189901189653
 20
-0.281086046367554
 10
2.623238693236672
 20
-0.281086046367554
 42
0.9999999999999998
 10
2.623238693236672
 20
-0.3234845868714147
 10
2.71189901189653
 20
-0.3234845868714147
 42
1.0
  0
LWPOLYLINE
  5
3EF0D9A1ECE768A
330
3EF0D9A1ECE76BD
100
AcDbEntity
  8
TEXT
100
AcDbPolyline
 90
        2
 70
     0
 43
0.0
 10
2.598004059335046
 20
-0.3840500243515792
 10
2.732021476966423
 20
-0.3840500243515792
 42
0.9999999999999998
  0
LINE
  5
3EF0D9A1ECE768E
330
3EF0D9A1ECE76BD
100
AcDbEntity
  8
TEXT
100
AcDbLine
 10
2.858358498952062
 20
-0.1818536860198337
 30
0.0
 11
2.93500648024462
 21
-0.1818536860198337
 31
0.0
  0
LINE
  5
3EF0D9A1ECE768F
330
3EF0D9A1ECE76BD
100
AcDbEntity
  8
TEXT
100
AcDbLine
 10
2.93500648024462
 20
-0.1818536860198337
 30
0.0
 11
2.935006480244625
 21
-0.3840500243515792
 31
0.0
  0
ARC
  5
3EF0D9A1ECE7690
330
3EF0D9A1ECE76BD
100
AcDbEntity
  8
TEXT
100
AcDbCircle
 10
2.85835849895206
 20
-0.2067595613024964
 30
0.0
 40
0.0249058752826653
100
AcDbArc
 50
89.99971217465335
 51
179.9999999999985
  0
LINE
  5
3EF0D9A1ECE7691
330
3EF0D9A1ECE76BD
100
AcDbEntity
  8
TEXT
100
AcDbLine
 10
2.833452623669403
 20
-0.3840500243515792
 30
0.0
 11
2.833452623669398
 21
-0.2067595189201108
 31
0.0
  0
LWPOLYLINE
  5
3EF0D9A1ECE7692
330
3EF0D9A1ECE76BD
100
AcDbEntity
  8
TEXT
100
AcDbPolyline
 90
        2
 70
     0
 43
0.0
 10
2.775097409834067
 20
-0.3840500243515792
 10
2.833452623669401
 20
-0.3840500243515792
  0
LWPOLYLINE
  5
3EF0D9A1ECE7696
330
3EF0D9A1ECE76BD
100
AcDbEntity
  8
TEXT
100
AcDbPolyline
 90
        2
 70
     0
 43
0.0
 10
2.775097409834067
 20
-0.340559079401141
 10
2.775097409834067
 20
-0.3840500243515792
  0
LINE
  5
3EF0D9A1ECE769A
330
3EF0D9A1ECE76BD
100
AcDbEntity
  8
TEXT
100
AcDbLine
 10
3.151866570150916
 20
-0.3840500243515792
 30
0.0
 11
3.056374346787306
 21
-0.2274702343040418
 31
0.0
  0
LINE
  5
3EF0D9A1ECE769B
330
3EF0D9A1ECE76BD
100
AcDbEntity
  8
TEXT
100
AcDbLine
 10
3.07528819777471
 20
-0.3840500243515792
 30
0.0
 11
3.151866570150916
 21
-0.3840500243515792
 31
0.0
  0
LINE
  5
3EF0D9A1ECE769C
330
3EF0D9A1ECE76BD
100
AcDbEntity
  8
TEXT
100
AcDbLine
 10
2.999384664563246
 20
-0.252470455875399
 30
0.0
 11
3.07528819777471
 21
-0.3840500243515792
 31
0.0
  0
LINE
  5
3EF0D9A1ECE769D
330
3EF0D9A1ECE76BD
100
AcDbEntity
  8
TEXT
100
AcDbLine
 10
2.999384664563246
 20
-0.3840500243515792
 30
0.0
 11
2.999384664563246
 21
-0.252470455875399
 31
0.0
  0
LINE
  5
3EF0D9A1ECE769E
330
3EF0D9A1ECE76BD
100
AcDbEntity
  8
TEXT
100
AcDbLine
 10
2.998841471467398
 20
-0.0521127855954675
 30
0.0
 11
2.930526592918125
 21
-0.0521127855954675
 31
0.0
  0
ARC
  5
3EF0D9A1ECE769F
330
3EF0D9A1ECE76BD
100
AcDbEntity
  8
TEXT
100
AcDbCircle
 10
2.690170853876919
 20
-0.1591605584839706
 30
0.0
 40
0.0416329381542859
100
AcDbArc
 50
26.56974201007528
 51
87.20939649401342
  0
LINE
  5
3EF0D9A1ECE76A0
330
3EF0D9A1ECE76BD
100
AcDbEntity
  8
TEXT
100
AcDbLine
 10
2.83505463882853
 20
-0.1175769913630682
 30
0.0
 11
2.771157732529029
 21
-0.1175769913630682
 31
0.0
  0
LINE
  5
3EF0D9A1ECE76A1
330
3EF0D9A1ECE76BD
100
AcDbEntity
  8
TEXT
100
AcDbLine
 10
2.83505463882853
 20
-0.1451246412239429
 30
0.0
 11
2.83505463882853
 21
-0.1175769913630682
 31
0.0
  0
ARC
  5
3EF0D9A1ECE76A2
330
3EF0D9A1ECE76BD
100
AcDbEntity
  8
TEXT
100
AcDbCircle
 10
2.866247455891638
 20
-0.148822718645333
 30
0.0
 40
0.0314112657011332
100
AcDbArc
 50
95.88484768694724
 51
173.2388340632136
  0
LINE
  5
3EF0D9A1ECE76A3
330
3EF0D9A1ECE76BD
100
AcDbEntity
  8
TEXT
100
AcDbLine
 10
2.93052659291812
 20
-0.1175769913630682
 30
0.0
 11
2.863026875268603
 21
-0.1175769913630682
 31
0.0
  0
LINE
  5
3EF0D9A1ECE76A4
330
3EF0D9A1ECE76BD
100
AcDbEntity
  8
TEXT
100
AcDbLine
 10
2.930526592918125
 20
-0.0521127855954675
 30
0.0
 11
2.93052659291812
 21
-0.1175769913630682
 31
0.0
  0
LINE
  5
3EF0D9A1ECE76A5
330
3EF0D9A1ECE76BD
100
AcDbEntity
  8
TEXT
100
AcDbLine
 10
3.120931462753011
 20
-0.1175769913630682
 30
0.0
 11
3.045939630023385
 21
-0.1175769913630682
 31
0.0
  0
ENDSEC
  0
SECTION
  2
OBJECTS
  0
DICTIONARY
  5
3EF0D9A1ECE76B1
330
0
100
AcDbDictionary
  3
ACAD_GROUP
350
3EF0D9A1ECE76B2
  3
ACAD_LAYOUT
350
3EF0D9A1ECE76D7
  3
ACAD_MLINESTYLE
350
3EF0D9A1ECE76B3
  3
ACAD_PLOTSETTINGS
350
3EF0D9A1ECE76D8
  3
ACAD_PLOTSTYLENAME
350
3EF0D9A1ECE76D5
  3
ACDBHEADERROUNDTRIPXREC
350
3EF0D9A1ECE76E2
  3
ACDBVARIABLEDICTIONARY
350
3EF0D9A1ECE76DF
  0
DICTIONARY
  5
3EF0D9A1ECE7704
330
3EF0D9A1ECE76BD
100
AcDbDictionary
280
     1
  3
ACAD_LAYOUTSELFREF
360
3EF0D9A1ECE7705
  0
DICTIONARY
  5
3EF0D9A1ECE7702
330
3EF0D9A1ECE76BA
100
AcDbDictionary
280
     1
  3
ACAD_LAYOUTSELFREF
360
3EF0D9A1ECE7703
  0
DICTIONARY
  5
3EF0D9A1ECE76B2
102
{ACAD_REACTORS
330
3EF0D9A1ECE76B1
102
}
330
3EF0D9A1ECE76B1
100
AcDbDictionary
  0
DICTIONARY
  5
3EF0D9A1ECE76D7
102
{ACAD_REACTORS
330
3EF0D9A1ECE76B1
102
}
330
3EF0D9A1ECE76B1
100
AcDbDictionary
  0
DICTIONARY
  5
3EF0D9A1ECE76B3
102
{ACAD_REACTORS
330
3EF0D9A1ECE76B1
102
}
330
3EF0D9A1ECE76B1
100
AcDbDictionary
  3
STANDARD
350
3EF0D9A1ECE76C0
  0
DICTIONARY
  5
3EF0D9A1ECE76D8
102
{ACAD_REACTORS
330
3EF0D9A1ECE76B1
102
}
330
3EF0D9A1ECE76B1
100
AcDbDictionary
  0
ACDBDICTIONARYWDFLT
  5
3EF0D9A1ECE76D5
102
{ACAD_REACTORS
330
3EF0D9A1ECE76B1
102
}
330
3EF0D9A1ECE76B1
100
AcDbDictionary
281
     1
  3
Normal
350
3EF0D9A1ECE76D6
100
AcDbDictionaryWithDefault
340
3EF0D9A1ECE76D6
  0
DICTIONARY
  5
3EF0D9A1ECE76E2
102
{ACAD_REACTORS
330
3EF0D9A1ECE76B1
102
}
330
3EF0D9A1ECE76B1
100
AcDbDictionary
  3
CEPSNTYPE
350
3EF0D9A1ECE76EC
  3
FINGERPRINTGUID
350
3EF0D9A1ECE76ED
  3
HYPERLINKBASE
350
3EF0D9A1ECE76E5
  3
INSUNITS
350
3EF0D9A1ECE76EB
  3
LAYOUTDICT
350
3EF0D9A1ECE76E7
  3
LWETCUNION
350
3EF0D9A1ECE76EA
  3
PLOTSETDICT
350
3EF0D9A1ECE76E8
  3
PLOTSTYLNAMDICT
350
3EF0D9A1ECE76E9
  3
PSVPSCALE
350
3EF0D9A1ECE76EF
  3
PUCSBASE
350
3EF0D9A1ECE76F2
  3
PUCSORGBACK
350
3EF0D9A1ECE76F8
  3
PUCSORGBOTTOM
350
3EF0D9A1ECE76F4
  3
PUCSORGFRONT
350
3EF0D9A1ECE76F7
  3
PUCSORGLEFT
350
3EF0D9A1ECE76F5
  3
PUCSORGRIGHT
350
3EF0D9A1ECE76F6
  3
PUCSORGTOP
350
3EF0D9A1ECE76F3
  3
PUCSORTHOREF
350
3EF0D9A1ECE76F0
  3
PUCSORTHOVIEW
350
3EF0D9A1ECE76F1
  3
STYLESHEET
350
3EF0D9A1ECE76E6
  3
TSTACKALIGN
350
3EF0D9A1ECE76E3
  3
TSTACKSIZE
350
3EF0D9A1ECE76E4
  3
UCSBASE
350
3EF0D9A1ECE76FB
  3
UCSORGBACK
350
3EF0D9A1ECE7701
  3
UCSORGBOTTOM
350
3EF0D9A1ECE76FD
  3
UCSORGFRONT
350
3EF0D9A1ECE7700
  3
UCSORGLEFT
350
3EF0D9A1ECE76FE
  3
UCSORGRIGHT
350
3EF0D9A1ECE76FF
  3
UCSORGTOP
350
3EF0D9A1ECE76FC
  3
UCSORTHOREF
350
3EF0D9A1ECE76F9
  3
UCSORTHOVIEW
350
3EF0D9A1ECE76FA
  3
VERSIONGUID
350
3EF0D9A1ECE76EE
  0
DICTIONARY
  5
3EF0D9A1ECE76DF
102
{ACAD_REACTORS
330
3EF0D9A1ECE76B1
102
}
330
3EF0D9A1ECE76B1
100
AcDbDictionary
  3
DIMASSOC
350
3EF0D9A1ECE76E0
  0
XRECORD
  5
3EF0D9A1ECE7705
102
{ACAD_REACTORS
330
3EF0D9A1ECE7704
102
}
330
3EF0D9A1ECE7704
100
AcDbXrecord
340
3EF0D9A1ECE76BD
  0
XRECORD
  5
3EF0D9A1ECE7703
102
{ACAD_REACTORS
330
3EF0D9A1ECE7702
102
}
330
3EF0D9A1ECE7702
100
AcDbXrecord
340
3EF0D9A1ECE76BA
  0
MLINESTYLE
  5
3EF0D9A1ECE76C0
102
{ACAD_REACTORS
330
3EF0D9A1ECE76B3
102
}
330
3EF0D9A1ECE76B3
100
AcDbMlineStyle
  2
STANDARD
 70
     0
  3

 62
     0
 51
90.0
 52
90.0
 71
     2
 49
0.5
 62
   256
  6
BYLAYER
 49
-0.5
 62
   256
  6
BYLAYER
  0
ACDBPLACEHOLDER
  5
3EF0D9A1ECE76D6
102
{ACAD_REACTORS
330
3EF0D9A1ECE76D5
102
}
330
3EF0D9A1ECE76D5
100
AcDbPlaceHolder
280
     0
  0
XRECORD
  5
3EF0D9A1ECE76EC
102
{ACAD_REACTORS
330
3EF0D9A1ECE76E2
102
}
330
3EF0D9A1ECE76E2
100
AcDbXrecord
 90
        0
  0
XRECORD
  5
3EF0D9A1ECE76ED
102
{ACAD_REACTORS
330
3EF0D9A1ECE76E2
102
}
330
3EF0D9A1ECE76E2
100
AcDbXrecord
  1
{164C05E0-8DB4-11D6-88E6-0090279574E7}
  0
XRECORD
  5
3EF0D9A1ECE76E5
102
{ACAD_REACTORS
330
3EF0D9A1ECE76E2
102
}
330
3EF0D9A1ECE76E2
100
AcDbXrecord
  1

  0
XRECORD
  5
3EF0D9A1ECE76EB
102
{ACAD_REACTORS
330
3EF0D9A1ECE76E2
102
}
330
3EF0D9A1ECE76E2
100
AcDbXrecord
 90
        0
  0
XRECORD
  5
3EF0D9A1ECE76E7
102
{ACAD_REACTORS
330
3EF0D9A1ECE76E2
102
}
330
3EF0D9A1ECE76E2
100
AcDbXrecord
340
3EF0D9A1ECE76D7
  0
XRECORD
  5
3EF0D9A1ECE76EA
102
{ACAD_REACTORS
330
3EF0D9A1ECE76E2
102
}
330
3EF0D9A1ECE76E2
100
AcDbXrecord
 90
    14877
  0
XRECORD
  5
3EF0D9A1ECE76E8
102
{ACAD_REACTORS
330
3EF0D9A1ECE76E2
102
}
330
3EF0D9A1ECE76E2
100
AcDbXrecord
340
3EF0D9A1ECE76D8
  0
XRECORD
  5
3EF0D9A1ECE76E9
102
{ACAD_REACTORS
330
3EF0D9A1ECE76E2
102
}
330
3EF0D9A1ECE76E2
100
AcDbXrecord
340
3EF0D9A1ECE76D5
  0
XRECORD
  5
3EF0D9A1ECE76EF
102
{ACAD_REACTORS
330
3EF0D9A1ECE76E2
102
}
330
3EF0D9A1ECE76E2
100
AcDbXrecord
 40
0.0
  0
XRECORD
  5
3EF0D9A1ECE76F2
102
{ACAD_REACTORS
330
3EF0D9A1ECE76E2
102
}
330
3EF0D9A1ECE76E2
100
AcDbXrecord
340
0
  0
XRECORD
  5
3EF0D9A1ECE76F8
102
{ACAD_REACTORS
330
3EF0D9A1ECE76E2
102
}
330
3EF0D9A1ECE76E2
100
AcDbXrecord
 10
0.0
 20
0.0
 30
0.0
  0
XRECORD
  5
3EF0D9A1ECE76F4
102
{ACAD_REACTORS
330
3EF0D9A1ECE76E2
102
}
330
3EF0D9A1ECE76E2
100
AcDbXrecord
 10
0.0
 20
0.0
 30
0.0
  0
XRECORD
  5
3EF0D9A1ECE76F7
102
{ACAD_REACTORS
330
3EF0D9A1ECE76E2
102
}
330
3EF0D9A1ECE76E2
100
AcDbXrecord
 10
0.0
 20
0.0
 30
0.0
  0
XRECORD
  5
3EF0D9A1ECE76F5
102
{ACAD_REACTORS
330
3EF0D9A1ECE76E2
102
}
330
3EF0D9A1ECE76E2
100
AcDbXrecord
 10
0.0
 20
0.0
 30
0.0
  0
XRECORD
  5
3EF0D9A1ECE76F6
102
{ACAD_REACTORS
330
3EF0D9A1ECE76E2
102
}
330
3EF0D9A1ECE76E2
100
AcDbXrecord
 10
0.0
 20
0.0
 30
0.0
  0
XRECORD
  5
3EF0D9A1ECE76F3
102
{ACAD_REACTORS
330
3EF0D9A1ECE76E2
102
}
330
3EF0D9A1ECE76E2
100
AcDbXrecord
 10
0.0
 20
0.0
 30
0.0
  0
XRECORD
  5
3EF0D9A1ECE76F0
102
{ACAD_REACTORS
330
3EF0D9A1ECE76E2
102
}
330
3EF0D9A1ECE76E2
100
AcDbXrecord
340
0
  0
XRECORD
  5
3EF0D9A1ECE76F1
102
{ACAD_REACTORS
330
3EF0D9A1ECE76E2
102
}
330
3EF0D9A1ECE76E2
100
AcDbXrecord
 70
     0
  0
XRECORD
  5
3EF0D9A1ECE76E6
102
{ACAD_REACTORS
330
3EF0D9A1ECE76E2
102
}
330
3EF0D9A1ECE76E2
100
AcDbXrecord
  1

  0
XRECORD
  5
3EF0D9A1ECE76E3
102
{ACAD_REACTORS
330
3EF0D9A1ECE76E2
102
}
330
3EF0D9A1ECE76E2
100
AcDbXrecord
 90
        1
  0
XRECORD
  5
3EF0D9A1ECE76E4
102
{ACAD_REACTORS
330
3EF0D9A1ECE76E2
102
}
330
3EF0D9A1ECE76E2
100
AcDbXrecord
 90
       70
  0
XRECORD
  5
3EF0D9A1ECE76FB
102
{ACAD_REACTORS
330
3EF0D9A1ECE76E2
102
}
330
3EF0D9A1ECE76E2
100
AcDbXrecord
340
0
  0
XRECORD
  5
3EF0D9A1ECE7701
102
{ACAD_REACTORS
330
3EF0D9A1ECE76E2
102
}
330
3EF0D9A1ECE76E2
100
AcDbXrecord
 10
0.0
 20
0.0
 30
0.0
  0
XRECORD
  5
3EF0D9A1ECE76FD
102
{ACAD_REACTORS
330
3EF0D9A1ECE76E2
102
}
330
3EF0D9A1ECE76E2
100
AcDbXrecord
 10
0.0
 20
0.0
 30
0.0
  0
XRECORD
  5
3EF0D9A1ECE7700
102
{ACAD_REACTORS
330
3EF0D9A1ECE76E2
102
}
330
3EF0D9A1ECE76E2
100
AcDbXrecord
 10
0.0
 20
0.0
 30
0.0
  0
XRECORD
  5
3EF0D9A1ECE76FE
102
{ACAD_REACTORS
330
3EF0D9A1ECE76E2
102
}
330
3EF0D9A1ECE76E2
100
AcDbXrecord
 10
0.0
 20
0.0
 30
0.0
  0
XRECORD
  5
3EF0D9A1ECE76FF
102
{ACAD_REACTORS
330
3EF0D9A1ECE76E2
102
}
330
3EF0D9A1ECE76E2
100
AcDbXrecord
 10
0.0
 20
0.0
 30
0.0
  0
XRECORD
  5
3EF0D9A1ECE76FC
102
{ACAD_REACTORS
330
3EF0D9A1ECE76E2
102
}
330
3EF0D9A1ECE76E2
100
AcDbXrecord
 10
0.0
 20
0.0
 30
0.0
  0
XRECORD
  5
3EF0D9A1ECE76F9
102
{ACAD_REACTORS
330
3EF0D9A1ECE76E2
102
}
330
3EF0D9A1ECE76E2
100
AcDbXrecord
340
0
  0
XRECORD
  5
3EF0D9A1ECE76FA
102
{ACAD_REACTORS
330
3EF0D9A1ECE76E2
102
}
330
3EF0D9A1ECE76E2
100
AcDbXrecord
 70
     0
  0
XRECORD
  5
3EF0D9A1ECE76EE
102
{ACAD_REACTORS
330
3EF0D9A1ECE76E2
102
}
330
3EF0D9A1ECE76E2
100
AcDbXrecord
  1
{164C05E2-8DB4-11D6-88E6-0090279574E7}
  0
DICTIONARYVAR
  5
3EF0D9A1ECE76E0
102
{ACAD_REACTORS
330
3EF0D9A1ECE76DF
102
}
330
3EF0D9A1ECE76DF
100
DictionaryVariables
280
     0
  1
1
  0
ENDSEC
  0
EOF
