  0
SECTION
  2
HEADER
  9
$ACADVER
  1
AC1014
  9
$ACADMAINTVER
 70
     9
  9
$DWGCODEPAGE
  3
ANSI_1252
  9
$INSBASE
 10
1.6875
 20
1.296875
 30
0.0
  9
$EXTMIN
 10
-0.1099910254249899
 20
0.0273819257975967
 30
0.0
  9
$EXTMAX
 10
3.375228296322137
 20
1.772863733315774
 30
0.0
  9
$LIMMIN
 10
0.0
 20
0.0
  9
$LIMMAX
 10
18.0
 20
12.0
  9
$ORTHOMODE
 70
     1
  9
$REGENMODE
 70
     1
  9
$FILLMODE
 70
     1
  9
$QTEXTMODE
 70
     0
  9
$MIRRTEXT
 70
     0
  9
$DRAGMODE
 70
     2
  9
$LTSCALE
 40
1.0
  9
$OSMODE
 70
    39
  9
$ATTMODE
 70
     1
  9
$TEXTSIZE
 40
0.125
  9
$TRACEWID
 40
0.05
  9
$TEXTSTYLE
  7
ROMANS
  9
$CLAYER
  8
0
  9
$CELTYPE
  6
BYLAYER
  9
$CECOLOR
 62
   256
  9
$CELTSCALE
 40
1.0
  9
$DELOBJ
 70
     1
  9
$DISPSILH
 70
     1
  9
$DIMSCALE
 40
1.0
  9
$DIMASZ
 40
0.125
  9
$DIMEXO
 40
0.125
  9
$DIMDLI
 40
0.375
  9
$DIMRND
 40
0.0
  9
$DIMDLE
 40
0.0
  9
$DIMEXE
 40
0.125
  9
$DIMTP
 40
0.0
  9
$DIMTM
 40
0.0
  9
$DIMTXT
 40
0.125
  9
$DIMCEN
 40
-0.125
  9
$DIMTSZ
 40
0.0
  9
$DIMTOL
 70
     0
  9
$DIMLIM
 70
     0
  9
$DIMTIH
 70
     1
  9
$DIMTOH
 70
     1
  9
$DIMSE1
 70
     0
  9
$DIMSE2
 70
     0
  9
$DIMTAD
 70
     0
  9
$DIMZIN
 70
     4
  9
$DIMBLK
  1

  9
$DIMASO
 70
     1
  9
$DIMSHO
 70
     1
  9
$DIMPOST
  1

  9
$DIMAPOST
  1

  9
$DIMALT
 70
     0
  9
$DIMALTD
 70
     2
  9
$DIMALTF
 40
25.4
  9
$DIMLFAC
 40
1.0
  9
$DIMTOFL
 70
     0
  9
$DIMTVP
 40
0.0
  9
$DIMTIX
 70
     1
  9
$DIMSOXD
 70
     0
  9
$DIMSAH
 70
     0
  9
$DIMBLK1
  1

  9
$DIMBLK2
  1

  9
$DIMSTYLE
  2
STANDARD
  9
$DIMCLRD
 70
     0
  9
$DIMCLRE
 70
     0
  9
$DIMCLRT
 70
     0
  9
$DIMTFAC
 40
1.0
  9
$DIMGAP
 40
0.09
  9
$DIMJUST
 70
     0
  9
$DIMSD1
 70
     0
  9
$DIMSD2
 70
     0
  9
$DIMTOLJ
 70
     1
  9
$DIMTZIN
 70
     4
  9
$DIMALTZ
 70
     0
  9
$DIMALTTZ
 70
     0
  9
$DIMFIT
 70
     3
  9
$DIMUPT
 70
     0
  9
$DIMUNIT
 70
     2
  9
$DIMDEC
 70
     3
  9
$DIMTDEC
 70
     3
  9
$DIMALTU
 70
     2
  9
$DIMALTTD
 70
     2
  9
$DIMTXSTY
  7
ROMANS
  9
$DIMAUNIT
 70
     0
  9
$LUNITS
 70
     2
  9
$LUPREC
 70
     3
  9
$SKETCHINC
 40
0.1
  9
$FILLETRAD
 40
0.03125
  9
$AUNITS
 70
     0
  9
$AUPREC
 70
     0
  9
$MENU
  1
ACAD
  9
$ELEVATION
 40
0.0
  9
$PELEVATION
 40
0.0
  9
$THICKNESS
 40
0.0
  9
$LIMCHECK
 70
     0
  9
$BLIPMODE
 70
     0
  9
$CHAMFERA
 40
0.0
  9
$CHAMFERB
 40
0.0
  9
$CHAMFERC
 40
0.0
  9
$CHAMFERD
 40
0.0
  9
$SKPOLY
 70
     0
  9
$TDCREATE
 40
2448994.300635648
  9
$TDUPDATE
 40
2452458.295853634
  9
$TDINDWG
 40
0.0006188194
  9
$TDUSRTIMER
 40
0.0006188194
  9
$USRTIMER
 70
     1
  9
$ANGBASE
 50
0.0
  9
$ANGDIR
 70
     0
  9
$PDMODE
 70
     0
  9
$PDSIZE
 40
0.0
  9
$PLINEWID
 40
0.0
  9
$COORDS
 70
     2
  9
$SPLFRAME
 70
     0
  9
$SPLINETYPE
 70
     6
  9
$SPLINESEGS
 70
     8
  9
$ATTDIA
 70
     0
  9
$ATTREQ
 70
     1
  9
$HANDLING
 70
 22529
  9
$HANDSEED
  5
3EF0D9A1ECE72C4
  9
$SURFTAB1
 70
     6
  9
$SURFTAB2
 70
     6
  9
$SURFTYPE
 70
     6
  9
$SURFU
 70
     6
  9
$SURFV
 70
     6
  9
$UCSNAME
  2

  9
$UCSORG
 10
0.0
 20
0.0
 30
0.0
  9
$UCSXDIR
 10
1.0
 20
0.0
 30
0.0
  9
$UCSYDIR
 10
0.0
 20
1.0
 30
0.0
  9
$PUCSNAME
  2

  9
$PUCSORG
 10
0.0
 20
0.0
 30
0.0
  9
$PUCSXDIR
 10
1.0
 20
0.0
 30
0.0
  9
$PUCSYDIR
 10
0.0
 20
1.0
 30
0.0
  9
$USERI1
 70
     0
  9
$USERI2
 70
     0
  9
$USERI3
 70
     0
  9
$USERI4
 70
     0
  9
$USERI5
 70
     0
  9
$USERR1
 40
0.0
  9
$USERR2
 40
0.0
  9
$USERR3
 40
0.0
  9
$USERR4
 40
0.0
  9
$USERR5
 40
0.0
  9
$WORLDVIEW
 70
     1
  9
$SHADEDGE
 70
     3
  9
$SHADEDIF
 70
    70
  9
$TILEMODE
 70
     1
  9
$MAXACTVP
 70
    16
  9
$PINSBASE
 10
1.087680526966458
 20
50.00000000000001
 30
1.948170739003168
  9
$PLIMCHECK
 70
     0
  9
$PEXTMIN
 10
1.000000000000000E+20
 20
1.000000000000000E+20
 30
1.000000000000000E+20
  9
$PEXTMAX
 10
-1.000000000000000E+20
 20
-1.000000000000000E+20
 30
-1.000000000000000E+20
  9
$PLIMMIN
 10
0.0
 20
0.0
  9
$PLIMMAX
 10
12.0
 20
9.0
  9
$UNITMODE
 70
     0
  9
$VISRETAIN
 70
     0
  9
$PLINEGEN
 70
     1
  9
$PSLTSCALE
 70
     0
  9
$TREEDEPTH
 70
  3020
  9
$PICKSTYLE
 70
     1
  9
$CMLSTYLE
  2
STANDARD
  9
$CMLJUST
 70
     0
  9
$CMLSCALE
 40
1.0
  9
$PROXYGRAPHICS
 70
     1
  9
$MEASUREMENT
 70
     0
  0
ENDSEC
  0
SECTION
  2
CLASSES
  0
CLASS
  1
LWPOLYLINE
  2
AcDbPolyline
  3
AutoCAD 2000
 90
        0
280
     0
281
     1
  0
CLASS
  1
ACDBDICTIONARYWDFLT
  2
AcDbDictionaryWithDefault
  3
AutoCAD 2000
 90
        0
280
     0
281
     0
  0
CLASS
  1
ACDBPLACEHOLDER
  2
AcDbPlaceHolder
  3
AutoCAD 2000
 90
        0
280
     0
281
     0
  0
CLASS
  1
LAYOUT
  2
AcDbLayout
  3
AutoCAD 2000
 90
        0
280
     0
281
     0
  0
CLASS
  1
DICTIONARYVAR
  2
AcDbDictionaryVar
  3
AutoCAD 2000
 90
        0
280
     0
281
     0
  0
CLASS
  1
LONG_TRANSACTION
  2
AcDbLongTransaction
  3
AutoCAD 2000
 90
        0
280
     0
281
     0
  0
CLASS
  1
LWPOLYLINE
  2
AcDbPolyline
  3
AutoCAD 2000
 90
        0
280
     0
281
     1
  0
CLASS
  1
HATCH
  2
AcDbHatch
  3
AutoCAD 2000
 90
        0
280
     0
281
     1
  0
CLASS
  1
XRECORD
  2
AcDbXrecord
  3
AutoCAD 2000
 90
        0
280
     0
281
     0
  0
ENDSEC
  0
SECTION
  2
TABLES
  0
TABLE
  2
VPORT
  5
3EF0D9A1ECE726A
330
0
100
AcDbSymbolTable
 70
     2
  0
VPORT
  5
3EF0D9A1ECE729F
330
3EF0D9A1ECE726A
100
AcDbSymbolTableRecord
100
AcDbViewportTableRecord
  2
*ACTIVE
 70
     0
 10
0.0
 20
0.0
 11
1.0
 21
1.0
 12
4.608101973980438
 22
0.9000549536431847
 13
0.0
 23
0.0
 14
0.015625
 24
0.015625
 15
0.0
 25
0.0
 16
0.0
 26
0.0
 36
1.0
 17
0.0
 27
0.0
 37
0.0
 40
2.282123146051731
 41
4.320930232558139
 42
50.0
 43
0.0
 44
0.0
 50
0.0
 51
0.0
 71
     0
 72
  2000
 73
     1
 74
     0
 75
     1
 76
     0
 77
     0
 78
     0
  0
ENDTAB
  0
TABLE
  2
LTYPE
  5
3EF0D9A1ECE7267
330
0
100
AcDbSymbolTable
 70
     1
  0
LTYPE
  5
3EF0D9A1ECE7274
330
3EF0D9A1ECE7267
100
AcDbSymbolTableRecord
100
AcDbLinetypeTableRecord
  2
BYBLOCK
 70
     0
  3

 72
    65
 73
     0
 40
0.0
  0
LTYPE
  5
3EF0D9A1ECE7275
330
3EF0D9A1ECE7267
100
AcDbSymbolTableRecord
100
AcDbLinetypeTableRecord
  2
BYLAYER
 70
     0
  3

 72
    65
 73
     0
 40
0.0
  0
LTYPE
  5
3EF0D9A1ECE7276
330
3EF0D9A1ECE7267
100
AcDbSymbolTableRecord
100
AcDbLinetypeTableRecord
  2
CONTINUOUS
 70
     0
  3
Solid line
 72
    65
 73
     0
 40
0.0
  0
ENDTAB
  0
TABLE
  2
LAYER
  5
3EF0D9A1ECE7264
330
0
100
AcDbSymbolTable
 70
     3
  0
LAYER
  5
3EF0D9A1ECE7271
330
3EF0D9A1ECE7264
100
AcDbSymbolTableRecord
100
AcDbLayerTableRecord
  2
0
 70
     0
 62
     7
  6
CONTINUOUS
  0
LAYER
  5
3EF0D9A1ECE7281
330
3EF0D9A1ECE7264
100
AcDbSymbolTableRecord
100
AcDbLayerTableRecord
  2
SCALE
 70
     0
 62
     7
  6
CONTINUOUS
  0
LAYER
  5
3EF0D9A1ECE7282
330
3EF0D9A1ECE7264
100
AcDbSymbolTableRecord
100
AcDbLayerTableRecord
  2
TEXT
 70
     0
 62
     3
  6
CONTINUOUS
  0
ENDTAB
  0
TABLE
  2
STYLE
  5
3EF0D9A1ECE7265
330
0
100
AcDbSymbolTable
 70
     3
  0
STYLE
  5
3EF0D9A1ECE7272
330
3EF0D9A1ECE7265
100
AcDbSymbolTableRecord
100
AcDbTextStyleTableRecord
  2
STANDARD
 70
     0
 40
0.0
 41
1.0
 50
0.0
 71
     0
 42
0.3125
  3
txt
  4

  0
STYLE
  5
3EF0D9A1ECE727E
330
3EF0D9A1ECE7265
100
AcDbSymbolTableRecord
100
AcDbTextStyleTableRecord
  2
ITALICC
 70
     0
 40
0.0
 41
1.0
 50
0.0
 71
     0
 42
0.125
  3
italicc
  4

  0
STYLE
  5
3EF0D9A1ECE728F
330
3EF0D9A1ECE7265
100
AcDbSymbolTableRecord
100
AcDbTextStyleTableRecord
  2
ROMANS
 70
     0
 40
0.0
 41
1.0
 50
0.0
 71
     0
 42
0.125
  3
romans.shx
  4

  0
ENDTAB
  0
TABLE
  2
VIEW
  5
3EF0D9A1ECE7268
330
0
100
AcDbSymbolTable
 70
     0
  0
ENDTAB
  0
TABLE
  2
UCS
  5
3EF0D9A1ECE7269
330
0
100
AcDbSymbolTable
 70
     0
  0
ENDTAB
  0
TABLE
  2
APPID
  5
3EF0D9A1ECE726B
330
0
100
AcDbSymbolTable
 70
     1
  0
APPID
  5
3EF0D9A1ECE7273
330
3EF0D9A1ECE726B
100
AcDbSymbolTableRecord
100
AcDbRegAppTableRecord
  2
ACAD
 70
     0
  0
ENDTAB
  0
TABLE
  2
DIMSTYLE
  5
3EF0D9A1ECE726C
330
0
100
AcDbSymbolTable
 70
     1
  0
DIMSTYLE
105
3EF0D9A1ECE7287
330
3EF0D9A1ECE726C
100
AcDbSymbolTableRecord
100
AcDbDimStyleTableRecord
  2
STANDARD
 70
     0
  3

  4

  5

  6

  7

 40
1.0
 41
0.125
 42
0.125
 43
0.375
 44
0.125
 45
0.0
 46
0.0
 47
0.0
 48
0.0
140
0.125
141
-0.125
142
0.0
143
25.4
144
1.0
145
0.0
146
1.0
147
0.09
 71
     0
 72
     0
 73
     1
 74
     1
 75
     0
 76
     0
 77
     0
 78
     4
170
     0
171
     2
172
     0
173
     0
174
     1
175
     0
176
     0
177
     0
178
     0
270
     2
271
     3
272
     3
273
     2
274
     2
340
3EF0D9A1ECE728F
275
     0
280
     0
281
     0
282
     0
283
     1
284
     4
285
     0
286
     0
287
     3
288
     0
  0
ENDTAB
  0
TABLE
  2
BLOCK_RECORD
  5
3EF0D9A1ECE7263
330
0
100
AcDbSymbolTable
 70
     0
  0
BLOCK_RECORD
  5
3EF0D9A1ECE727A
102
{ACAD_XDICTIONARY
360
3EF0D9A1ECE72C2
102
}
330
3EF0D9A1ECE7263
100
AcDbSymbolTableRecord
100
AcDbBlockTableRecord
  2
*MODEL_SPACE
  0
BLOCK_RECORD
  5
3EF0D9A1ECE7277
102
{ACAD_XDICTIONARY
360
3EF0D9A1ECE72C0
102
}
330
3EF0D9A1ECE7263
100
AcDbSymbolTableRecord
100
AcDbBlockTableRecord
  2
*PAPER_SPACE
  0
ENDTAB
  0
ENDSEC
  0
SECTION
  2
BLOCKS
  0
BLOCK
  5
3EF0D9A1ECE7285
330
3EF0D9A1ECE727A
100
AcDbEntity
  8
0
100
AcDbBlockBegin
  2
*MODEL_SPACE
 70
     0
 10
0.0
 20
0.0
 30
0.0
  3
*MODEL_SPACE
  1

  0
ENDBLK
  5
3EF0D9A1ECE7286
330
3EF0D9A1ECE727A
100
AcDbEntity
  8
0
100
AcDbBlockEnd
  0
BLOCK
  5
3EF0D9A1ECE7283
330
3EF0D9A1ECE7277
100
AcDbEntity
 67
     1
  8
0
100
AcDbBlockBegin
  2
*PAPER_SPACE
 70
     0
 10
0.0
 20
0.0
 30
0.0
  3
*PAPER_SPACE
  1

  0
ENDBLK
  5
3EF0D9A1ECE7284
330
3EF0D9A1ECE7277
100
AcDbEntity
 67
     1
  8
0
100
AcDbBlockEnd
  0
ENDSEC
  0
SECTION
  2
ENTITIES
  0
LWPOLYLINE
  5
3EF0D9A1ECE5E76
330
3EF0D9A1ECE727A
100
AcDbEntity
  8
SCALE
100
AcDbPolyline
 90
       18
 70
     1
 43
0.0
 10
1.413615553802153
 20
1.704150529880178
 10
1.819865553802153
 20
1.704150529880178
 10
1.819865553802153
 20
1.454150529880178
 10
1.413615553802153
 20
1.454150529880178
 42
1.0
 10
1.413615553802153
 20
1.391650529880178
 10
1.757365553802153
 20
1.391650529880178
 10
1.757365553802153
 20
0.7666505298801783
 10
1.882365553802153
 20
0.7666505298801783
 10
1.882365553802153
 20
0.8291505298801782
 10
1.819865553802153
 20
0.8291505298801782
 10
1.819865553802153
 20
1.084775529880178
 10
1.809865553802153
 20
1.094775529880178
 10
1.819865553802153
 20
1.104775529880178
 10
1.819865553802153
 20
1.360400529880178
 10
1.882365553802153
 20
1.360400529880178
 10
1.882365553802153
 20
1.736650529880177
 42
0.4142135623730951
 10
1.852365553802153
 20
1.766650529880178
 10
1.413615553802153
 20
1.766650529880178
 42
1.0
  0
TEXT
  5
3EF0D9A1ECE7125
330
3EF0D9A1ECE727A
100
AcDbEntity
  8
TEXT
100
AcDbText
 10
0.8800143633259624
 20
0.4854005298801783
 30
0.0
 40
0.125
  1
PART #110119
  7
ITALICC
 72
     1
 11
1.632990553802153
 21
0.4854005298801783
 31
0.0
100
AcDbText
  0
TEXT
  5
3EF0D9A1ECE7126
330
3EF0D9A1ECE727A
100
AcDbEntity
  8
TEXT
100
AcDbText
 10
2.046295712052474
 20
0.0384778872078031
 30
0.0
 40
0.0522247191011236
  1
Phone  1-800-328-2495
 41
1.272321428571429
 72
     5
 11
3.375228296322137
 21
0.0384778872078031
 31
0.0
100
AcDbText
  0
TEXT
  5
3EF0D9A1ECE7127
330
3EF0D9A1ECE727A
100
AcDbEntity
  8
TEXT
100
AcDbText
 10
2.046295712052474
 20
0.3182531681066796
 30
0.0
 40
0.0522247191011236
  1
Stylmark  Incorporated
 41
1.221428571428573
 72
     5
 11
3.375228296322137
 21
0.3182531681066796
 31
0.0
100
AcDbText
  0
TEXT
  5
3EF0D9A1ECE7128
330
3EF0D9A1ECE727A
100
AcDbEntity
  8
TEXT
100
AcDbText
 10
2.046295712052474
 20
0.2249947411403874
 30
0.0
 40
0.0522247191011236
  1
6536 Main St. N.E. * P.O. Box 32008
 41
0.8388932496075366
 72
     5
 11
3.375228296322137
 21
0.2249947411403874
 31
0.0
100
AcDbText
  0
TEXT
  5
3EF0D9A1ECE7129
330
3EF0D9A1ECE727A
100
AcDbEntity
  8
TEXT
100
AcDbText
 10
2.046295712052474
 20
0.1317363141740953
 30
0.0
 40
0.0522247191011236
  1
Minneapolis, MN 55432-0008
 41
1.11444212721585
 72
     5
 11
3.375228296322137
 21
0.1317363141740953
 31
0.0
100
AcDbText
  0
LWPOLYLINE
  5
3EF0D9A1ECE712A
330
3EF0D9A1ECE727A
100
AcDbEntity
  8
TEXT
100
AcDbPolyline
 90
        3
 70
     0
 43
0.0006660908203125
 10
-0.1096579800148336
 20
0.1521226498452379
 10
-0.1096579800148336
 20
0.0388872103921103
 10
0.0035774594382887
 20
0.0388872103921103
  0
LWPOLYLINE
  5
3EF0D9A1ECE712F
330
3EF0D9A1ECE727A
100
AcDbEntity
  8
TEXT
100
AcDbPolyline
 90
        3
 70
     0
 43
0.0006660908203125
 10
-0.0830143472023362
 20
0.1521226498452379
 10
-0.0830143472023362
 20
0.0655308432046113
 10
0.0035774594382887
 20
0.0655308432046113
  0
LWPOLYLINE
  5
3EF0D9A1ECE7134
330
3EF0D9A1ECE727A
100
AcDbEntity
  8
TEXT
100
AcDbPolyline
 90
        2
 70
     0
 43
0.0001332181640625
 10
-0.0363879897804593
 20
0.1621140121499232
 10
-0.1096579800148336
 20
0.1521226498452379
  0
LWPOLYLINE
  5
3EF0D9A1ECE7138
330
3EF0D9A1ECE727A
100
AcDbEntity
  8
TEXT
100
AcDbPolyline
 90
        2
 70
     0
 43
0.0001332181640625
 10
-0.0830143472023362
 20
0.1521226498452379
 10
-0.0230661733742088
 20
0.1621140121499232
  0
LWPOLYLINE
  5
3EF0D9A1ECE713C
330
3EF0D9A1ECE727A
100
AcDbEntity
  8
TEXT
100
AcDbPolyline
 90
        2
 70
     0
 43
0.0001332181640625
 10
-0.0830143472023362
 20
0.0655308432046113
 10
-0.0230661733742088
 20
0.1254790170327369
  0
LWPOLYLINE
  5
3EF0D9A1ECE7140
330
3EF0D9A1ECE727A
100
AcDbEntity
  8
TEXT
100
AcDbPolyline
 90
        3
 70
     0
 43
0.0006660908203125
 10
0.0035774594382887
 20
0.3053235385171136
 10
-0.1096579800148336
 20
0.3053235385171136
 10
-0.1096579800148336
 20
0.1920880990639859
  0
LWPOLYLINE
  5
3EF0D9A1ECE7145
330
3EF0D9A1ECE727A
100
AcDbEntity
  8
TEXT
100
AcDbPolyline
 90
        3
 70
     0
 43
0.0006660908203125
 10
0.0035774594382887
 20
0.2786799057046125
 10
-0.0830143472023362
 20
0.2786799057046125
 10
-0.0830143472023362
 20
0.1920880990639859
  0
LWPOLYLINE
  5
3EF0D9A1ECE714A
330
3EF0D9A1ECE727A
100
AcDbEntity
  8
TEXT
100
AcDbPolyline
 90
        2
 70
     0
 43
0.0001332181640625
 10
-0.0830143472023362
 20
0.2786799057046125
 10
-0.0230661733742106
 20
0.218731731876487
  0
LWPOLYLINE
  5
3EF0D9A1ECE714E
330
3EF0D9A1ECE727A
100
AcDbEntity
  8
TEXT
100
AcDbPolyline
 90
        2
 70
     0
 43
0.0001332181640625
 10
-0.0830143472023362
 20
0.1920880990639859
 10
-0.0230661733742106
 20
0.1820967367592972
  0
LWPOLYLINE
  5
3EF0D9A1ECE7152
330
3EF0D9A1ECE727A
100
AcDbEntity
  8
TEXT
100
AcDbPolyline
 90
        2
 70
     0
 43
0.0001332181640625
 10
-0.1096579800148336
 20
0.1920880990639859
 10
-0.0363879897804593
 20
0.1820967367592972
  0
LWPOLYLINE
  5
3EF0D9A1ECE7156
330
3EF0D9A1ECE727A
100
AcDbEntity
  8
TEXT
100
AcDbPolyline
 90
        2
 70
     0
 43
0.0006660908203125
 10
-0.0830143472023362
 20
0.1521226498452379
 10
-0.1096579800148336
 20
0.1521226498452379
  0
LWPOLYLINE
  5
3EF0D9A1ECE715A
330
3EF0D9A1ECE727A
100
AcDbEntity
  8
TEXT
100
AcDbPolyline
 90
        2
 70
     0
 43
0.0006660908203125
 10
-0.0830143472023362
 20
0.1920880990639859
 10
-0.1096579800148336
 20
0.1920880990639859
  0
LINE
  5
3EF0D9A1ECE715E
330
3EF0D9A1ECE727A
100
AcDbEntity
  8
TEXT
100
AcDbLine
 10
1.405532449111663
 20
0.2410468438603446
 30
0.0
 11
1.298326175724374
 21
0.2410468438603446
 31
0.0
  0
LINE
  5
3EF0D9A1ECE715F
330
3EF0D9A1ECE727A
100
AcDbEntity
  8
TEXT
100
AcDbLine
 10
1.434563347456142
 20
0.30532353851711
 30
0.0
 11
1.299731438239083
 21
0.30532353851711
 31
0.0
  0
ARC
  5
3EF0D9A1ECE7160
330
3EF0D9A1ECE727A
100
AcDbEntity
  8
TEXT
100
AcDbCircle
 10
1.3590455346324
 20
0.1360862892540937
 30
0.0
 40
0.0676855811441166
100
AcDbArc
 50
90.0
 51
153.7768192527749
  0
LWPOLYLINE
  5
3EF0D9A1ECE7161
330
3EF0D9A1ECE727A
100
AcDbEntity
  8
TEXT
100
AcDbPolyline
 90
        2
 70
     0
 43
0.0
 10
1.297293680269564
 20
0.0823414504790372
 42
0.2901071551932823
 10
1.3403696131372
 20
0.038850505528599
 42
5.328517124445801
  0
ARC
  5
3EF0D9A1ECE7165
330
3EF0D9A1ECE727A
100
AcDbEntity
  8
TEXT
100
AcDbCircle
 10
0.6539141569609144
 20
0.0986428968666489
 30
0.0
 40
0.0601160179737537
100
AcDbArc
 50
180.0000000000003
 51
264.0521544866073
  0
LINE
  5
3EF0D9A1ECE7166
330
3EF0D9A1ECE727A
100
AcDbEntity
  8
TEXT
100
AcDbLine
 10
0.6574295125864622
 20
0.3397114561112482
 30
0.0
 11
0.5973869077424552
 21
0.3397114561112482
 31
0.0
  0
ARC
  5
3EF0D9A1ECE7167
330
3EF0D9A1ECE727A
100
AcDbEntity
  8
TEXT
100
AcDbCircle
 10
0.4216551548439438
 20
0.2232360790706083
 30
0.0
 40
0.0820874594465043
100
AcDbArc
 50
90.0
 51
270.0
  0
LWPOLYLINE
  5
3EF0D9A1ECE7168
330
3EF0D9A1ECE727A
100
AcDbEntity
  8
TEXT
100
AcDbPolyline
 90
        2
 70
     0
 43
0.0001332181640625
 10
0.0135688217429793
 20
0.2320535482827339
 10
0.0035774594382887
 20
0.3053235385171136
  0
LWPOLYLINE
  5
3EF0D9A1ECE716C
330
3EF0D9A1ECE727A
100
AcDbEntity
  8
TEXT
100
AcDbPolyline
 90
        2
 70
     0
 43
0.0001332181640625
 10
0.0035774594382887
 20
0.2786799057046125
 10
0.0135688217429793
 20
0.218731731876487
  0
LWPOLYLINE
  5
3EF0D9A1ECE7170
330
3EF0D9A1ECE727A
100
AcDbEntity
  8
TEXT
100
AcDbPolyline
 90
        3
 70
     0
 43
0.0006660908203125
 10
0.1567783481101661
 20
0.1920880990639859
 10
0.1567783481101661
 20
0.3053235385171136
 10
0.0435429086570403
 20
0.3053235385171136
  0
LWPOLYLINE
  5
3EF0D9A1ECE7175
330
3EF0D9A1ECE727A
100
AcDbEntity
  8
TEXT
100
AcDbPolyline
 90
        3
 70
     0
 43
0.0006660908203125
 10
0.1301347152976651
 20
0.1920880990639859
 10
0.1301347152976651
 20
0.2786799057046125
 10
0.0435429086570403
 20
0.2786799057046125
  0
LWPOLYLINE
  5
3EF0D9A1ECE717A
330
3EF0D9A1ECE727A
100
AcDbEntity
  8
TEXT
100
AcDbPolyline
 90
        2
 70
     0
 43
0.0001332181640625
 10
0.1301347152976651
 20
0.2786799057046125
 10
0.0701865414695413
 20
0.218731731876487
  0
LWPOLYLINE
  5
3EF0D9A1ECE717E
330
3EF0D9A1ECE727A
100
AcDbEntity
  8
TEXT
100
AcDbPolyline
 90
        2
 70
     0
 43
0.0001332181640625
 10
0.0435429086570403
 20
0.2786799057046125
 10
0.0335515463523515
 20
0.218731731876487
  0
LWPOLYLINE
  5
3EF0D9A1ECE7182
330
3EF0D9A1ECE727A
100
AcDbEntity
  8
TEXT
100
AcDbPolyline
 90
        2
 70
     0
 43
0.0001332181640625
 10
0.0435429086570403
 20
0.3053235385171136
 10
0.0335515463523515
 20
0.2320535482827339
  0
LWPOLYLINE
  5
3EF0D9A1ECE7186
330
3EF0D9A1ECE727A
100
AcDbEntity
  8
TEXT
100
AcDbPolyline
 90
        2
 70
     0
 43
0.0001332181640625
 10
0.0835083578757901
 20
0.1820967367592972
 10
0.1567783481101661
 20
0.1920880990639859
  0
LWPOLYLINE
  5
3EF0D9A1ECE718A
330
3EF0D9A1ECE727A
100
AcDbEntity
  8
TEXT
100
AcDbPolyline
 90
        2
 70
     0
 43
0.0001332181640625
 10
0.1301347152976651
 20
0.1920880990639859
 10
0.0701865414695413
 20
0.1820967367592972
  0
LWPOLYLINE
  5
3EF0D9A1ECE718E
330
3EF0D9A1ECE727A
100
AcDbEntity
  8
TEXT
100
AcDbPolyline
 90
        2
 70
     0
 43
0.0001332181640625
 10
0.1567783481101661
 20
0.1521226498452379
 10
0.0835083578757901
 20
0.1621140121499232
  0
LWPOLYLINE
  5
3EF0D9A1ECE7192
330
3EF0D9A1ECE727A
100
AcDbEntity
  8
TEXT
100
AcDbPolyline
 90
        2
 70
     0
 43
0.0001332181640625
 10
0.1301347152976651
 20
0.1521226498452379
 10
0.0701865414695413
 20
0.1621140121499232
  0
LWPOLYLINE
  5
3EF0D9A1ECE7196
330
3EF0D9A1ECE727A
100
AcDbEntity
  8
TEXT
100
AcDbPolyline
 90
        2
 70
     0
 43
0.0001332181640625
 10
0.1301347152976651
 20
0.0655308432046113
 10
0.0701865414695413
 20
0.1254790170327369
  0
LWPOLYLINE
  5
3EF0D9A1ECE719A
330
3EF0D9A1ECE727A
100
AcDbEntity
  8
TEXT
100
AcDbPolyline
 90
        3
 70
     0
 43
0.0006660908203125
 10
0.0435429086570403
 20
0.0655308432046113
 10
0.1301347152976651
 20
0.0655308432046113
 10
0.1301347152976651
 20
0.1521226498452379
  0
LWPOLYLINE
  5
3EF0D9A1ECE719F
330
3EF0D9A1ECE727A
100
AcDbEntity
  8
TEXT
100
AcDbPolyline
 90
        3
 70
     0
 43
0.0006660908203125
 10
0.0435429086570403
 20
0.0388872103921103
 10
0.1567783481101661
 20
0.0388872103921103
 10
0.1567783481101661
 20
0.1521226498452379
  0
LWPOLYLINE
  5
3EF0D9A1ECE71A4
330
3EF0D9A1ECE727A
100
AcDbEntity
  8
TEXT
100
AcDbPolyline
 90
        5
 70
     0
 43
0.0001332181640625
 10
0.0135688217429793
 20
0.1121572006264864
 10
0.0135688217429793
 20
0.1254790170327369
 10
-0.0230661733742088
 20
0.1254790170327369
 10
-0.0230661733742088
 20
0.1621140121499232
 10
-0.0363879897804593
 20
0.1621140121499232
  0
LWPOLYLINE
  5
3EF0D9A1ECE71AB
330
3EF0D9A1ECE727A
100
AcDbEntity
  8
TEXT
100
AcDbPolyline
 90
        2
 70
     0
 43
0.0006660908203125
 10
0.0035774594382887
 20
0.0655308432046113
 10
0.0035774594382887
 20
0.0388872103921103
  0
LWPOLYLINE
  5
3EF0D9A1ECE71AF
330
3EF0D9A1ECE727A
100
AcDbEntity
  8
TEXT
100
AcDbPolyline
 90
        2
 70
     0
 43
0.0001332181640625
 10
0.0035774594382887
 20
0.0655308432046113
 10
0.0135688217429793
 20
0.1254790170327369
  0
LWPOLYLINE
  5
3EF0D9A1ECE71B3
330
3EF0D9A1ECE727A
100
AcDbEntity
  8
TEXT
100
AcDbPolyline
 90
        2
 70
     0
 43
0.0001332181640625
 10
0.0035774594382887
 20
0.0388872103921103
 10
0.0135688217429793
 20
0.1121572006264864
  0
LWPOLYLINE
  5
3EF0D9A1ECE71B7
330
3EF0D9A1ECE727A
100
AcDbEntity
  8
TEXT
100
AcDbPolyline
 90
        5
 70
     0
 43
0.0001332181640625
 10
-0.0363879897804593
 20
0.1820967367592972
 10
-0.0230661733742106
 20
0.1820967367592972
 10
-0.0230661733742106
 20
0.218731731876487
 10
0.0135688217429793
 20
0.218731731876487
 10
0.0135688217429793
 20
0.2320535482827339
  0
LWPOLYLINE
  5
3EF0D9A1ECE71BE
330
3EF0D9A1ECE727A
100
AcDbEntity
  8
TEXT
100
AcDbPolyline
 90
        5
 70
     0
 43
0.0001332181640625
 10
0.0335515463523515
 20
0.2320535482827339
 10
0.0335515463523515
 20
0.218731731876487
 10
0.0701865414695413
 20
0.218731731876487
 10
0.0701865414695413
 20
0.1820967367592972
 10
0.0835083578757901
 20
0.1820967367592972
  0
LWPOLYLINE
  5
3EF0D9A1ECE71C5
330
3EF0D9A1ECE727A
100
AcDbEntity
  8
TEXT
100
AcDbPolyline
 90
        2
 70
     0
 43
0.0001332181640625
 10
0.0435429086570403
 20
0.0655308432046113
 10
0.0335515463523515
 20
0.1254790170327369
  0
LWPOLYLINE
  5
3EF0D9A1ECE71C9
330
3EF0D9A1ECE727A
100
AcDbEntity
  8
TEXT
100
AcDbPolyline
 90
        2
 70
     0
 43
0.0001332181640625
 10
0.0335515463523515
 20
0.1121572006264864
 10
0.0435429086570403
 20
0.0388872103921103
  0
LWPOLYLINE
  5
3EF0D9A1ECE71CD
330
3EF0D9A1ECE727A
100
AcDbEntity
  8
TEXT
100
AcDbPolyline
 90
        2
 70
     0
 43
0.0006660908203125
 10
0.0435429086570403
 20
0.0655308432046113
 10
0.0435429086570403
 20
0.0388872103921103
  0
LWPOLYLINE
  5
3EF0D9A1ECE71D1
330
3EF0D9A1ECE727A
100
AcDbEntity
  8
TEXT
100
AcDbPolyline
 90
        5
 70
     0
 43
0.0001332181640625
 10
0.0835083578757901
 20
0.1621140121499232
 10
0.0701865414695413
 20
0.1621140121499232
 10
0.0701865414695413
 20
0.1254790170327369
 10
0.0335515463523515
 20
0.1254790170327369
 10
0.0335515463523515
 20
0.1121572006264864
  0
LWPOLYLINE
  5
3EF0D9A1ECE71D8
330
3EF0D9A1ECE727A
100
AcDbEntity
  8
TEXT
100
AcDbPolyline
 90
        2
 70
     0
 43
0.0006660908203125
 10
0.1301347152976651
 20
0.1920880990639859
 10
0.1567783481101661
 20
0.1920880990639859
  0
LWPOLYLINE
  5
3EF0D9A1ECE71DC
330
3EF0D9A1ECE727A
100
AcDbEntity
  8
TEXT
100
AcDbPolyline
 90
        2
 70
     0
 43
0.0006660908203125
 10
0.1301347152976651
 20
0.1521226498452379
 10
0.1567783481101661
 20
0.1521226498452379
  0
LINE
  5
3EF0D9A1ECE71E0
330
3EF0D9A1ECE727A
100
AcDbEntity
  8
TEXT
100
AcDbLine
 10
0.426892484958191
 20
0.2410468438603446
 30
0.0
 11
0.5937981389871623
 21
0.2410468438603446
 31
0.0
  0
LINE
  5
3EF0D9A1ECE71E1
330
3EF0D9A1ECE727A
100
AcDbEntity
  8
TEXT
100
AcDbLine
 10
0.4924926212024921
 20
0.2052421222497167
 30
0.0
 11
0.426892484958191
 21
0.2052421222497167
 31
0.0
  0
LINE
  5
3EF0D9A1ECE71E2
330
3EF0D9A1ECE727A
100
AcDbEntity
  8
TEXT
100
AcDbLine
 10
0.3395676953974394
 20
0.038850505528599
 30
0.0
 11
0.4924926212024921
 21
0.038850505528599
 31
0.0
  0
LINE
  5
3EF0D9A1ECE71E3
330
3EF0D9A1ECE727A
100
AcDbEntity
  8
TEXT
100
AcDbLine
 10
0.4974329951087717
 20
0.1072075118620384
 30
0.0
 11
0.3395676953974376
 21
0.1072075118620384
 31
0.0
  0
LINE
  5
3EF0D9A1ECE71E4
330
3EF0D9A1ECE727A
100
AcDbEntity
  8
TEXT
100
AcDbLine
 10
0.4216551548439429
 20
0.141148619624103
 30
0.0
 11
0.4974329951087717
 21
0.141148619624103
 31
0.0
  0
ARC
  5
3EF0D9A1ECE71E5
330
3EF0D9A1ECE727A
100
AcDbEntity
  8
TEXT
100
AcDbCircle
 10
0.4268924849581919
 20
0.2231444830550324
 30
0.0
 40
0.017902360805315
100
AcDbArc
 50
90.0
 51
270.0
  0
LINE
  5
3EF0D9A1ECE71E6
330
3EF0D9A1ECE727A
100
AcDbEntity
  8
TEXT
100
AcDbLine
 10
0.3395676953974376
 20
0.1072075118620384
 30
0.0
 11
0.3395676953974394
 21
0.038850505528599
 31
0.0
  0
LINE
  5
3EF0D9A1ECE71E7
330
3EF0D9A1ECE727A
100
AcDbEntity
  8
TEXT
100
AcDbLine
 10
0.5937981389871623
 20
0.2410468438603446
 30
0.0
 11
0.5937981389871623
 21
0.0986428968666489
 31
0.0
  0
ARC
  5
3EF0D9A1ECE71E8
330
3EF0D9A1ECE727A
100
AcDbEntity
  8
TEXT
100
AcDbCircle
 10
0.492492621202493
 20
0.1220463138891561
 30
0.0
 40
0.0831958083605586
100
AcDbArc
 50
270.0
 51
90.0
  0
ARC
  5
3EF0D9A1ECE71E9
330
3EF0D9A1ECE727A
100
AcDbEntity
  8
TEXT
100
AcDbCircle
 10
0.4974329951087726
 20
0.1241780657430724
 30
0.0
 40
0.0169705538810321
100
AcDbArc
 50
270.0
 51
90.0
  0
LWPOLYLINE
  5
3EF0D9A1ECE71EA
330
3EF0D9A1ECE727A
100
AcDbEntity
  8
TEXT
100
AcDbPolyline
 90
        2
 70
     0
 43
0.0006660908203125
 10
0.0035774594382887
 20
0.2786799057046125
 10
0.0035774594382887
 20
0.3053235385171136
  0
LWPOLYLINE
  5
3EF0D9A1ECE71EE
330
3EF0D9A1ECE727A
100
AcDbEntity
  8
TEXT
100
AcDbPolyline
 90
        2
 70
     0
 43
0.0006660908203125
 10
0.0435429086570403
 20
0.2786799057046125
 10
0.0435429086570403
 20
0.3053235385171136
  0
LINE
  5
3EF0D9A1ECE71F2
330
3EF0D9A1ECE727A
100
AcDbEntity
  8
TEXT
100
AcDbLine
 10
0.5973869077424552
 20
0.30532353851711
 30
0.0
 11
0.4216551548439429
 21
0.30532353851711
 31
0.0
  0
LINE
  5
3EF0D9A1ECE71F3
330
3EF0D9A1ECE727A
100
AcDbEntity
  8
TEXT
100
AcDbLine
 10
0.5973869077424552
 20
0.3397114561112482
 30
0.0
 11
0.5973869077424552
 21
0.30532353851711
 31
0.0
  0
LINE
  5
3EF0D9A1ECE71F4
330
3EF0D9A1ECE727A
100
AcDbEntity
  8
TEXT
100
AcDbLine
 10
0.7878587997623075
 20
0.2044515424039894
 30
0.0
 11
0.7292284787303696
 21
0.30532353851711
 31
0.0
  0
LINE
  5
3EF0D9A1ECE71F5
330
3EF0D9A1ECE727A
100
AcDbEntity
  8
TEXT
100
AcDbLine
 10
0.846607362568173
 20
0.30532353851711
 30
0.0
 11
0.7878587997623075
 21
0.2044515424039894
 31
0.0
  0
LINE
  5
3EF0D9A1ECE71F6
330
3EF0D9A1ECE727A
100
AcDbEntity
  8
TEXT
100
AcDbLine
 10
0.9435379879279143
 20
0.1212383436315982
 30
0.0
 11
0.9435379879279143
 21
0.3733350162559206
 31
0.0
  0
LINE
  5
3EF0D9A1ECE71F7
330
3EF0D9A1ECE727A
100
AcDbEntity
  8
TEXT
100
AcDbLine
 10
0.9758498420655744
 20
0.30532353851711
 30
0.0
 11
0.9758498420655744
 21
0.1044593317847018
 31
0.0
  0
LINE
  5
3EF0D9A1ECE71F8
330
3EF0D9A1ECE727A
100
AcDbEntity
  8
TEXT
100
AcDbLine
 10
0.9758498420655744
 20
0.1044593317847018
 30
0.0
 11
0.9588562051809731
 21
0.1044593317847018
 31
0.0
  0
LINE
  5
3EF0D9A1ECE71F9
330
3EF0D9A1ECE727A
100
AcDbEntity
  8
TEXT
100
AcDbLine
 10
0.944677561424109
 20
0.038850505528599
 30
0.0
 11
1.042680895123543
 21
0.038850505528599
 31
0.0
  0
LINE
  5
3EF0D9A1ECE71FA
330
3EF0D9A1ECE727A
100
AcDbEntity
  8
TEXT
100
AcDbLine
 10
0.7782585627653531
 20
0.058809011633612
 30
0.0
 11
0.8755582688587978
 21
0.2231592225688801
 31
0.0
  0
ARC
  5
3EF0D9A1ECE71FB
330
3EF0D9A1ECE727A
100
AcDbEntity
  8
TEXT
100
AcDbCircle
 10
0.7442150028531392
 20
0.0783982278022948
 30
0.0
 40
0.0392772371940762
100
AcDbArc
 50
270.1604552698595
 51
330.0831797321295
  0
LINE
  5
3EF0D9A1ECE71FC
330
3EF0D9A1ECE727A
100
AcDbEntity
  8
TEXT
100
AcDbLine
 10
0.647684746467268
 20
0.038850505528599
 30
0.0
 11
0.7443249975422624
 21
0.0391211446268813
 31
0.0
  0
LWPOLYLINE
  5
3EF0D9A1ECE71FD
330
3EF0D9A1ECE727A
100
AcDbEntity
  8
TEXT
100
AcDbPolyline
 90
        6
 70
     1
 43
0.0
 10
0.6902085500424176
 20
0.2410468438603446
 10
0.6598919558222094
 20
0.2410468438603446
 10
0.6598919558222094
 20
0.1179358458054502
 42
0.407328721240804
 10
0.6714356069836858
 20
0.1061169311290642
 10
0.7320573060284166
 20
0.1061169311290642
 10
0.7495226464357346
 20
0.1389291601725433
  0
LINE
  5
3EF0D9A1ECE7205
330
3EF0D9A1ECE727A
100
AcDbEntity
  8
TEXT
100
AcDbLine
 10
0.8755582688587978
 20
0.2231592225688801
 30
0.0
 11
0.8755582688587978
 21
0.0904018477435238
 31
0.0
  0
ARC
  5
3EF0D9A1ECE7206
330
3EF0D9A1ECE727A
100
AcDbEntity
  8
TEXT
100
AcDbCircle
 10
0.9588562051809713
 20
0.1198411380281272
 30
0.0
 40
0.0153818062434269
100
AcDbArc
 50
174.7883570302258
 51
270.0
  0
LWPOLYLINE
  5
3EF0D9A1ECE7207
330
3EF0D9A1ECE727A
100
AcDbEntity
  8
TEXT
100
AcDbPolyline
 90
        2
 70
     0
 43
0.0
 10
0.875558268858796
 20
0.0904018477435274
 42
0.3318488747599744
 10
0.944677561424109
 20
0.038850505528599
 42
-6.868794160588311
  0
LINE
  5
3EF0D9A1ECE720B
330
3EF0D9A1ECE727A
100
AcDbEntity
  8
TEXT
100
AcDbLine
 10
1.100069964112804
 20
0.038850505528599
 30
0.0
 11
1.167128010894644
 21
0.038850505528599
 31
0.0
  0
LINE
  5
3EF0D9A1ECE720C
330
3EF0D9A1ECE727A
100
AcDbEntity
  8
TEXT
100
AcDbLine
 10
1.100069964112804
 20
0.2334930546942346
 30
0.0
 11
1.100069964112804
 21
0.038850505528599
 31
0.0
  0
LINE
  5
3EF0D9A1ECE720D
330
3EF0D9A1ECE727A
100
AcDbEntity
  8
TEXT
100
AcDbLine
 10
1.042680895123543
 20
0.2410468438603446
 30
0.0
 11
1.092516174946691
 21
0.2410468438603446
 31
0.0
  0
LINE
  5
3EF0D9A1ECE720E
330
3EF0D9A1ECE727A
100
AcDbEntity
  8
TEXT
100
AcDbLine
 10
1.042680895123543
 20
0.038850505528599
 30
0.0
 11
1.042680895123543
 21
0.2410468438603446
 31
0.0
  0
LWPOLYLINE
  5
3EF0D9A1ECE720F
330
3EF0D9A1ECE727A
100
AcDbEntity
  8
TEXT
100
AcDbPolyline
 90
        2
 70
     0
 43
0.0
 10
1.092516174946689
 20
0.2410468438603446
 42
-0.4142135623731017
 10
1.100069964112802
 20
0.2334930546942346
 42
-0.9999999999999998
  0
LINE
  5
3EF0D9A1ECE7213
330
3EF0D9A1ECE727A
100
AcDbEntity
  8
TEXT
100
AcDbLine
 10
1.298326175724374
 20
0.2410468438603446
 30
0.0
 11
1.298326175724374
 21
0.165994437786138
 31
0.0
  0
LINE
  5
3EF0D9A1ECE7214
330
3EF0D9A1ECE727A
100
AcDbEntity
  8
TEXT
100
AcDbLine
 10
1.167128010894644
 20
0.2410468438603446
 30
0.0
 11
1.221261607815594
 21
0.2410468438603446
 31
0.0
  0
LINE
  5
3EF0D9A1ECE7215
330
3EF0D9A1ECE727A
100
AcDbEntity
  8
TEXT
100
AcDbLine
 10
1.167128010894644
 20
0.038850505528599
 30
0.0
 11
1.167128010894644
 21
0.2410468438603446
 31
0.0
  0
LWPOLYLINE
  5
3EF0D9A1ECE7216
330
3EF0D9A1ECE727A
100
AcDbEntity
  8
TEXT
100
AcDbPolyline
 90
        2
 70
     0
 43
0.0
 10
1.221261607815593
 20
0.2410468438603446
 42
-0.4142135623731017
 10
1.228815396981706
 20
0.2334930546942346
 42
-0.9999999999999998
  0
LWPOLYLINE
  5
3EF0D9A1ECE721A
330
3EF0D9A1ECE727A
100
AcDbEntity
  8
TEXT
100
AcDbPolyline
 90
        4
 70
     0
 43
0.0
 10
1.228815396981706
 20
0.2334930546942346
 10
1.228815396981706
 20
0.038850505528599
 10
1.297293680269564
 20
0.038850505528599
 10
1.297293680269564
 20
0.0823414504790372
 42
-1.714843617202739
  0
LINE
  5
3EF0D9A1ECE7220
330
3EF0D9A1ECE727A
100
AcDbEntity
  8
TEXT
100
AcDbLine
 10
0.6574295125864622
 20
0.30532353851711
 30
0.0
 11
0.6574295125864622
 21
0.3397114561112482
 31
0.0
  0
LINE
  5
3EF0D9A1ECE7221
330
3EF0D9A1ECE727A
100
AcDbEntity
  8
TEXT
100
AcDbLine
 10
0.7292284787303696
 20
0.30532353851711
 30
0.0
 11
0.6574295125864622
 21
0.30532353851711
 31
0.0
  0
LINE
  5
3EF0D9A1ECE7222
330
3EF0D9A1ECE727A
100
AcDbEntity
  8
TEXT
100
AcDbLine
 10
0.8767292753615492
 20
0.30532353851711
 30
0.0
 11
0.846607362568173
 21
0.30532353851711
 31
0.0
  0
LINE
  5
3EF0D9A1ECE7223
330
3EF0D9A1ECE727A
100
AcDbEntity
  8
TEXT
100
AcDbLine
 10
0.8767292753615492
 20
0.3733350162559206
 30
0.0
 11
0.8767292753615492
 21
0.30532353851711
 31
0.0
  0
LINE
  5
3EF0D9A1ECE7224
330
3EF0D9A1ECE727A
100
AcDbEntity
  8
TEXT
100
AcDbLine
 10
0.9435379879279143
 20
0.3733350162559206
 30
0.0
 11
0.8767292753615492
 21
0.3733350162559206
 31
0.0
  0
LWPOLYLINE
  5
3EF0D9A1ECE7225
330
3EF0D9A1ECE727A
100
AcDbEntity
  8
TEXT
100
AcDbPolyline
 90
        3
 70
     0
 43
0.0
 10
1.263949747525916
 20
0.3053235385171136
 10
1.145649588709872
 20
0.3053235385171136
 10
1.145649588709872
 20
0.2781560417562177
 42
-1.960274751411753
  0
LINE
  5
3EF0D9A1ECE722A
330
3EF0D9A1ECE727A
100
AcDbEntity
  8
TEXT
100
AcDbLine
 10
1.10986789799671
 20
0.30532353851711
 30
0.0
 11
0.9758498420655744
 21
0.30532353851711
 31
0.0
  0
LWPOLYLINE
  5
3EF0D9A1ECE722B
330
3EF0D9A1ECE727A
100
AcDbEntity
  8
TEXT
100
AcDbPolyline
 90
        2
 70
     0
 43
0.0
 10
1.10986789799671
 20
0.3053235385171136
 42
-0.3328679258950098
 10
1.145649588709872
 20
0.2781560417562177
 42
6.772930709997214
  0
LINE
  5
3EF0D9A1ECE722F
330
3EF0D9A1ECE727A
100
AcDbEntity
  8
TEXT
100
AcDbLine
 10
1.299731438239083
 20
0.30532353851711
 30
0.0
 11
1.299731438239083
 21
0.2770009927474661
 31
0.0
  0
LWPOLYLINE
  5
3EF0D9A1ECE7230
330
3EF0D9A1ECE727A
100
AcDbEntity
  8
TEXT
100
AcDbPolyline
 90
        2
 70
     0
 43
0.0
 10
1.263949747525916
 20
0.3053235385171136
 42
-0.3277054968067132
 10
1.299731438239081
 20
0.2770009927474697
 42
6.667889725900311
  0
LINE
  5
3EF0D9A1ECE7234
330
3EF0D9A1ECE727A
100
AcDbEntity
  8
TEXT
100
AcDbLine
 10
1.513523286331183
 20
0.2001115599636827
 30
0.0
 11
1.469772515149281
 21
0.2823618359598279
 31
0.0
  0
LINE
  5
3EF0D9A1ECE7235
330
3EF0D9A1ECE727A
100
AcDbEntity
  8
TEXT
100
AcDbLine
 10
1.513523286331183
 20
0.30532353851711
 30
0.0
 11
1.513523286331183
 21
0.2001115599636827
 31
0.0
  0
LINE
  5
3EF0D9A1ECE7236
330
3EF0D9A1ECE727A
100
AcDbEntity
  8
TEXT
100
AcDbLine
 10
1.741207025269552
 20
0.2294582121055719
 30
0.0
 11
1.741207025269552
 21
0.3707877442847107
 31
0.0
  0
LINE
  5
3EF0D9A1ECE7237
330
3EF0D9A1ECE727A
100
AcDbEntity
  8
TEXT
100
AcDbLine
 10
1.788305183825536
 20
0.30532353851711
 30
0.0
 11
1.741207025269552
 21
0.2294582121055719
 31
0.0
  0
LINE
  5
3EF0D9A1ECE7238
330
3EF0D9A1ECE727A
100
AcDbEntity
  8
TEXT
100
AcDbLine
 10
1.798739900589459
 20
0.1954302955761365
 30
0.0
 11
1.863297016555165
 21
0.30532353851711
 31
0.0
  0
LINE
  5
3EF0D9A1ECE7239
330
3EF0D9A1ECE727A
100
AcDbEntity
  8
TEXT
100
AcDbLine
 10
1.677372034046779
 20
0.038850505528599
 30
0.0
 11
1.741750218365399
 21
0.038850505528599
 31
0.0
  0
LWPOLYLINE
  5
3EF0D9A1ECE723A
330
3EF0D9A1ECE727A
100
AcDbEntity
  8
TEXT
100
AcDbPolyline
 90
        2
 70
     0
 43
0.0
 10
1.517462963636221
 20
0.0823414504790372
 42
-0.2901071551932486
 10
1.474387030768576
 20
0.038850505528599
 42
-5.328517124445184
  0
ARC
  5
3EF0D9A1ECE723E
330
3EF0D9A1ECE727A
100
AcDbEntity
  8
TEXT
100
AcDbCircle
 10
1.405532449111662
 20
0.2126874688603473
 30
0.0
 40
0.028359375
100
AcDbArc
 50
25.78218179591245
 51
90.0
  0
LINE
  5
3EF0D9A1ECE723F
330
3EF0D9A1ECE727A
100
AcDbEntity
  8
TEXT
100
AcDbLine
 10
1.441333524415785
 20
0.2037718703982123
 30
0.0
 11
1.43106876400222
 21
0.2250224099709066
 31
0.0
  0
LINE
  5
3EF0D9A1ECE7240
330
3EF0D9A1ECE727A
100
AcDbEntity
  8
TEXT
100
AcDbLine
 10
1.359045534632401
 20
0.2037718703982123
 30
0.0
 11
1.441333524415785
 21
0.2037718703982123
 31
0.0
  0
LWPOLYLINE
  5
3EF0D9A1ECE7241
330
3EF0D9A1ECE727A
100
AcDbEntity
  8
TEXT
100
AcDbPolyline
 90
        4
 70
     1
 43
0.0
 10
1.454264565698684
 20
0.1418144835126243
 10
1.365604247038825
 20
0.1418144835126243
 42
0.9999999999999998
 10
1.365604247038825
 20
0.0994159430087636
 10
1.454264565698684
 20
0.0994159430087636
 42
1.0
  0
LWPOLYLINE
  5
3EF0D9A1ECE7247
330
3EF0D9A1ECE727A
100
AcDbEntity
  8
TEXT
100
AcDbPolyline
 90
        2
 70
     0
 43
0.0
 10
1.3403696131372
 20
0.038850505528599
 10
1.474387030768576
 20
0.038850505528599
 42
0.9999999999999998
  0
LINE
  5
3EF0D9A1ECE724B
330
3EF0D9A1ECE727A
100
AcDbEntity
  8
TEXT
100
AcDbLine
 10
1.600724052754216
 20
0.2410468438603446
 30
0.0
 11
1.677372034046773
 21
0.2410468438603446
 31
0.0
  0
LINE
  5
3EF0D9A1ECE724C
330
3EF0D9A1ECE727A
100
AcDbEntity
  8
TEXT
100
AcDbLine
 10
1.677372034046773
 20
0.2410468438603446
 30
0.0
 11
1.677372034046779
 21
0.038850505528599
 31
0.0
  0
ARC
  5
3EF0D9A1ECE724D
330
3EF0D9A1ECE727A
100
AcDbEntity
  8
TEXT
100
AcDbCircle
 10
1.600724052754214
 20
0.2161409685776818
 30
0.0
 40
0.0249058752826653
100
AcDbArc
 50
89.99971217465335
 51
179.9999999999985
  0
LINE
  5
3EF0D9A1ECE724E
330
3EF0D9A1ECE727A
100
AcDbEntity
  8
TEXT
100
AcDbLine
 10
1.575818177471556
 20
0.038850505528599
 30
0.0
 11
1.575818177471551
 21
0.2161410109600674
 31
0.0
  0
LWPOLYLINE
  5
3EF0D9A1ECE724F
330
3EF0D9A1ECE727A
100
AcDbEntity
  8
TEXT
100
AcDbPolyline
 90
        2
 70
     0
 43
0.0
 10
1.517462963636221
 20
0.038850505528599
 10
1.575818177471555
 20
0.038850505528599
  0
LWPOLYLINE
  5
3EF0D9A1ECE7253
330
3EF0D9A1ECE727A
100
AcDbEntity
  8
TEXT
100
AcDbPolyline
 90
        2
 70
     0
 43
0.0
 10
1.517462963636221
 20
0.0823414504790372
 10
1.517462963636221
 20
0.038850505528599
  0
LINE
  5
3EF0D9A1ECE7257
330
3EF0D9A1ECE727A
100
AcDbEntity
  8
TEXT
100
AcDbLine
 10
1.89423212395307
 20
0.038850505528599
 30
0.0
 11
1.798739900589459
 21
0.1954302955761365
 31
0.0
  0
LINE
  5
3EF0D9A1ECE7258
330
3EF0D9A1ECE727A
100
AcDbEntity
  8
TEXT
100
AcDbLine
 10
1.817653751576864
 20
0.038850505528599
 30
0.0
 11
1.89423212395307
 21
0.038850505528599
 31
0.0
  0
LINE
  5
3EF0D9A1ECE7259
330
3EF0D9A1ECE727A
100
AcDbEntity
  8
TEXT
100
AcDbLine
 10
1.741750218365399
 20
0.1704300740047793
 30
0.0
 11
1.817653751576864
 21
0.038850505528599
 31
0.0
  0
LINE
  5
3EF0D9A1ECE725A
330
3EF0D9A1ECE727A
100
AcDbEntity
  8
TEXT
100
AcDbLine
 10
1.741750218365399
 20
0.038850505528599
 30
0.0
 11
1.741750218365399
 21
0.1704300740047793
 31
0.0
  0
LINE
  5
3EF0D9A1ECE725B
330
3EF0D9A1ECE727A
100
AcDbEntity
  8
TEXT
100
AcDbLine
 10
1.741207025269552
 20
0.3707877442847107
 30
0.0
 11
1.672892146720279
 21
0.3707877442847107
 31
0.0
  0
ARC
  5
3EF0D9A1ECE725C
330
3EF0D9A1ECE727A
100
AcDbEntity
  8
TEXT
100
AcDbCircle
 10
1.432536407679072
 20
0.2637399713962076
 30
0.0
 40
0.0416329381542859
100
AcDbArc
 50
26.56974201007528
 51
87.20939649401342
  0
LINE
  5
3EF0D9A1ECE725D
330
3EF0D9A1ECE727A
100
AcDbEntity
  8
TEXT
100
AcDbLine
 10
1.577420192630684
 20
0.30532353851711
 30
0.0
 11
1.513523286331183
 21
0.30532353851711
 31
0.0
  0
LINE
  5
3EF0D9A1ECE725E
330
3EF0D9A1ECE727A
100
AcDbEntity
  8
TEXT
100
AcDbLine
 10
1.577420192630684
 20
0.2777758886562354
 30
0.0
 11
1.577420192630684
 21
0.30532353851711
 31
0.0
  0
ARC
  5
3EF0D9A1ECE725F
330
3EF0D9A1ECE727A
100
AcDbEntity
  8
TEXT
100
AcDbCircle
 10
1.608613009693792
 20
0.2740778112348452
 30
0.0
 40
0.0314112657011332
100
AcDbArc
 50
95.88484768694724
 51
173.2388340632136
  0
LINE
  5
3EF0D9A1ECE7260
330
3EF0D9A1ECE727A
100
AcDbEntity
  8
TEXT
100
AcDbLine
 10
1.672892146720273
 20
0.30532353851711
 30
0.0
 11
1.605392429070757
 21
0.30532353851711
 31
0.0
  0
LINE
  5
3EF0D9A1ECE7261
330
3EF0D9A1ECE727A
100
AcDbEntity
  8
TEXT
100
AcDbLine
 10
1.672892146720279
 20
0.3707877442847107
 30
0.0
 11
1.672892146720273
 21
0.30532353851711
 31
0.0
  0
LINE
  5
3EF0D9A1ECE7262
330
3EF0D9A1ECE727A
100
AcDbEntity
  8
TEXT
100
AcDbLine
 10
1.863297016555165
 20
0.30532353851711
 30
0.0
 11
1.788305183825538
 21
0.30532353851711
 31
0.0
  0
ENDSEC
  0
SECTION
  2
OBJECTS
  0
DICTIONARY
  5
3EF0D9A1ECE726E
330
0
100
AcDbDictionary
  3
ACAD_GROUP
350
3EF0D9A1ECE726F
  3
ACAD_LAYOUT
350
3EF0D9A1ECE7295
  3
ACAD_MLINESTYLE
350
3EF0D9A1ECE7270
  3
ACAD_PLOTSETTINGS
350
3EF0D9A1ECE7296
  3
ACAD_PLOTSTYLENAME
350
3EF0D9A1ECE7293
  3
ACDBHEADERROUNDTRIPXREC
350
3EF0D9A1ECE72A0
  3
ACDBVARIABLEDICTIONARY
350
3EF0D9A1ECE729D
  0
DICTIONARY
  5
3EF0D9A1ECE72C2
330
3EF0D9A1ECE727A
100
AcDbDictionary
280
     1
  3
ACAD_LAYOUTSELFREF
360
3EF0D9A1ECE72C3
  0
DICTIONARY
  5
3EF0D9A1ECE72C0
330
3EF0D9A1ECE7277
100
AcDbDictionary
280
     1
  3
ACAD_LAYOUTSELFREF
360
3EF0D9A1ECE72C1
  0
DICTIONARY
  5
3EF0D9A1ECE726F
102
{ACAD_REACTORS
330
3EF0D9A1ECE726E
102
}
330
3EF0D9A1ECE726E
100
AcDbDictionary
  0
DICTIONARY
  5
3EF0D9A1ECE7295
102
{ACAD_REACTORS
330
3EF0D9A1ECE726E
102
}
330
3EF0D9A1ECE726E
100
AcDbDictionary
  0
DICTIONARY
  5
3EF0D9A1ECE7270
102
{ACAD_REACTORS
330
3EF0D9A1ECE726E
102
}
330
3EF0D9A1ECE726E
100
AcDbDictionary
  3
STANDARD
350
3EF0D9A1ECE727D
  0
DICTIONARY
  5
3EF0D9A1ECE7296
102
{ACAD_REACTORS
330
3EF0D9A1ECE726E
102
}
330
3EF0D9A1ECE726E
100
AcDbDictionary
  0
ACDBDICTIONARYWDFLT
  5
3EF0D9A1ECE7293
102
{ACAD_REACTORS
330
3EF0D9A1ECE726E
102
}
330
3EF0D9A1ECE726E
100
AcDbDictionary
281
     1
  3
Normal
350
3EF0D9A1ECE7294
100
AcDbDictionaryWithDefault
340
3EF0D9A1ECE7294
  0
DICTIONARY
  5
3EF0D9A1ECE72A0
102
{ACAD_REACTORS
330
3EF0D9A1ECE726E
102
}
330
3EF0D9A1ECE726E
100
AcDbDictionary
  3
CEPSNTYPE
350
3EF0D9A1ECE72AA
  3
FINGERPRINTGUID
350
3EF0D9A1ECE72AB
  3
HYPERLINKBASE
350
3EF0D9A1ECE72A3
  3
INSUNITS
350
3EF0D9A1ECE72A9
  3
LAYOUTDICT
350
3EF0D9A1ECE72A5
  3
LWETCUNION
350
3EF0D9A1ECE72A8
  3
PLOTSETDICT
350
3EF0D9A1ECE72A6
  3
PLOTSTYLNAMDICT
350
3EF0D9A1ECE72A7
  3
PSVPSCALE
350
3EF0D9A1ECE72AD
  3
PUCSBASE
350
3EF0D9A1ECE72B0
  3
PUCSORGBACK
350
3EF0D9A1ECE72B6
  3
PUCSORGBOTTOM
350
3EF0D9A1ECE72B2
  3
PUCSORGFRONT
350
3EF0D9A1ECE72B5
  3
PUCSORGLEFT
350
3EF0D9A1ECE72B3
  3
PUCSORGRIGHT
350
3EF0D9A1ECE72B4
  3
PUCSORGTOP
350
3EF0D9A1ECE72B1
  3
PUCSORTHOREF
350
3EF0D9A1ECE72AE
  3
PUCSORTHOVIEW
350
3EF0D9A1ECE72AF
  3
STYLESHEET
350
3EF0D9A1ECE72A4
  3
TSTACKALIGN
350
3EF0D9A1ECE72A1
  3
TSTACKSIZE
350
3EF0D9A1ECE72A2
  3
UCSBASE
350
3EF0D9A1ECE72B9
  3
UCSORGBACK
350
3EF0D9A1ECE72BF
  3
UCSORGBOTTOM
350
3EF0D9A1ECE72BB
  3
UCSORGFRONT
350
3EF0D9A1ECE72BE
  3
UCSORGLEFT
350
3EF0D9A1ECE72BC
  3
UCSORGRIGHT
350
3EF0D9A1ECE72BD
  3
UCSORGTOP
350
3EF0D9A1ECE72BA
  3
UCSORTHOREF
350
3EF0D9A1ECE72B7
  3
UCSORTHOVIEW
350
3EF0D9A1ECE72B8
  3
VERSIONGUID
350
3EF0D9A1ECE72AC
  0
DICTIONARY
  5
3EF0D9A1ECE729D
102
{ACAD_REACTORS
330
3EF0D9A1ECE726E
102
}
330
3EF0D9A1ECE726E
100
AcDbDictionary
  3
DIMASSOC
350
3EF0D9A1ECE729E
  0
XRECORD
  5
3EF0D9A1ECE72C3
102
{ACAD_REACTORS
330
3EF0D9A1ECE72C2
102
}
330
3EF0D9A1ECE72C2
100
AcDbXrecord
340
3EF0D9A1ECE727A
  0
XRECORD
  5
3EF0D9A1ECE72C1
102
{ACAD_REACTORS
330
3EF0D9A1ECE72C0
102
}
330
3EF0D9A1ECE72C0
100
AcDbXrecord
340
3EF0D9A1ECE7277
  0
MLINESTYLE
  5
3EF0D9A1ECE727D
102
{ACAD_REACTORS
330
3EF0D9A1ECE7270
102
}
330
3EF0D9A1ECE7270
100
AcDbMlineStyle
  2
STANDARD
 70
     0
  3

 62
     0
 51
90.0
 52
90.0
 71
     2
 49
0.5
 62
   256
  6
BYLAYER
 49
-0.5
 62
   256
  6
BYLAYER
  0
ACDBPLACEHOLDER
  5
3EF0D9A1ECE7294
102
{ACAD_REACTORS
330
3EF0D9A1ECE7293
102
}
330
3EF0D9A1ECE7293
100
AcDbPlaceHolder
280
     0
  0
XRECORD
  5
3EF0D9A1ECE72AA
102
{ACAD_REACTORS
330
3EF0D9A1ECE72A0
102
}
330
3EF0D9A1ECE72A0
100
AcDbXrecord
 90
        0
  0
XRECORD
  5
3EF0D9A1ECE72AB
102
{ACAD_REACTORS
330
3EF0D9A1ECE72A0
102
}
330
3EF0D9A1ECE72A0
100
AcDbXrecord
  1
{121FE5D0-8DB4-11D6-88E6-0090279574E7}
  0
XRECORD
  5
3EF0D9A1ECE72A3
102
{ACAD_REACTORS
330
3EF0D9A1ECE72A0
102
}
330
3EF0D9A1ECE72A0
100
AcDbXrecord
  1

  0
XRECORD
  5
3EF0D9A1ECE72A9
102
{ACAD_REACTORS
330
3EF0D9A1ECE72A0
102
}
330
3EF0D9A1ECE72A0
100
AcDbXrecord
 90
        0
  0
XRECORD
  5
3EF0D9A1ECE72A5
102
{ACAD_REACTORS
330
3EF0D9A1ECE72A0
102
}
330
3EF0D9A1ECE72A0
100
AcDbXrecord
340
3EF0D9A1ECE7295
  0
XRECORD
  5
3EF0D9A1ECE72A8
102
{ACAD_REACTORS
330
3EF0D9A1ECE72A0
102
}
330
3EF0D9A1ECE72A0
100
AcDbXrecord
 90
    14877
  0
XRECORD
  5
3EF0D9A1ECE72A6
102
{ACAD_REACTORS
330
3EF0D9A1ECE72A0
102
}
330
3EF0D9A1ECE72A0
100
AcDbXrecord
340
3EF0D9A1ECE7296
  0
XRECORD
  5
3EF0D9A1ECE72A7
102
{ACAD_REACTORS
330
3EF0D9A1ECE72A0
102
}
330
3EF0D9A1ECE72A0
100
AcDbXrecord
340
3EF0D9A1ECE7293
  0
XRECORD
  5
3EF0D9A1ECE72AD
102
{ACAD_REACTORS
330
3EF0D9A1ECE72A0
102
}
330
3EF0D9A1ECE72A0
100
AcDbXrecord
 40
0.0
  0
XRECORD
  5
3EF0D9A1ECE72B0
102
{ACAD_REACTORS
330
3EF0D9A1ECE72A0
102
}
330
3EF0D9A1ECE72A0
100
AcDbXrecord
340
0
  0
XRECORD
  5
3EF0D9A1ECE72B6
102
{ACAD_REACTORS
330
3EF0D9A1ECE72A0
102
}
330
3EF0D9A1ECE72A0
100
AcDbXrecord
 10
0.0
 20
0.0
 30
0.0
  0
XRECORD
  5
3EF0D9A1ECE72B2
102
{ACAD_REACTORS
330
3EF0D9A1ECE72A0
102
}
330
3EF0D9A1ECE72A0
100
AcDbXrecord
 10
0.0
 20
0.0
 30
0.0
  0
XRECORD
  5
3EF0D9A1ECE72B5
102
{ACAD_REACTORS
330
3EF0D9A1ECE72A0
102
}
330
3EF0D9A1ECE72A0
100
AcDbXrecord
 10
0.0
 20
0.0
 30
0.0
  0
XRECORD
  5
3EF0D9A1ECE72B3
102
{ACAD_REACTORS
330
3EF0D9A1ECE72A0
102
}
330
3EF0D9A1ECE72A0
100
AcDbXrecord
 10
0.0
 20
0.0
 30
0.0
  0
XRECORD
  5
3EF0D9A1ECE72B4
102
{ACAD_REACTORS
330
3EF0D9A1ECE72A0
102
}
330
3EF0D9A1ECE72A0
100
AcDbXrecord
 10
0.0
 20
0.0
 30
0.0
  0
XRECORD
  5
3EF0D9A1ECE72B1
102
{ACAD_REACTORS
330
3EF0D9A1ECE72A0
102
}
330
3EF0D9A1ECE72A0
100
AcDbXrecord
 10
0.0
 20
0.0
 30
0.0
  0
XRECORD
  5
3EF0D9A1ECE72AE
102
{ACAD_REACTORS
330
3EF0D9A1ECE72A0
102
}
330
3EF0D9A1ECE72A0
100
AcDbXrecord
340
0
  0
XRECORD
  5
3EF0D9A1ECE72AF
102
{ACAD_REACTORS
330
3EF0D9A1ECE72A0
102
}
330
3EF0D9A1ECE72A0
100
AcDbXrecord
 70
     0
  0
XRECORD
  5
3EF0D9A1ECE72A4
102
{ACAD_REACTORS
330
3EF0D9A1ECE72A0
102
}
330
3EF0D9A1ECE72A0
100
AcDbXrecord
  1

  0
XRECORD
  5
3EF0D9A1ECE72A1
102
{ACAD_REACTORS
330
3EF0D9A1ECE72A0
102
}
330
3EF0D9A1ECE72A0
100
AcDbXrecord
 90
        1
  0
XRECORD
  5
3EF0D9A1ECE72A2
102
{ACAD_REACTORS
330
3EF0D9A1ECE72A0
102
}
330
3EF0D9A1ECE72A0
100
AcDbXrecord
 90
       70
  0
XRECORD
  5
3EF0D9A1ECE72B9
102
{ACAD_REACTORS
330
3EF0D9A1ECE72A0
102
}
330
3EF0D9A1ECE72A0
100
AcDbXrecord
340
0
  0
XRECORD
  5
3EF0D9A1ECE72BF
102
{ACAD_REACTORS
330
3EF0D9A1ECE72A0
102
}
330
3EF0D9A1ECE72A0
100
AcDbXrecord
 10
0.0
 20
0.0
 30
0.0
  0
XRECORD
  5
3EF0D9A1ECE72BB
102
{ACAD_REACTORS
330
3EF0D9A1ECE72A0
102
}
330
3EF0D9A1ECE72A0
100
AcDbXrecord
 10
0.0
 20
0.0
 30
0.0
  0
XRECORD
  5
3EF0D9A1ECE72BE
102
{ACAD_REACTORS
330
3EF0D9A1ECE72A0
102
}
330
3EF0D9A1ECE72A0
100
AcDbXrecord
 10
0.0
 20
0.0
 30
0.0
  0
XRECORD
  5
3EF0D9A1ECE72BC
102
{ACAD_REACTORS
330
3EF0D9A1ECE72A0
102
}
330
3EF0D9A1ECE72A0
100
AcDbXrecord
 10
0.0
 20
0.0
 30
0.0
  0
XRECORD
  5
3EF0D9A1ECE72BD
102
{ACAD_REACTORS
330
3EF0D9A1ECE72A0
102
}
330
3EF0D9A1ECE72A0
100
AcDbXrecord
 10
0.0
 20
0.0
 30
0.0
  0
XRECORD
  5
3EF0D9A1ECE72BA
102
{ACAD_REACTORS
330
3EF0D9A1ECE72A0
102
}
330
3EF0D9A1ECE72A0
100
AcDbXrecord
 10
0.0
 20
0.0
 30
0.0
  0
XRECORD
  5
3EF0D9A1ECE72B7
102
{ACAD_REACTORS
330
3EF0D9A1ECE72A0
102
}
330
3EF0D9A1ECE72A0
100
AcDbXrecord
340
0
  0
XRECORD
  5
3EF0D9A1ECE72B8
102
{ACAD_REACTORS
330
3EF0D9A1ECE72A0
102
}
330
3EF0D9A1ECE72A0
100
AcDbXrecord
 70
     0
  0
XRECORD
  5
3EF0D9A1ECE72AC
102
{ACAD_REACTORS
330
3EF0D9A1ECE72A0
102
}
330
3EF0D9A1ECE72A0
100
AcDbXrecord
  1
{121FE5D2-8DB4-11D6-88E6-0090279574E7}
  0
DICTIONARYVAR
  5
3EF0D9A1ECE729E
102
{ACAD_REACTORS
330
3EF0D9A1ECE729D
102
}
330
3EF0D9A1ECE729D
100
DictionaryVariables
280
     0
  1
1
  0
ENDSEC
  0
EOF
