  0
SECTION
  2
HEADER
  9
$ACADVER
  1
AC1014
  9
$ACADMAINTVER
 70
     9
  9
$DWGCODEPAGE
  3
ANSI_1252
  9
$INSBASE
 10
1.875
 20
0.9375
 30
0.0
  9
$EXTMIN
 10
-0.0711065792271433
 20
0.1982313959174185
 30
0.0
  9
$EXTMAX
 10
3.414112742519984
 20
1.94164213562373
 30
0.0
  9
$LIMMIN
 10
0.0
 20
0.0
  9
$LIMMAX
 10
18.0
 20
12.0
  9
$ORTHOMODE
 70
     1
  9
$REGENMODE
 70
     1
  9
$FILLMODE
 70
     1
  9
$QTEXTMODE
 70
     0
  9
$MIRRTEXT
 70
     0
  9
$DRAGMODE
 70
     2
  9
$LTSCALE
 40
1.0
  9
$OSMODE
 70
    39
  9
$ATTMODE
 70
     1
  9
$TEXTSIZE
 40
0.125
  9
$TRACEWID
 40
0.05
  9
$TEXTSTYLE
  7
ROMANS
  9
$CLAYER
  8
0
  9
$CELTYPE
  6
BYLAYER
  9
$CECOLOR
 62
   256
  9
$CELTSCALE
 40
1.0
  9
$DELOBJ
 70
     1
  9
$DISPSILH
 70
     1
  9
$DIMSCALE
 40
1.0
  9
$DIMASZ
 40
0.125
  9
$DIMEXO
 40
0.125
  9
$DIMDLI
 40
0.375
  9
$DIMRND
 40
0.0
  9
$DIMDLE
 40
0.0
  9
$DIMEXE
 40
0.125
  9
$DIMTP
 40
0.0
  9
$DIMTM
 40
0.0
  9
$DIMTXT
 40
0.125
  9
$DIMCEN
 40
-0.125
  9
$DIMTSZ
 40
0.0
  9
$DIMTOL
 70
     0
  9
$DIMLIM
 70
     0
  9
$DIMTIH
 70
     1
  9
$DIMTOH
 70
     1
  9
$DIMSE1
 70
     0
  9
$DIMSE2
 70
     0
  9
$DIMTAD
 70
     0
  9
$DIMZIN
 70
     4
  9
$DIMBLK
  1

  9
$DIMASO
 70
     1
  9
$DIMSHO
 70
     1
  9
$DIMPOST
  1

  9
$DIMAPOST
  1

  9
$DIMALT
 70
     0
  9
$DIMALTD
 70
     2
  9
$DIMALTF
 40
25.4
  9
$DIMLFAC
 40
1.0
  9
$DIMTOFL
 70
     0
  9
$DIMTVP
 40
0.0
  9
$DIMTIX
 70
     1
  9
$DIMSOXD
 70
     0
  9
$DIMSAH
 70
     0
  9
$DIMBLK1
  1

  9
$DIMBLK2
  1

  9
$DIMSTYLE
  2
STANDARD
  9
$DIMCLRD
 70
     0
  9
$DIMCLRE
 70
     0
  9
$DIMCLRT
 70
     0
  9
$DIMTFAC
 40
1.0
  9
$DIMGAP
 40
0.09
  9
$DIMJUST
 70
     0
  9
$DIMSD1
 70
     0
  9
$DIMSD2
 70
     0
  9
$DIMTOLJ
 70
     1
  9
$DIMTZIN
 70
     4
  9
$DIMALTZ
 70
     0
  9
$DIMALTTZ
 70
     0
  9
$DIMFIT
 70
     3
  9
$DIMUPT
 70
     0
  9
$DIMUNIT
 70
     2
  9
$DIMDEC
 70
     3
  9
$DIMTDEC
 70
     3
  9
$DIMALTU
 70
     2
  9
$DIMALTTD
 70
     2
  9
$DIMTXSTY
  7
ROMANS
  9
$DIMAUNIT
 70
     0
  9
$LUNITS
 70
     2
  9
$LUPREC
 70
     3
  9
$SKETCHINC
 40
0.1
  9
$FILLETRAD
 40
0.03125
  9
$AUNITS
 70
     0
  9
$AUPREC
 70
     0
  9
$MENU
  1
ACAD
  9
$ELEVATION
 40
0.0
  9
$PELEVATION
 40
0.0
  9
$THICKNESS
 40
0.0
  9
$LIMCHECK
 70
     0
  9
$BLIPMODE
 70
     0
  9
$CHAMFERA
 40
0.0
  9
$CHAMFERB
 40
0.0
  9
$CHAMFERC
 40
0.0
  9
$CHAMFERD
 40
0.0
  9
$SKPOLY
 70
     0
  9
$TDCREATE
 40
2448994.294726736
  9
$TDUPDATE
 40
2452458.295683472
  9
$TDINDWG
 40
0.0007654051
  9
$TDUSRTIMER
 40
0.0007654051
  9
$USRTIMER
 70
     1
  9
$ANGBASE
 50
0.0
  9
$ANGDIR
 70
     0
  9
$PDMODE
 70
     0
  9
$PDSIZE
 40
0.0
  9
$PLINEWID
 40
0.0
  9
$COORDS
 70
     2
  9
$SPLFRAME
 70
     0
  9
$SPLINETYPE
 70
     6
  9
$SPLINESEGS
 70
     8
  9
$ATTDIA
 70
     0
  9
$ATTREQ
 70
     1
  9
$HANDLING
 70
 22529
  9
$HANDSEED
  5
3EF0D9A1ECE6555
  9
$SURFTAB1
 70
     6
  9
$SURFTAB2
 70
     6
  9
$SURFTYPE
 70
     6
  9
$SURFU
 70
     6
  9
$SURFV
 70
     6
  9
$UCSNAME
  2

  9
$UCSORG
 10
0.0
 20
0.0
 30
0.0
  9
$UCSXDIR
 10
1.0
 20
0.0
 30
0.0
  9
$UCSYDIR
 10
0.0
 20
1.0
 30
0.0
  9
$PUCSNAME
  2

  9
$PUCSORG
 10
0.0
 20
0.0
 30
0.0
  9
$PUCSXDIR
 10
1.0
 20
0.0
 30
0.0
  9
$PUCSYDIR
 10
0.0
 20
1.0
 30
0.0
  9
$USERI1
 70
     0
  9
$USERI2
 70
     0
  9
$USERI3
 70
     0
  9
$USERI4
 70
     0
  9
$USERI5
 70
     0
  9
$USERR1
 40
0.0
  9
$USERR2
 40
0.0
  9
$USERR3
 40
0.0
  9
$USERR4
 40
0.0
  9
$USERR5
 40
0.0
  9
$WORLDVIEW
 70
     1
  9
$SHADEDGE
 70
     3
  9
$SHADEDIF
 70
    70
  9
$TILEMODE
 70
     1
  9
$MAXACTVP
 70
    16
  9
$PINSBASE
 10
0.9414377596123784
 20
50.00000000000001
 30
1.496951211750027
  9
$PLIMCHECK
 70
     0
  9
$PEXTMIN
 10
1.000000000000000E+20
 20
1.000000000000000E+20
 30
1.000000000000000E+20
  9
$PEXTMAX
 10
-1.000000000000000E+20
 20
-1.000000000000000E+20
 30
-1.000000000000000E+20
  9
$PLIMMIN
 10
0.0
 20
0.0
  9
$PLIMMAX
 10
12.0
 20
9.0
  9
$UNITMODE
 70
     0
  9
$VISRETAIN
 70
     0
  9
$PLINEGEN
 70
     1
  9
$PSLTSCALE
 70
     0
  9
$TREEDEPTH
 70
  3020
  9
$PICKSTYLE
 70
     1
  9
$CMLSTYLE
  2
STANDARD
  9
$CMLJUST
 70
     0
  9
$CMLSCALE
 40
1.0
  9
$PROXYGRAPHICS
 70
     1
  9
$MEASUREMENT
 70
     0
  0
ENDSEC
  0
SECTION
  2
CLASSES
  0
CLASS
  1
LWPOLYLINE
  2
AcDbPolyline
  3
AutoCAD 2000
 90
        0
280
     0
281
     1
  0
CLASS
  1
ACDBDICTIONARYWDFLT
  2
AcDbDictionaryWithDefault
  3
AutoCAD 2000
 90
        0
280
     0
281
     0
  0
CLASS
  1
ACDBPLACEHOLDER
  2
AcDbPlaceHolder
  3
AutoCAD 2000
 90
        0
280
     0
281
     0
  0
CLASS
  1
LAYOUT
  2
AcDbLayout
  3
AutoCAD 2000
 90
        0
280
     0
281
     0
  0
CLASS
  1
DICTIONARYVAR
  2
AcDbDictionaryVar
  3
AutoCAD 2000
 90
        0
280
     0
281
     0
  0
CLASS
  1
LONG_TRANSACTION
  2
AcDbLongTransaction
  3
AutoCAD 2000
 90
        0
280
     0
281
     0
  0
CLASS
  1
LWPOLYLINE
  2
AcDbPolyline
  3
AutoCAD 2000
 90
        0
280
     0
281
     1
  0
CLASS
  1
HATCH
  2
AcDbHatch
  3
AutoCAD 2000
 90
        0
280
     0
281
     1
  0
CLASS
  1
XRECORD
  2
AcDbXrecord
  3
AutoCAD 2000
 90
        0
280
     0
281
     0
  0
ENDSEC
  0
SECTION
  2
TABLES
  0
TABLE
  2
VPORT
  5
3EF0D9A1ECE64F6
330
0
100
AcDbSymbolTable
 70
     2
  0
VPORT
  5
3EF0D9A1ECE6530
330
3EF0D9A1ECE64F6
100
AcDbSymbolTableRecord
100
AcDbViewportTableRecord
  2
*ACTIVE
 70
     0
 10
0.0
 20
0.0
 11
1.0
 21
1.0
 12
4.647646056166047
 22
1.069885276106518
 13
0.0
 23
0.0
 14
0.015625
 24
0.015625
 15
0.0
 25
0.0
 16
0.0
 26
0.0
 36
1.0
 17
0.0
 27
0.0
 37
0.0
 40
2.282708306530691
 41
4.320930232558139
 42
50.0
 43
0.0
 44
0.0
 50
0.0
 51
0.0
 71
     0
 72
  2000
 73
     1
 74
     0
 75
     1
 76
     0
 77
     0
 78
     0
  0
ENDTAB
  0
TABLE
  2
LTYPE
  5
3EF0D9A1ECE64F3
330
0
100
AcDbSymbolTable
 70
     1
  0
LTYPE
  5
3EF0D9A1ECE6500
330
3EF0D9A1ECE64F3
100
AcDbSymbolTableRecord
100
AcDbLinetypeTableRecord
  2
BYBLOCK
 70
     0
  3

 72
    65
 73
     0
 40
0.0
  0
LTYPE
  5
3EF0D9A1ECE6501
330
3EF0D9A1ECE64F3
100
AcDbSymbolTableRecord
100
AcDbLinetypeTableRecord
  2
BYLAYER
 70
     0
  3

 72
    65
 73
     0
 40
0.0
  0
LTYPE
  5
3EF0D9A1ECE6502
330
3EF0D9A1ECE64F3
100
AcDbSymbolTableRecord
100
AcDbLinetypeTableRecord
  2
CONTINUOUS
 70
     0
  3
Solid line
 72
    65
 73
     0
 40
0.0
  0
ENDTAB
  0
TABLE
  2
LAYER
  5
3EF0D9A1ECE64F0
330
0
100
AcDbSymbolTable
 70
     2
  0
LAYER
  5
3EF0D9A1ECE64FD
330
3EF0D9A1ECE64F0
100
AcDbSymbolTableRecord
100
AcDbLayerTableRecord
  2
0
 70
     0
 62
     7
  6
CONTINUOUS
  0
LAYER
  5
3EF0D9A1ECE650D
330
3EF0D9A1ECE64F0
100
AcDbSymbolTableRecord
100
AcDbLayerTableRecord
  2
TEXT
 70
     0
 62
     3
  6
CONTINUOUS
  0
ENDTAB
  0
TABLE
  2
STYLE
  5
3EF0D9A1ECE64F1
330
0
100
AcDbSymbolTable
 70
     3
  0
STYLE
  5
3EF0D9A1ECE64FE
330
3EF0D9A1ECE64F1
100
AcDbSymbolTableRecord
100
AcDbTextStyleTableRecord
  2
STANDARD
 70
     0
 40
0.0
 41
1.0
 50
0.0
 71
     0
 42
0.3125
  3
txt
  4

  0
STYLE
  5
3EF0D9A1ECE650A
330
3EF0D9A1ECE64F1
100
AcDbSymbolTableRecord
100
AcDbTextStyleTableRecord
  2
ITALICC
 70
     0
 40
0.0
 41
1.0
 50
0.0
 71
     0
 42
0.125
  3
italicc
  4

  0
STYLE
  5
3EF0D9A1ECE651A
330
3EF0D9A1ECE64F1
100
AcDbSymbolTableRecord
100
AcDbTextStyleTableRecord
  2
ROMANS
 70
     0
 40
0.0
 41
1.0
 50
0.0
 71
     0
 42
0.125
  3
romans.shx
  4

  0
ENDTAB
  0
TABLE
  2
VIEW
  5
3EF0D9A1ECE64F4
330
0
100
AcDbSymbolTable
 70
     0
  0
ENDTAB
  0
TABLE
  2
UCS
  5
3EF0D9A1ECE64F5
330
0
100
AcDbSymbolTable
 70
     0
  0
ENDTAB
  0
TABLE
  2
APPID
  5
3EF0D9A1ECE64F7
330
0
100
AcDbSymbolTable
 70
     1
  0
APPID
  5
3EF0D9A1ECE64FF
330
3EF0D9A1ECE64F7
100
AcDbSymbolTableRecord
100
AcDbRegAppTableRecord
  2
ACAD
 70
     0
  0
ENDTAB
  0
TABLE
  2
DIMSTYLE
  5
3EF0D9A1ECE64F8
330
0
100
AcDbSymbolTable
 70
     1
  0
DIMSTYLE
105
3EF0D9A1ECE6512
330
3EF0D9A1ECE64F8
100
AcDbSymbolTableRecord
100
AcDbDimStyleTableRecord
  2
STANDARD
 70
     0
  3

  4

  5

  6

  7

 40
1.0
 41
0.125
 42
0.125
 43
0.375
 44
0.125
 45
0.0
 46
0.0
 47
0.0
 48
0.0
140
0.125
141
-0.125
142
0.0
143
25.4
144
1.0
145
0.0
146
1.0
147
0.09
 71
     0
 72
     0
 73
     1
 74
     1
 75
     0
 76
     0
 77
     0
 78
     4
170
     0
171
     2
172
     0
173
     0
174
     1
175
     0
176
     0
177
     0
178
     0
270
     2
271
     3
272
     3
273
     2
274
     2
340
3EF0D9A1ECE651A
275
     0
280
     0
281
     0
282
     0
283
     1
284
     4
285
     0
286
     0
287
     3
288
     0
  0
ENDTAB
  0
TABLE
  2
BLOCK_RECORD
  5
3EF0D9A1ECE64EF
330
0
100
AcDbSymbolTable
 70
     0
  0
BLOCK_RECORD
  5
3EF0D9A1ECE6506
102
{ACAD_XDICTIONARY
360
3EF0D9A1ECE6553
102
}
330
3EF0D9A1ECE64EF
100
AcDbSymbolTableRecord
100
AcDbBlockTableRecord
  2
*MODEL_SPACE
  0
BLOCK_RECORD
  5
3EF0D9A1ECE6503
102
{ACAD_XDICTIONARY
360
3EF0D9A1ECE6551
102
}
330
3EF0D9A1ECE64EF
100
AcDbSymbolTableRecord
100
AcDbBlockTableRecord
  2
*PAPER_SPACE
  0
ENDTAB
  0
ENDSEC
  0
SECTION
  2
BLOCKS
  0
BLOCK
  5
3EF0D9A1ECE6510
330
3EF0D9A1ECE6506
100
AcDbEntity
  8
0
100
AcDbBlockBegin
  2
*MODEL_SPACE
 70
     0
 10
0.0
 20
0.0
 30
0.0
  3
*MODEL_SPACE
  1

  0
ENDBLK
  5
3EF0D9A1ECE6511
330
3EF0D9A1ECE6506
100
AcDbEntity
  8
0
100
AcDbBlockEnd
  0
BLOCK
  5
3EF0D9A1ECE650E
330
3EF0D9A1ECE6503
100
AcDbEntity
 67
     1
  8
0
100
AcDbBlockBegin
  2
*PAPER_SPACE
 70
     0
 10
0.0
 20
0.0
 30
0.0
  3
*PAPER_SPACE
  1

  0
ENDBLK
  5
3EF0D9A1ECE650F
330
3EF0D9A1ECE6503
100
AcDbEntity
 67
     1
  8
0
100
AcDbBlockEnd
  0
ENDSEC
  0
SECTION
  2
ENTITIES
  0
LWPOLYLINE
  5
3EF0D9A1ECE5126
330
3EF0D9A1ECE6506
100
AcDbEntity
  8
0
100
AcDbPolyline
 90
       16
 70
     1
 43
0.0
 10
2.354999999999999
 20
1.9375
 10
1.395
 20
1.9375
 42
0.4142135623730951
 10
1.375
 20
1.9175
 10
1.375
 20
1.7075
 42
-0.4142135623730951
 10
1.354999999999999
 20
1.6875
 10
0.8949999999999999
 20
1.6875
 42
0.414213562373095
 10
0.875
 20
1.667499999999999
 10
0.875
 20
1.644999999999999
 42
0.4142135623730951
 10
0.8949999999999999
 20
1.625
 10
1.354999999999999
 20
1.625
 42
-0.4142135623730951
 10
1.375
 20
1.604999999999999
 10
1.375
 20
0.9574999999999999
 42
0.4142135623730951
 10
1.395
 20
0.9375
 10
2.354999999999999
 20
0.9375
 42
0.4142135623730951
 10
2.375
 20
0.9574999999999999
 10
2.375
 20
1.9175
 42
0.4142135623730951
  0
LWPOLYLINE
  5
3EF0D9A1ECE50E0
330
3EF0D9A1ECE6506
100
AcDbEntity
  8
0
100
AcDbPolyline
 90
       11
 70
     1
 43
0.0
 10
2.3125
 20
1.02
 10
2.3125
 20
1.855
 42
0.4142135623730951
 10
2.292499999999999
 20
1.875
 10
1.4575
 20
1.875
 42
0.4142135623730951
 10
1.4375
 20
1.855
 10
1.4375
 20
1.26
 10
1.4275
 20
1.25
 10
1.4375
 20
1.24
 10
1.4375
 20
1.02
 42
0.4142135623730951
 10
1.4575
 20
1.0
 10
2.292499999999999
 20
1.0
 42
0.4142135623730951
  0
TEXT
  5
3EF0D9A1ECE63B1
330
3EF0D9A1ECE6506
100
AcDbEntity
  8
TEXT
100
AcDbText
 10
0.9188988095238091
 20
0.65625
 30
0.0
 40
0.125
  1
PART #110114
  7
ITALICC
 72
     1
 11
1.671875
 21
0.65625
 31
0.0
100
AcDbText
  0
TEXT
  5
3EF0D9A1ECE63B2
330
3EF0D9A1ECE6506
100
AcDbEntity
  8
TEXT
100
AcDbText
 10
2.08518015825032
 20
0.2093273573276249
 30
0.0
 40
0.0522247191011236
  1
Phone  1-800-328-2495
 41
1.272321428571429
 72
     5
 11
3.414112742519984
 21
0.2093273573276249
 31
0.0
100
AcDbText
  0
TEXT
  5
3EF0D9A1ECE63B3
330
3EF0D9A1ECE6506
100
AcDbEntity
  8
TEXT
100
AcDbText
 10
2.08518015825032
 20
0.4891026382265014
 30
0.0
 40
0.0522247191011236
  1
Stylmark  Incorporated
 41
1.221428571428571
 72
     5
 11
3.414112742519984
 21
0.4891026382265014
 31
0.0
100
AcDbText
  0
TEXT
  5
3EF0D9A1ECE63B4
330
3EF0D9A1ECE6506
100
AcDbEntity
  8
TEXT
100
AcDbText
 10
2.08518015825032
 20
0.3958442112602092
 30
0.0
 40
0.0522247191011236
  1
6536 Main St. N.E. * P.O. Box 32008
 41
0.8388932496075355
 72
     5
 11
3.414112742519984
 21
0.3958442112602092
 31
0.0
100
AcDbText
  0
TEXT
  5
3EF0D9A1ECE63B5
330
3EF0D9A1ECE6506
100
AcDbEntity
  8
TEXT
100
AcDbText
 10
2.08518015825032
 20
0.302585784293917
 30
0.0
 40
0.0522247191011236
  1
Minneapolis, MN 55432-0008
 41
1.11444212721585
 72
     5
 11
3.414112742519984
 21
0.302585784293917
 31
0.0
100
AcDbText
  0
LWPOLYLINE
  5
3EF0D9A1ECE63B6
330
3EF0D9A1ECE6506
100
AcDbEntity
  8
TEXT
100
AcDbPolyline
 90
        3
 70
     0
 43
0.0006660908203125
 10
-0.070773533816987
 20
0.3229721199650597
 10
-0.070773533816987
 20
0.2097366805119321
 10
0.0424619056361353
 20
0.2097366805119321
  0
LWPOLYLINE
  5
3EF0D9A1ECE63BB
330
3EF0D9A1ECE6506
100
AcDbEntity
  8
TEXT
100
AcDbPolyline
 90
        3
 70
     0
 43
0.0006660908203125
 10
-0.0441299010044896
 20
0.3229721199650597
 10
-0.0441299010044896
 20
0.2363803133244331
 10
0.0424619056361353
 20
0.2363803133244331
  0
LWPOLYLINE
  5
3EF0D9A1ECE63C0
330
3EF0D9A1ECE6506
100
AcDbEntity
  8
TEXT
100
AcDbPolyline
 90
        2
 70
     0
 43
0.0001332181640625
 10
0.0024964564173873
 20
0.3329634822697449
 10
-0.070773533816987
 20
0.3229721199650597
  0
LWPOLYLINE
  5
3EF0D9A1ECE63C4
330
3EF0D9A1ECE6506
100
AcDbEntity
  8
TEXT
100
AcDbPolyline
 90
        2
 70
     0
 43
0.0001332181640625
 10
-0.0441299010044896
 20
0.3229721199650597
 10
0.0158182728236378
 20
0.3329634822697449
  0
LWPOLYLINE
  5
3EF0D9A1ECE63C8
330
3EF0D9A1ECE6506
100
AcDbEntity
  8
TEXT
100
AcDbPolyline
 90
        2
 70
     0
 43
0.0001332181640625
 10
-0.0441299010044896
 20
0.2363803133244331
 10
0.0158182728236378
 20
0.2963284871525587
  0
LWPOLYLINE
  5
3EF0D9A1ECE63CC
330
3EF0D9A1ECE6506
100
AcDbEntity
  8
TEXT
100
AcDbPolyline
 90
        3
 70
     0
 43
0.0006660908203125
 10
0.0424619056361353
 20
0.4761730086369354
 10
-0.070773533816987
 20
0.4761730086369354
 10
-0.070773533816987
 20
0.3629375691838077
  0
LWPOLYLINE
  5
3EF0D9A1ECE63D1
330
3EF0D9A1ECE6506
100
AcDbEntity
  8
TEXT
100
AcDbPolyline
 90
        3
 70
     0
 43
0.0006660908203125
 10
0.0424619056361353
 20
0.4495293758244343
 10
-0.0441299010044896
 20
0.4495293758244343
 10
-0.0441299010044896
 20
0.3629375691838077
  0
LWPOLYLINE
  5
3EF0D9A1ECE63D6
330
3EF0D9A1ECE6506
100
AcDbEntity
  8
TEXT
100
AcDbPolyline
 90
        2
 70
     0
 43
0.0001332181640625
 10
-0.0441299010044896
 20
0.4495293758244343
 10
0.015818272823636
 20
0.3895812019963087
  0
LWPOLYLINE
  5
3EF0D9A1ECE63DA
330
3EF0D9A1ECE6506
100
AcDbEntity
  8
TEXT
100
AcDbPolyline
 90
        2
 70
     0
 43
0.0001332181640625
 10
-0.0441299010044896
 20
0.3629375691838077
 10
0.015818272823636
 20
0.3529462068791189
  0
LWPOLYLINE
  5
3EF0D9A1ECE63DE
330
3EF0D9A1ECE6506
100
AcDbEntity
  8
TEXT
100
AcDbPolyline
 90
        2
 70
     0
 43
0.0001332181640625
 10
-0.070773533816987
 20
0.3629375691838077
 10
0.0024964564173873
 20
0.3529462068791189
  0
LWPOLYLINE
  5
3EF0D9A1ECE63E2
330
3EF0D9A1ECE6506
100
AcDbEntity
  8
TEXT
100
AcDbPolyline
 90
        2
 70
     0
 43
0.0006660908203125
 10
-0.0441299010044896
 20
0.3229721199650597
 10
-0.070773533816987
 20
0.3229721199650597
  0
LWPOLYLINE
  5
3EF0D9A1ECE63E6
330
3EF0D9A1ECE6506
100
AcDbEntity
  8
TEXT
100
AcDbPolyline
 90
        2
 70
     0
 43
0.0006660908203125
 10
-0.0441299010044896
 20
0.3629375691838077
 10
-0.070773533816987
 20
0.3629375691838077
  0
LINE
  5
3EF0D9A1ECE63EA
330
3EF0D9A1ECE6506
100
AcDbEntity
  8
TEXT
100
AcDbLine
 10
1.44441689530951
 20
0.4118963139801664
 30
0.0
 11
1.337210621922221
 21
0.4118963139801664
 31
0.0
  0
LINE
  5
3EF0D9A1ECE63EB
330
3EF0D9A1ECE6506
100
AcDbEntity
  8
TEXT
100
AcDbLine
 10
1.473447793653988
 20
0.4761730086369318
 30
0.0
 11
1.338615884436929
 21
0.4761730086369318
 31
0.0
  0
ARC
  5
3EF0D9A1ECE63EC
330
3EF0D9A1ECE6506
100
AcDbEntity
  8
TEXT
100
AcDbCircle
 10
1.397929980830246
 20
0.3069357593739155
 30
0.0
 40
0.0676855811441166
100
AcDbArc
 50
90.0
 51
153.7768192527749
  0
LWPOLYLINE
  5
3EF0D9A1ECE63ED
330
3EF0D9A1ECE6506
100
AcDbEntity
  8
TEXT
100
AcDbPolyline
 90
        2
 70
     0
 43
0.0
 10
1.336178126467411
 20
0.2531909205988589
 42
0.2901071551932823
 10
1.379254059335046
 20
0.2096999756484208
 42
5.328517124445801
  0
ARC
  5
3EF0D9A1ECE63F1
330
3EF0D9A1ECE6506
100
AcDbEntity
  8
TEXT
100
AcDbCircle
 10
0.692798603158761
 20
0.2694923669864706
 30
0.0
 40
0.0601160179737537
100
AcDbArc
 50
180.0000000000003
 51
264.0521544866073
  0
LINE
  5
3EF0D9A1ECE63F2
330
3EF0D9A1ECE6506
100
AcDbEntity
  8
TEXT
100
AcDbLine
 10
0.6963139587843088
 20
0.51056092623107
 30
0.0
 11
0.6362713539403018
 21
0.51056092623107
 31
0.0
  0
ARC
  5
3EF0D9A1ECE63F3
330
3EF0D9A1ECE6506
100
AcDbEntity
  8
TEXT
100
AcDbCircle
 10
0.4605396010417904
 20
0.39408554919043
 30
0.0
 40
0.0820874594465043
100
AcDbArc
 50
90.0
 51
270.0
  0
LWPOLYLINE
  5
3EF0D9A1ECE63F4
330
3EF0D9A1ECE6506
100
AcDbEntity
  8
TEXT
100
AcDbPolyline
 90
        2
 70
     0
 43
0.0001332181640625
 10
0.0524532679408258
 20
0.4029030184025558
 10
0.0424619056361353
 20
0.4761730086369354
  0
LWPOLYLINE
  5
3EF0D9A1ECE63F8
330
3EF0D9A1ECE6506
100
AcDbEntity
  8
TEXT
100
AcDbPolyline
 90
        2
 70
     0
 43
0.0001332181640625
 10
0.0424619056361353
 20
0.4495293758244343
 10
0.0524532679408258
 20
0.3895812019963087
  0
LWPOLYLINE
  5
3EF0D9A1ECE63FC
330
3EF0D9A1ECE6506
100
AcDbEntity
  8
TEXT
100
AcDbPolyline
 90
        3
 70
     0
 43
0.0006660908203125
 10
0.1956627943080127
 20
0.3629375691838077
 10
0.1956627943080127
 20
0.4761730086369354
 10
0.0824273548548869
 20
0.4761730086369354
  0
LWPOLYLINE
  5
3EF0D9A1ECE6401
330
3EF0D9A1ECE6506
100
AcDbEntity
  8
TEXT
100
AcDbPolyline
 90
        3
 70
     0
 43
0.0006660908203125
 10
0.1690191614955117
 20
0.3629375691838077
 10
0.1690191614955117
 20
0.4495293758244343
 10
0.0824273548548869
 20
0.4495293758244343
  0
LWPOLYLINE
  5
3EF0D9A1ECE6406
330
3EF0D9A1ECE6506
100
AcDbEntity
  8
TEXT
100
AcDbPolyline
 90
        2
 70
     0
 43
0.0001332181640625
 10
0.1690191614955117
 20
0.4495293758244343
 10
0.1090709876673879
 20
0.3895812019963087
  0
LWPOLYLINE
  5
3EF0D9A1ECE640A
330
3EF0D9A1ECE6506
100
AcDbEntity
  8
TEXT
100
AcDbPolyline
 90
        2
 70
     0
 43
0.0001332181640625
 10
0.0824273548548869
 20
0.4495293758244343
 10
0.0724359925501981
 20
0.3895812019963087
  0
LWPOLYLINE
  5
3EF0D9A1ECE640E
330
3EF0D9A1ECE6506
100
AcDbEntity
  8
TEXT
100
AcDbPolyline
 90
        2
 70
     0
 43
0.0001332181640625
 10
0.0824273548548869
 20
0.4761730086369354
 10
0.0724359925501981
 20
0.4029030184025558
  0
LWPOLYLINE
  5
3EF0D9A1ECE6412
330
3EF0D9A1ECE6506
100
AcDbEntity
  8
TEXT
100
AcDbPolyline
 90
        2
 70
     0
 43
0.0001332181640625
 10
0.1223928040736366
 20
0.3529462068791189
 10
0.1956627943080127
 20
0.3629375691838077
  0
LWPOLYLINE
  5
3EF0D9A1ECE6416
330
3EF0D9A1ECE6506
100
AcDbEntity
  8
TEXT
100
AcDbPolyline
 90
        2
 70
     0
 43
0.0001332181640625
 10
0.1690191614955117
 20
0.3629375691838077
 10
0.1090709876673879
 20
0.3529462068791189
  0
LWPOLYLINE
  5
3EF0D9A1ECE641A
330
3EF0D9A1ECE6506
100
AcDbEntity
  8
TEXT
100
AcDbPolyline
 90
        2
 70
     0
 43
0.0001332181640625
 10
0.1956627943080127
 20
0.3229721199650597
 10
0.1223928040736366
 20
0.3329634822697449
  0
LWPOLYLINE
  5
3EF0D9A1ECE641E
330
3EF0D9A1ECE6506
100
AcDbEntity
  8
TEXT
100
AcDbPolyline
 90
        2
 70
     0
 43
0.0001332181640625
 10
0.1690191614955117
 20
0.3229721199650597
 10
0.1090709876673879
 20
0.3329634822697449
  0
LWPOLYLINE
  5
3EF0D9A1ECE6422
330
3EF0D9A1ECE6506
100
AcDbEntity
  8
TEXT
100
AcDbPolyline
 90
        2
 70
     0
 43
0.0001332181640625
 10
0.1690191614955117
 20
0.2363803133244331
 10
0.1090709876673879
 20
0.2963284871525587
  0
LWPOLYLINE
  5
3EF0D9A1ECE6426
330
3EF0D9A1ECE6506
100
AcDbEntity
  8
TEXT
100
AcDbPolyline
 90
        3
 70
     0
 43
0.0006660908203125
 10
0.0824273548548869
 20
0.2363803133244331
 10
0.1690191614955117
 20
0.2363803133244331
 10
0.1690191614955117
 20
0.3229721199650597
  0
LWPOLYLINE
  5
3EF0D9A1ECE642B
330
3EF0D9A1ECE6506
100
AcDbEntity
  8
TEXT
100
AcDbPolyline
 90
        3
 70
     0
 43
0.0006660908203125
 10
0.0824273548548869
 20
0.2097366805119321
 10
0.1956627943080127
 20
0.2097366805119321
 10
0.1956627943080127
 20
0.3229721199650597
  0
LWPOLYLINE
  5
3EF0D9A1ECE6430
330
3EF0D9A1ECE6506
100
AcDbEntity
  8
TEXT
100
AcDbPolyline
 90
        5
 70
     0
 43
0.0001332181640625
 10
0.0524532679408258
 20
0.2830066707463081
 10
0.0524532679408258
 20
0.2963284871525587
 10
0.0158182728236378
 20
0.2963284871525587
 10
0.0158182728236378
 20
0.3329634822697449
 10
0.0024964564173873
 20
0.3329634822697449
  0
LWPOLYLINE
  5
3EF0D9A1ECE6437
330
3EF0D9A1ECE6506
100
AcDbEntity
  8
TEXT
100
AcDbPolyline
 90
        2
 70
     0
 43
0.0006660908203125
 10
0.0424619056361353
 20
0.2363803133244331
 10
0.0424619056361353
 20
0.2097366805119321
  0
LWPOLYLINE
  5
3EF0D9A1ECE643B
330
3EF0D9A1ECE6506
100
AcDbEntity
  8
TEXT
100
AcDbPolyline
 90
        2
 70
     0
 43
0.0001332181640625
 10
0.0424619056361353
 20
0.2363803133244331
 10
0.0524532679408258
 20
0.2963284871525587
  0
LWPOLYLINE
  5
3EF0D9A1ECE643F
330
3EF0D9A1ECE6506
100
AcDbEntity
  8
TEXT
100
AcDbPolyline
 90
        2
 70
     0
 43
0.0001332181640625
 10
0.0424619056361353
 20
0.2097366805119321
 10
0.0524532679408258
 20
0.2830066707463081
  0
LWPOLYLINE
  5
3EF0D9A1ECE6443
330
3EF0D9A1ECE6506
100
AcDbEntity
  8
TEXT
100
AcDbPolyline
 90
        5
 70
     0
 43
0.0001332181640625
 10
0.0024964564173873
 20
0.3529462068791189
 10
0.015818272823636
 20
0.3529462068791189
 10
0.015818272823636
 20
0.3895812019963087
 10
0.0524532679408258
 20
0.3895812019963087
 10
0.0524532679408258
 20
0.4029030184025558
  0
LWPOLYLINE
  5
3EF0D9A1ECE644A
330
3EF0D9A1ECE6506
100
AcDbEntity
  8
TEXT
100
AcDbPolyline
 90
        5
 70
     0
 43
0.0001332181640625
 10
0.0724359925501981
 20
0.4029030184025558
 10
0.0724359925501981
 20
0.3895812019963087
 10
0.1090709876673879
 20
0.3895812019963087
 10
0.1090709876673879
 20
0.3529462068791189
 10
0.1223928040736366
 20
0.3529462068791189
  0
LWPOLYLINE
  5
3EF0D9A1ECE6451
330
3EF0D9A1ECE6506
100
AcDbEntity
  8
TEXT
100
AcDbPolyline
 90
        2
 70
     0
 43
0.0001332181640625
 10
0.0824273548548869
 20
0.2363803133244331
 10
0.0724359925501981
 20
0.2963284871525587
  0
LWPOLYLINE
  5
3EF0D9A1ECE6455
330
3EF0D9A1ECE6506
100
AcDbEntity
  8
TEXT
100
AcDbPolyline
 90
        2
 70
     0
 43
0.0001332181640625
 10
0.0724359925501981
 20
0.2830066707463081
 10
0.0824273548548869
 20
0.2097366805119321
  0
LWPOLYLINE
  5
3EF0D9A1ECE6459
330
3EF0D9A1ECE6506
100
AcDbEntity
  8
TEXT
100
AcDbPolyline
 90
        2
 70
     0
 43
0.0006660908203125
 10
0.0824273548548869
 20
0.2363803133244331
 10
0.0824273548548869
 20
0.2097366805119321
  0
LWPOLYLINE
  5
3EF0D9A1ECE645D
330
3EF0D9A1ECE6506
100
AcDbEntity
  8
TEXT
100
AcDbPolyline
 90
        5
 70
     0
 43
0.0001332181640625
 10
0.1223928040736366
 20
0.3329634822697449
 10
0.1090709876673879
 20
0.3329634822697449
 10
0.1090709876673879
 20
0.2963284871525587
 10
0.0724359925501981
 20
0.2963284871525587
 10
0.0724359925501981
 20
0.2830066707463081
  0
LWPOLYLINE
  5
3EF0D9A1ECE6464
330
3EF0D9A1ECE6506
100
AcDbEntity
  8
TEXT
100
AcDbPolyline
 90
        2
 70
     0
 43
0.0006660908203125
 10
0.1690191614955117
 20
0.3629375691838077
 10
0.1956627943080127
 20
0.3629375691838077
  0
LWPOLYLINE
  5
3EF0D9A1ECE6468
330
3EF0D9A1ECE6506
100
AcDbEntity
  8
TEXT
100
AcDbPolyline
 90
        2
 70
     0
 43
0.0006660908203125
 10
0.1690191614955117
 20
0.3229721199650597
 10
0.1956627943080127
 20
0.3229721199650597
  0
LINE
  5
3EF0D9A1ECE646C
330
3EF0D9A1ECE6506
100
AcDbEntity
  8
TEXT
100
AcDbLine
 10
0.4657769311560376
 20
0.4118963139801664
 30
0.0
 11
0.6326825851850089
 21
0.4118963139801664
 31
0.0
  0
LINE
  5
3EF0D9A1ECE646D
330
3EF0D9A1ECE6506
100
AcDbEntity
  8
TEXT
100
AcDbLine
 10
0.5313770674003387
 20
0.3760915923695385
 30
0.0
 11
0.4657769311560376
 21
0.3760915923695385
 31
0.0
  0
LINE
  5
3EF0D9A1ECE646E
330
3EF0D9A1ECE6506
100
AcDbEntity
  8
TEXT
100
AcDbLine
 10
0.3784521415952859
 20
0.2096999756484208
 30
0.0
 11
0.5313770674003387
 21
0.2096999756484208
 31
0.0
  0
LINE
  5
3EF0D9A1ECE646F
330
3EF0D9A1ECE6506
100
AcDbEntity
  8
TEXT
100
AcDbLine
 10
0.5363174413066183
 20
0.2780569819818601
 30
0.0
 11
0.3784521415952842
 21
0.2780569819818601
 31
0.0
  0
LINE
  5
3EF0D9A1ECE6470
330
3EF0D9A1ECE6506
100
AcDbEntity
  8
TEXT
100
AcDbLine
 10
0.4605396010417895
 20
0.3119980897439247
 30
0.0
 11
0.5363174413066183
 21
0.3119980897439247
 31
0.0
  0
ARC
  5
3EF0D9A1ECE6471
330
3EF0D9A1ECE6506
100
AcDbEntity
  8
TEXT
100
AcDbCircle
 10
0.4657769311560385
 20
0.3939939531748542
 30
0.0
 40
0.017902360805315
100
AcDbArc
 50
90.0
 51
270.0
  0
LINE
  5
3EF0D9A1ECE6472
330
3EF0D9A1ECE6506
100
AcDbEntity
  8
TEXT
100
AcDbLine
 10
0.3784521415952842
 20
0.2780569819818601
 30
0.0
 11
0.3784521415952859
 21
0.2096999756484208
 31
0.0
  0
LINE
  5
3EF0D9A1ECE6473
330
3EF0D9A1ECE6506
100
AcDbEntity
  8
TEXT
100
AcDbLine
 10
0.6326825851850089
 20
0.4118963139801664
 30
0.0
 11
0.6326825851850089
 21
0.2694923669864706
 31
0.0
  0
ARC
  5
3EF0D9A1ECE6474
330
3EF0D9A1ECE6506
100
AcDbEntity
  8
TEXT
100
AcDbCircle
 10
0.5313770674003396
 20
0.2928957840089779
 30
0.0
 40
0.0831958083605586
100
AcDbArc
 50
270.0
 51
90.0
  0
ARC
  5
3EF0D9A1ECE6475
330
3EF0D9A1ECE6506
100
AcDbEntity
  8
TEXT
100
AcDbCircle
 10
0.5363174413066192
 20
0.2950275358628942
 30
0.0
 40
0.0169705538810321
100
AcDbArc
 50
270.0
 51
90.0
  0
LWPOLYLINE
  5
3EF0D9A1ECE6476
330
3EF0D9A1ECE6506
100
AcDbEntity
  8
TEXT
100
AcDbPolyline
 90
        2
 70
     0
 43
0.0006660908203125
 10
0.0424619056361353
 20
0.4495293758244343
 10
0.0424619056361353
 20
0.4761730086369354
  0
LWPOLYLINE
  5
3EF0D9A1ECE647A
330
3EF0D9A1ECE6506
100
AcDbEntity
  8
TEXT
100
AcDbPolyline
 90
        2
 70
     0
 43
0.0006660908203125
 10
0.0824273548548869
 20
0.4495293758244343
 10
0.0824273548548869
 20
0.4761730086369354
  0
LINE
  5
3EF0D9A1ECE647E
330
3EF0D9A1ECE6506
100
AcDbEntity
  8
TEXT
100
AcDbLine
 10
0.6362713539403018
 20
0.4761730086369318
 30
0.0
 11
0.4605396010417895
 21
0.4761730086369318
 31
0.0
  0
LINE
  5
3EF0D9A1ECE647F
330
3EF0D9A1ECE6506
100
AcDbEntity
  8
TEXT
100
AcDbLine
 10
0.6362713539403018
 20
0.51056092623107
 30
0.0
 11
0.6362713539403018
 21
0.4761730086369318
 31
0.0
  0
LINE
  5
3EF0D9A1ECE6480
330
3EF0D9A1ECE6506
100
AcDbEntity
  8
TEXT
100
AcDbLine
 10
0.826743245960154
 20
0.3753010125238112
 30
0.0
 11
0.7681129249282162
 21
0.4761730086369318
 31
0.0
  0
LINE
  5
3EF0D9A1ECE6481
330
3EF0D9A1ECE6506
100
AcDbEntity
  8
TEXT
100
AcDbLine
 10
0.8854918087660195
 20
0.4761730086369318
 30
0.0
 11
0.826743245960154
 21
0.3753010125238112
 31
0.0
  0
LINE
  5
3EF0D9A1ECE6482
330
3EF0D9A1ECE6506
100
AcDbEntity
  8
TEXT
100
AcDbLine
 10
0.9824224341257608
 20
0.29208781375142
 30
0.0
 11
0.9824224341257608
 21
0.5441844863757424
 31
0.0
  0
LINE
  5
3EF0D9A1ECE6483
330
3EF0D9A1ECE6506
100
AcDbEntity
  8
TEXT
100
AcDbLine
 10
1.01473428826342
 20
0.4761730086369318
 30
0.0
 11
1.01473428826342
 21
0.2753088019045236
 31
0.0
  0
LINE
  5
3EF0D9A1ECE6484
330
3EF0D9A1ECE6506
100
AcDbEntity
  8
TEXT
100
AcDbLine
 10
1.01473428826342
 20
0.2753088019045236
 30
0.0
 11
0.9977406513788196
 21
0.2753088019045236
 31
0.0
  0
LINE
  5
3EF0D9A1ECE6485
330
3EF0D9A1ECE6506
100
AcDbEntity
  8
TEXT
100
AcDbLine
 10
0.9835620076219555
 20
0.2096999756484208
 30
0.0
 11
1.08156534132139
 21
0.2096999756484208
 31
0.0
  0
LINE
  5
3EF0D9A1ECE6486
330
3EF0D9A1ECE6506
100
AcDbEntity
  8
TEXT
100
AcDbLine
 10
0.8171430089631996
 20
0.2296584817534337
 30
0.0
 11
0.9144427150566443
 21
0.3940086926887019
 31
0.0
  0
ARC
  5
3EF0D9A1ECE6487
330
3EF0D9A1ECE6506
100
AcDbEntity
  8
TEXT
100
AcDbCircle
 10
0.7830994490509858
 20
0.2492476979221165
 30
0.0
 40
0.0392772371940762
100
AcDbArc
 50
270.1604552698595
 51
330.0831797321295
  0
LINE
  5
3EF0D9A1ECE6488
330
3EF0D9A1ECE6506
100
AcDbEntity
  8
TEXT
100
AcDbLine
 10
0.6865691926651146
 20
0.2096999756484208
 30
0.0
 11
0.783209443740109
 21
0.2099706147467031
 31
0.0
  0
LWPOLYLINE
  5
3EF0D9A1ECE6489
330
3EF0D9A1ECE6506
100
AcDbEntity
  8
TEXT
100
AcDbPolyline
 90
        6
 70
     1
 43
0.0
 10
0.7290929962402642
 20
0.4118963139801664
 10
0.698776402020056
 20
0.4118963139801664
 10
0.698776402020056
 20
0.288785315925272
 42
0.407328721240804
 10
0.7103200531815324
 20
0.2769664012488859
 10
0.7709417522262632
 20
0.2769664012488859
 10
0.7884070926335811
 20
0.3097786302923651
  0
LINE
  5
3EF0D9A1ECE6491
330
3EF0D9A1ECE6506
100
AcDbEntity
  8
TEXT
100
AcDbLine
 10
0.9144427150566443
 20
0.3940086926887019
 30
0.0
 11
0.9144427150566443
 21
0.2612513178633455
 31
0.0
  0
ARC
  5
3EF0D9A1ECE6492
330
3EF0D9A1ECE6506
100
AcDbEntity
  8
TEXT
100
AcDbCircle
 10
0.9977406513788178
 20
0.290690608147949
 30
0.0
 40
0.0153818062434269
100
AcDbArc
 50
174.7883570302258
 51
270.0
  0
LWPOLYLINE
  5
3EF0D9A1ECE6493
330
3EF0D9A1ECE6506
100
AcDbEntity
  8
TEXT
100
AcDbPolyline
 90
        2
 70
     0
 43
0.0
 10
0.9144427150566425
 20
0.2612513178633491
 42
0.3318488747599744
 10
0.9835620076219555
 20
0.2096999756484208
 42
-6.868794160588311
  0
LINE
  5
3EF0D9A1ECE6497
330
3EF0D9A1ECE6506
100
AcDbEntity
  8
TEXT
100
AcDbLine
 10
1.138954410310651
 20
0.2096999756484208
 30
0.0
 11
1.206012457092491
 21
0.2096999756484208
 31
0.0
  0
LINE
  5
3EF0D9A1ECE6498
330
3EF0D9A1ECE6506
100
AcDbEntity
  8
TEXT
100
AcDbLine
 10
1.138954410310651
 20
0.4043425248140565
 30
0.0
 11
1.138954410310651
 21
0.2096999756484208
 31
0.0
  0
LINE
  5
3EF0D9A1ECE6499
330
3EF0D9A1ECE6506
100
AcDbEntity
  8
TEXT
100
AcDbLine
 10
1.08156534132139
 20
0.4118963139801664
 30
0.0
 11
1.131400621144537
 21
0.4118963139801664
 31
0.0
  0
LINE
  5
3EF0D9A1ECE649A
330
3EF0D9A1ECE6506
100
AcDbEntity
  8
TEXT
100
AcDbLine
 10
1.08156534132139
 20
0.2096999756484208
 30
0.0
 11
1.08156534132139
 21
0.4118963139801664
 31
0.0
  0
LWPOLYLINE
  5
3EF0D9A1ECE649B
330
3EF0D9A1ECE6506
100
AcDbEntity
  8
TEXT
100
AcDbPolyline
 90
        2
 70
     0
 43
0.0
 10
1.131400621144535
 20
0.4118963139801664
 42
-0.4142135623731017
 10
1.138954410310649
 20
0.4043425248140565
 42
-0.9999999999999998
  0
LINE
  5
3EF0D9A1ECE649F
330
3EF0D9A1ECE6506
100
AcDbEntity
  8
TEXT
100
AcDbLine
 10
1.337210621922221
 20
0.4118963139801664
 30
0.0
 11
1.337210621922221
 21
0.3368439079059597
 31
0.0
  0
LINE
  5
3EF0D9A1ECE64A0
330
3EF0D9A1ECE6506
100
AcDbEntity
  8
TEXT
100
AcDbLine
 10
1.206012457092491
 20
0.4118963139801664
 30
0.0
 11
1.260146054013441
 21
0.4118963139801664
 31
0.0
  0
LINE
  5
3EF0D9A1ECE64A1
330
3EF0D9A1ECE6506
100
AcDbEntity
  8
TEXT
100
AcDbLine
 10
1.206012457092491
 20
0.2096999756484208
 30
0.0
 11
1.206012457092491
 21
0.4118963139801664
 31
0.0
  0
LWPOLYLINE
  5
3EF0D9A1ECE64A2
330
3EF0D9A1ECE6506
100
AcDbEntity
  8
TEXT
100
AcDbPolyline
 90
        2
 70
     0
 43
0.0
 10
1.260146054013439
 20
0.4118963139801664
 42
-0.4142135623731017
 10
1.267699843179553
 20
0.4043425248140565
 42
-0.9999999999999998
  0
LWPOLYLINE
  5
3EF0D9A1ECE64A6
330
3EF0D9A1ECE6506
100
AcDbEntity
  8
TEXT
100
AcDbPolyline
 90
        4
 70
     0
 43
0.0
 10
1.267699843179553
 20
0.4043425248140565
 10
1.267699843179553
 20
0.2096999756484208
 10
1.336178126467411
 20
0.2096999756484208
 10
1.336178126467411
 20
0.2531909205988589
 42
-1.714843617202739
  0
LINE
  5
3EF0D9A1ECE64AC
330
3EF0D9A1ECE6506
100
AcDbEntity
  8
TEXT
100
AcDbLine
 10
0.6963139587843088
 20
0.4761730086369318
 30
0.0
 11
0.6963139587843088
 21
0.51056092623107
 31
0.0
  0
LINE
  5
3EF0D9A1ECE64AD
330
3EF0D9A1ECE6506
100
AcDbEntity
  8
TEXT
100
AcDbLine
 10
0.7681129249282162
 20
0.4761730086369318
 30
0.0
 11
0.6963139587843088
 21
0.4761730086369318
 31
0.0
  0
LINE
  5
3EF0D9A1ECE64AE
330
3EF0D9A1ECE6506
100
AcDbEntity
  8
TEXT
100
AcDbLine
 10
0.9156137215593957
 20
0.4761730086369318
 30
0.0
 11
0.8854918087660195
 21
0.4761730086369318
 31
0.0
  0
LINE
  5
3EF0D9A1ECE64AF
330
3EF0D9A1ECE6506
100
AcDbEntity
  8
TEXT
100
AcDbLine
 10
0.9156137215593957
 20
0.5441844863757424
 30
0.0
 11
0.9156137215593957
 21
0.4761730086369318
 31
0.0
  0
LINE
  5
3EF0D9A1ECE64B0
330
3EF0D9A1ECE6506
100
AcDbEntity
  8
TEXT
100
AcDbLine
 10
0.9824224341257608
 20
0.5441844863757424
 30
0.0
 11
0.9156137215593957
 21
0.5441844863757424
 31
0.0
  0
LWPOLYLINE
  5
3EF0D9A1ECE64B1
330
3EF0D9A1ECE6506
100
AcDbEntity
  8
TEXT
100
AcDbPolyline
 90
        3
 70
     0
 43
0.0
 10
1.302834193723763
 20
0.4761730086369354
 10
1.184534034907718
 20
0.4761730086369354
 10
1.184534034907718
 20
0.4490055118760395
 42
-1.960274751411753
  0
LINE
  5
3EF0D9A1ECE64B6
330
3EF0D9A1ECE6506
100
AcDbEntity
  8
TEXT
100
AcDbLine
 10
1.148752344194557
 20
0.4761730086369318
 30
0.0
 11
1.01473428826342
 21
0.4761730086369318
 31
0.0
  0
LWPOLYLINE
  5
3EF0D9A1ECE64B7
330
3EF0D9A1ECE6506
100
AcDbEntity
  8
TEXT
100
AcDbPolyline
 90
        2
 70
     0
 43
0.0
 10
1.148752344194557
 20
0.4761730086369354
 42
-0.3328679258950098
 10
1.184534034907718
 20
0.4490055118760395
 42
6.772930709997214
  0
LINE
  5
3EF0D9A1ECE64BB
330
3EF0D9A1ECE6506
100
AcDbEntity
  8
TEXT
100
AcDbLine
 10
1.338615884436929
 20
0.4761730086369318
 30
0.0
 11
1.338615884436929
 21
0.447850462867288
 31
0.0
  0
LWPOLYLINE
  5
3EF0D9A1ECE64BC
330
3EF0D9A1ECE6506
100
AcDbEntity
  8
TEXT
100
AcDbPolyline
 90
        2
 70
     0
 43
0.0
 10
1.302834193723763
 20
0.4761730086369354
 42
-0.3277054968067132
 10
1.338615884436928
 20
0.4478504628672915
 42
6.667889725900311
  0
LINE
  5
3EF0D9A1ECE64C0
330
3EF0D9A1ECE6506
100
AcDbEntity
  8
TEXT
100
AcDbLine
 10
1.552407732529029
 20
0.3709610300835044
 30
0.0
 11
1.508656961347128
 21
0.4532113060796497
 31
0.0
  0
LINE
  5
3EF0D9A1ECE64C1
330
3EF0D9A1ECE6506
100
AcDbEntity
  8
TEXT
100
AcDbLine
 10
1.552407732529029
 20
0.4761730086369318
 30
0.0
 11
1.552407732529029
 21
0.3709610300835044
 31
0.0
  0
LINE
  5
3EF0D9A1ECE64C2
330
3EF0D9A1ECE6506
100
AcDbEntity
  8
TEXT
100
AcDbLine
 10
1.780091471467398
 20
0.4003076822253937
 30
0.0
 11
1.780091471467398
 21
0.5416372144045325
 31
0.0
  0
LINE
  5
3EF0D9A1ECE64C3
330
3EF0D9A1ECE6506
100
AcDbEntity
  8
TEXT
100
AcDbLine
 10
1.827189630023383
 20
0.4761730086369318
 30
0.0
 11
1.780091471467398
 21
0.4003076822253937
 31
0.0
  0
LINE
  5
3EF0D9A1ECE64C4
330
3EF0D9A1ECE6506
100
AcDbEntity
  8
TEXT
100
AcDbLine
 10
1.837624346787306
 20
0.3662797656959582
 30
0.0
 11
1.902181462753011
 21
0.4761730086369318
 31
0.0
  0
LINE
  5
3EF0D9A1ECE64C5
330
3EF0D9A1ECE6506
100
AcDbEntity
  8
TEXT
100
AcDbLine
 10
1.716256480244625
 20
0.2096999756484208
 30
0.0
 11
1.780634664563246
 21
0.2096999756484208
 31
0.0
  0
LWPOLYLINE
  5
3EF0D9A1ECE64C6
330
3EF0D9A1ECE6506
100
AcDbEntity
  8
TEXT
100
AcDbPolyline
 90
        2
 70
     0
 43
0.0
 10
1.556347409834067
 20
0.2531909205988589
 42
-0.2901071551932486
 10
1.513271476966423
 20
0.2096999756484208
 42
-5.328517124445184
  0
ARC
  5
3EF0D9A1ECE64CA
330
3EF0D9A1ECE6506
100
AcDbEntity
  8
TEXT
100
AcDbCircle
 10
1.444416895309508
 20
0.3835369389801691
 30
0.0
 40
0.028359375
100
AcDbArc
 50
25.78218179591245
 51
90.0
  0
LINE
  5
3EF0D9A1ECE64CB
330
3EF0D9A1ECE6506
100
AcDbEntity
  8
TEXT
100
AcDbLine
 10
1.480217970613631
 20
0.3746213405180341
 30
0.0
 11
1.469953210200067
 21
0.3958718800907284
 31
0.0
  0
LINE
  5
3EF0D9A1ECE64CC
330
3EF0D9A1ECE6506
100
AcDbEntity
  8
TEXT
100
AcDbLine
 10
1.397929980830248
 20
0.3746213405180341
 30
0.0
 11
1.480217970613631
 21
0.3746213405180341
 31
0.0
  0
LWPOLYLINE
  5
3EF0D9A1ECE64CD
330
3EF0D9A1ECE6506
100
AcDbEntity
  8
TEXT
100
AcDbPolyline
 90
        4
 70
     1
 43
0.0
 10
1.49314901189653
 20
0.312663953632446
 10
1.404488693236672
 20
0.312663953632446
 42
0.9999999999999998
 10
1.404488693236672
 20
0.2702654131285853
 10
1.49314901189653
 20
0.2702654131285853
 42
1.0
  0
LWPOLYLINE
  5
3EF0D9A1ECE64D3
330
3EF0D9A1ECE6506
100
AcDbEntity
  8
TEXT
100
AcDbPolyline
 90
        2
 70
     0
 43
0.0
 10
1.379254059335046
 20
0.2096999756484208
 10
1.513271476966423
 20
0.2096999756484208
 42
0.9999999999999998
  0
LINE
  5
3EF0D9A1ECE64D7
330
3EF0D9A1ECE6506
100
AcDbEntity
  8
TEXT
100
AcDbLine
 10
1.639608498952062
 20
0.4118963139801664
 30
0.0
 11
1.71625648024462
 21
0.4118963139801664
 31
0.0
  0
LINE
  5
3EF0D9A1ECE64D8
330
3EF0D9A1ECE6506
100
AcDbEntity
  8
TEXT
100
AcDbLine
 10
1.71625648024462
 20
0.4118963139801664
 30
0.0
 11
1.716256480244625
 21
0.2096999756484208
 31
0.0
  0
ARC
  5
3EF0D9A1ECE64D9
330
3EF0D9A1ECE6506
100
AcDbEntity
  8
TEXT
100
AcDbCircle
 10
1.63960849895206
 20
0.3869904386975036
 30
0.0
 40
0.0249058752826653
100
AcDbArc
 50
89.99971217465335
 51
179.9999999999985
  0
LINE
  5
3EF0D9A1ECE64DA
330
3EF0D9A1ECE6506
100
AcDbEntity
  8
TEXT
100
AcDbLine
 10
1.614702623669403
 20
0.2096999756484208
 30
0.0
 11
1.614702623669398
 21
0.3869904810798892
 31
0.0
  0
LWPOLYLINE
  5
3EF0D9A1ECE64DB
330
3EF0D9A1ECE6506
100
AcDbEntity
  8
TEXT
100
AcDbPolyline
 90
        2
 70
     0
 43
0.0
 10
1.556347409834067
 20
0.2096999756484208
 10
1.614702623669401
 20
0.2096999756484208
  0
LWPOLYLINE
  5
3EF0D9A1ECE64DF
330
3EF0D9A1ECE6506
100
AcDbEntity
  8
TEXT
100
AcDbPolyline
 90
        2
 70
     0
 43
0.0
 10
1.556347409834067
 20
0.2531909205988589
 10
1.556347409834067
 20
0.2096999756484208
  0
LINE
  5
3EF0D9A1ECE64E3
330
3EF0D9A1ECE6506
100
AcDbEntity
  8
TEXT
100
AcDbLine
 10
1.933116570150916
 20
0.2096999756484208
 30
0.0
 11
1.837624346787306
 21
0.3662797656959582
 31
0.0
  0
LINE
  5
3EF0D9A1ECE64E4
330
3EF0D9A1ECE6506
100
AcDbEntity
  8
TEXT
100
AcDbLine
 10
1.85653819777471
 20
0.2096999756484208
 30
0.0
 11
1.933116570150916
 21
0.2096999756484208
 31
0.0
  0
LINE
  5
3EF0D9A1ECE64E5
330
3EF0D9A1ECE6506
100
AcDbEntity
  8
TEXT
100
AcDbLine
 10
1.780634664563246
 20
0.341279544124601
 30
0.0
 11
1.85653819777471
 21
0.2096999756484208
 31
0.0
  0
LINE
  5
3EF0D9A1ECE64E6
330
3EF0D9A1ECE6506
100
AcDbEntity
  8
TEXT
100
AcDbLine
 10
1.780634664563246
 20
0.2096999756484208
 30
0.0
 11
1.780634664563246
 21
0.341279544124601
 31
0.0
  0
LINE
  5
3EF0D9A1ECE64E7
330
3EF0D9A1ECE6506
100
AcDbEntity
  8
TEXT
100
AcDbLine
 10
1.780091471467398
 20
0.5416372144045325
 30
0.0
 11
1.711776592918125
 21
0.5416372144045325
 31
0.0
  0
ARC
  5
3EF0D9A1ECE64E8
330
3EF0D9A1ECE6506
100
AcDbEntity
  8
TEXT
100
AcDbCircle
 10
1.471420853876919
 20
0.4345894415160294
 30
0.0
 40
0.0416329381542859
100
AcDbArc
 50
26.56974201007528
 51
87.20939649401342
  0
LINE
  5
3EF0D9A1ECE64E9
330
3EF0D9A1ECE6506
100
AcDbEntity
  8
TEXT
100
AcDbLine
 10
1.61630463882853
 20
0.4761730086369318
 30
0.0
 11
1.552407732529029
 21
0.4761730086369318
 31
0.0
  0
LINE
  5
3EF0D9A1ECE64EA
330
3EF0D9A1ECE6506
100
AcDbEntity
  8
TEXT
100
AcDbLine
 10
1.61630463882853
 20
0.4486253587760572
 30
0.0
 11
1.61630463882853
 21
0.4761730086369318
 31
0.0
  0
ARC
  5
3EF0D9A1ECE64EB
330
3EF0D9A1ECE6506
100
AcDbEntity
  8
TEXT
100
AcDbCircle
 10
1.647497455891638
 20
0.444927281354667
 30
0.0
 40
0.0314112657011332
100
AcDbArc
 50
95.88484768694724
 51
173.2388340632136
  0
LINE
  5
3EF0D9A1ECE64EC
330
3EF0D9A1ECE6506
100
AcDbEntity
  8
TEXT
100
AcDbLine
 10
1.71177659291812
 20
0.4761730086369318
 30
0.0
 11
1.644276875268603
 21
0.4761730086369318
 31
0.0
  0
LINE
  5
3EF0D9A1ECE64ED
330
3EF0D9A1ECE6506
100
AcDbEntity
  8
TEXT
100
AcDbLine
 10
1.711776592918125
 20
0.5416372144045325
 30
0.0
 11
1.71177659291812
 21
0.4761730086369318
 31
0.0
  0
LINE
  5
3EF0D9A1ECE64EE
330
3EF0D9A1ECE6506
100
AcDbEntity
  8
TEXT
100
AcDbLine
 10
1.902181462753011
 20
0.4761730086369318
 30
0.0
 11
1.827189630023385
 21
0.4761730086369318
 31
0.0
  0
ENDSEC
  0
SECTION
  2
OBJECTS
  0
DICTIONARY
  5
3EF0D9A1ECE64FA
330
0
100
AcDbDictionary
  3
ACAD_GROUP
350
3EF0D9A1ECE64FB
  3
ACAD_LAYOUT
350
3EF0D9A1ECE6526
  3
ACAD_MLINESTYLE
350
3EF0D9A1ECE64FC
  3
ACAD_PLOTSETTINGS
350
3EF0D9A1ECE6527
  3
ACAD_PLOTSTYLENAME
350
3EF0D9A1ECE6524
  3
ACDBHEADERROUNDTRIPXREC
350
3EF0D9A1ECE6531
  3
ACDBVARIABLEDICTIONARY
350
3EF0D9A1ECE652E
  0
DICTIONARY
  5
3EF0D9A1ECE6553
330
3EF0D9A1ECE6506
100
AcDbDictionary
280
     1
  3
ACAD_LAYOUTSELFREF
360
3EF0D9A1ECE6554
  0
DICTIONARY
  5
3EF0D9A1ECE6551
330
3EF0D9A1ECE6503
100
AcDbDictionary
280
     1
  3
ACAD_LAYOUTSELFREF
360
3EF0D9A1ECE6552
  0
DICTIONARY
  5
3EF0D9A1ECE64FB
102
{ACAD_REACTORS
330
3EF0D9A1ECE64FA
102
}
330
3EF0D9A1ECE64FA
100
AcDbDictionary
  0
DICTIONARY
  5
3EF0D9A1ECE6526
102
{ACAD_REACTORS
330
3EF0D9A1ECE64FA
102
}
330
3EF0D9A1ECE64FA
100
AcDbDictionary
  0
DICTIONARY
  5
3EF0D9A1ECE64FC
102
{ACAD_REACTORS
330
3EF0D9A1ECE64FA
102
}
330
3EF0D9A1ECE64FA
100
AcDbDictionary
  3
STANDARD
350
3EF0D9A1ECE6509
  0
DICTIONARY
  5
3EF0D9A1ECE6527
102
{ACAD_REACTORS
330
3EF0D9A1ECE64FA
102
}
330
3EF0D9A1ECE64FA
100
AcDbDictionary
  0
ACDBDICTIONARYWDFLT
  5
3EF0D9A1ECE6524
102
{ACAD_REACTORS
330
3EF0D9A1ECE64FA
102
}
330
3EF0D9A1ECE64FA
100
AcDbDictionary
281
     1
  3
Normal
350
3EF0D9A1ECE6525
100
AcDbDictionaryWithDefault
340
3EF0D9A1ECE6525
  0
DICTIONARY
  5
3EF0D9A1ECE6531
102
{ACAD_REACTORS
330
3EF0D9A1ECE64FA
102
}
330
3EF0D9A1ECE64FA
100
AcDbDictionary
  3
CEPSNTYPE
350
3EF0D9A1ECE653B
  3
FINGERPRINTGUID
350
3EF0D9A1ECE653C
  3
HYPERLINKBASE
350
3EF0D9A1ECE6534
  3
INSUNITS
350
3EF0D9A1ECE653A
  3
LAYOUTDICT
350
3EF0D9A1ECE6536
  3
LWETCUNION
350
3EF0D9A1ECE6539
  3
PLOTSETDICT
350
3EF0D9A1ECE6537
  3
PLOTSTYLNAMDICT
350
3EF0D9A1ECE6538
  3
PSVPSCALE
350
3EF0D9A1ECE653E
  3
PUCSBASE
350
3EF0D9A1ECE6541
  3
PUCSORGBACK
350
3EF0D9A1ECE6547
  3
PUCSORGBOTTOM
350
3EF0D9A1ECE6543
  3
PUCSORGFRONT
350
3EF0D9A1ECE6546
  3
PUCSORGLEFT
350
3EF0D9A1ECE6544
  3
PUCSORGRIGHT
350
3EF0D9A1ECE6545
  3
PUCSORGTOP
350
3EF0D9A1ECE6542
  3
PUCSORTHOREF
350
3EF0D9A1ECE653F
  3
PUCSORTHOVIEW
350
3EF0D9A1ECE6540
  3
STYLESHEET
350
3EF0D9A1ECE6535
  3
TSTACKALIGN
350
3EF0D9A1ECE6532
  3
TSTACKSIZE
350
3EF0D9A1ECE6533
  3
UCSBASE
350
3EF0D9A1ECE654A
  3
UCSORGBACK
350
3EF0D9A1ECE6550
  3
UCSORGBOTTOM
350
3EF0D9A1ECE654C
  3
UCSORGFRONT
350
3EF0D9A1ECE654F
  3
UCSORGLEFT
350
3EF0D9A1ECE654D
  3
UCSORGRIGHT
350
3EF0D9A1ECE654E
  3
UCSORGTOP
350
3EF0D9A1ECE654B
  3
UCSORTHOREF
350
3EF0D9A1ECE6548
  3
UCSORTHOVIEW
350
3EF0D9A1ECE6549
  3
VERSIONGUID
350
3EF0D9A1ECE653D
  0
DICTIONARY
  5
3EF0D9A1ECE652E
102
{ACAD_REACTORS
330
3EF0D9A1ECE64FA
102
}
330
3EF0D9A1ECE64FA
100
AcDbDictionary
  3
DIMASSOC
350
3EF0D9A1ECE652F
  0
XRECORD
  5
3EF0D9A1ECE6554
102
{ACAD_REACTORS
330
3EF0D9A1ECE6553
102
}
330
3EF0D9A1ECE6553
100
AcDbXrecord
340
3EF0D9A1ECE6506
  0
XRECORD
  5
3EF0D9A1ECE6552
102
{ACAD_REACTORS
330
3EF0D9A1ECE6551
102
}
330
3EF0D9A1ECE6551
100
AcDbXrecord
340
3EF0D9A1ECE6503
  0
MLINESTYLE
  5
3EF0D9A1ECE6509
102
{ACAD_REACTORS
330
3EF0D9A1ECE64FC
102
}
330
3EF0D9A1ECE64FC
100
AcDbMlineStyle
  2
STANDARD
 70
     0
  3

 62
     0
 51
90.0
 52
90.0
 71
     2
 49
0.5
 62
   256
  6
BYLAYER
 49
-0.5
 62
   256
  6
BYLAYER
  0
ACDBPLACEHOLDER
  5
3EF0D9A1ECE6525
102
{ACAD_REACTORS
330
3EF0D9A1ECE6524
102
}
330
3EF0D9A1ECE6524
100
AcDbPlaceHolder
280
     0
  0
XRECORD
  5
3EF0D9A1ECE653B
102
{ACAD_REACTORS
330
3EF0D9A1ECE6531
102
}
330
3EF0D9A1ECE6531
100
AcDbXrecord
 90
        0
  0
XRECORD
  5
3EF0D9A1ECE653C
102
{ACAD_REACTORS
330
3EF0D9A1ECE6531
102
}
330
3EF0D9A1ECE6531
100
AcDbXrecord
  1
{095FBCF0-8DB4-11D6-88E6-0090279574E7}
  0
XRECORD
  5
3EF0D9A1ECE6534
102
{ACAD_REACTORS
330
3EF0D9A1ECE6531
102
}
330
3EF0D9A1ECE6531
100
AcDbXrecord
  1

  0
XRECORD
  5
3EF0D9A1ECE653A
102
{ACAD_REACTORS
330
3EF0D9A1ECE6531
102
}
330
3EF0D9A1ECE6531
100
AcDbXrecord
 90
        0
  0
XRECORD
  5
3EF0D9A1ECE6536
102
{ACAD_REACTORS
330
3EF0D9A1ECE6531
102
}
330
3EF0D9A1ECE6531
100
AcDbXrecord
340
3EF0D9A1ECE6526
  0
XRECORD
  5
3EF0D9A1ECE6539
102
{ACAD_REACTORS
330
3EF0D9A1ECE6531
102
}
330
3EF0D9A1ECE6531
100
AcDbXrecord
 90
    14877
  0
XRECORD
  5
3EF0D9A1ECE6537
102
{ACAD_REACTORS
330
3EF0D9A1ECE6531
102
}
330
3EF0D9A1ECE6531
100
AcDbXrecord
340
3EF0D9A1ECE6527
  0
XRECORD
  5
3EF0D9A1ECE6538
102
{ACAD_REACTORS
330
3EF0D9A1ECE6531
102
}
330
3EF0D9A1ECE6531
100
AcDbXrecord
340
3EF0D9A1ECE6524
  0
XRECORD
  5
3EF0D9A1ECE653E
102
{ACAD_REACTORS
330
3EF0D9A1ECE6531
102
}
330
3EF0D9A1ECE6531
100
AcDbXrecord
 40
0.0
  0
XRECORD
  5
3EF0D9A1ECE6541
102
{ACAD_REACTORS
330
3EF0D9A1ECE6531
102
}
330
3EF0D9A1ECE6531
100
AcDbXrecord
340
0
  0
XRECORD
  5
3EF0D9A1ECE6547
102
{ACAD_REACTORS
330
3EF0D9A1ECE6531
102
}
330
3EF0D9A1ECE6531
100
AcDbXrecord
 10
0.0
 20
0.0
 30
0.0
  0
XRECORD
  5
3EF0D9A1ECE6543
102
{ACAD_REACTORS
330
3EF0D9A1ECE6531
102
}
330
3EF0D9A1ECE6531
100
AcDbXrecord
 10
0.0
 20
0.0
 30
0.0
  0
XRECORD
  5
3EF0D9A1ECE6546
102
{ACAD_REACTORS
330
3EF0D9A1ECE6531
102
}
330
3EF0D9A1ECE6531
100
AcDbXrecord
 10
0.0
 20
0.0
 30
0.0
  0
XRECORD
  5
3EF0D9A1ECE6544
102
{ACAD_REACTORS
330
3EF0D9A1ECE6531
102
}
330
3EF0D9A1ECE6531
100
AcDbXrecord
 10
0.0
 20
0.0
 30
0.0
  0
XRECORD
  5
3EF0D9A1ECE6545
102
{ACAD_REACTORS
330
3EF0D9A1ECE6531
102
}
330
3EF0D9A1ECE6531
100
AcDbXrecord
 10
0.0
 20
0.0
 30
0.0
  0
XRECORD
  5
3EF0D9A1ECE6542
102
{ACAD_REACTORS
330
3EF0D9A1ECE6531
102
}
330
3EF0D9A1ECE6531
100
AcDbXrecord
 10
0.0
 20
0.0
 30
0.0
  0
XRECORD
  5
3EF0D9A1ECE653F
102
{ACAD_REACTORS
330
3EF0D9A1ECE6531
102
}
330
3EF0D9A1ECE6531
100
AcDbXrecord
340
0
  0
XRECORD
  5
3EF0D9A1ECE6540
102
{ACAD_REACTORS
330
3EF0D9A1ECE6531
102
}
330
3EF0D9A1ECE6531
100
AcDbXrecord
 70
     0
  0
XRECORD
  5
3EF0D9A1ECE6535
102
{ACAD_REACTORS
330
3EF0D9A1ECE6531
102
}
330
3EF0D9A1ECE6531
100
AcDbXrecord
  1

  0
XRECORD
  5
3EF0D9A1ECE6532
102
{ACAD_REACTORS
330
3EF0D9A1ECE6531
102
}
330
3EF0D9A1ECE6531
100
AcDbXrecord
 90
        1
  0
XRECORD
  5
3EF0D9A1ECE6533
102
{ACAD_REACTORS
330
3EF0D9A1ECE6531
102
}
330
3EF0D9A1ECE6531
100
AcDbXrecord
 90
       70
  0
XRECORD
  5
3EF0D9A1ECE654A
102
{ACAD_REACTORS
330
3EF0D9A1ECE6531
102
}
330
3EF0D9A1ECE6531
100
AcDbXrecord
340
0
  0
XRECORD
  5
3EF0D9A1ECE6550
102
{ACAD_REACTORS
330
3EF0D9A1ECE6531
102
}
330
3EF0D9A1ECE6531
100
AcDbXrecord
 10
0.0
 20
0.0
 30
0.0
  0
XRECORD
  5
3EF0D9A1ECE654C
102
{ACAD_REACTORS
330
3EF0D9A1ECE6531
102
}
330
3EF0D9A1ECE6531
100
AcDbXrecord
 10
0.0
 20
0.0
 30
0.0
  0
XRECORD
  5
3EF0D9A1ECE654F
102
{ACAD_REACTORS
330
3EF0D9A1ECE6531
102
}
330
3EF0D9A1ECE6531
100
AcDbXrecord
 10
0.0
 20
0.0
 30
0.0
  0
XRECORD
  5
3EF0D9A1ECE654D
102
{ACAD_REACTORS
330
3EF0D9A1ECE6531
102
}
330
3EF0D9A1ECE6531
100
AcDbXrecord
 10
0.0
 20
0.0
 30
0.0
  0
XRECORD
  5
3EF0D9A1ECE654E
102
{ACAD_REACTORS
330
3EF0D9A1ECE6531
102
}
330
3EF0D9A1ECE6531
100
AcDbXrecord
 10
0.0
 20
0.0
 30
0.0
  0
XRECORD
  5
3EF0D9A1ECE654B
102
{ACAD_REACTORS
330
3EF0D9A1ECE6531
102
}
330
3EF0D9A1ECE6531
100
AcDbXrecord
 10
0.0
 20
0.0
 30
0.0
  0
XRECORD
  5
3EF0D9A1ECE6548
102
{ACAD_REACTORS
330
3EF0D9A1ECE6531
102
}
330
3EF0D9A1ECE6531
100
AcDbXrecord
340
0
  0
XRECORD
  5
3EF0D9A1ECE6549
102
{ACAD_REACTORS
330
3EF0D9A1ECE6531
102
}
330
3EF0D9A1ECE6531
100
AcDbXrecord
 70
     0
  0
XRECORD
  5
3EF0D9A1ECE653D
102
{ACAD_REACTORS
330
3EF0D9A1ECE6531
102
}
330
3EF0D9A1ECE6531
100
AcDbXrecord
  1
{095FBCF2-8DB4-11D6-88E6-0090279574E7}
  0
DICTIONARYVAR
  5
3EF0D9A1ECE652F
102
{ACAD_REACTORS
330
3EF0D9A1ECE652E
102
}
330
3EF0D9A1ECE652E
100
DictionaryVariables
280
     0
  1
1
  0
ENDSEC
  0
EOF
