  0
SECTION
  2
HEADER
  9
$ACADVER
  1
AC1014
  9
$ACADMAINTVER
 70
     9
  9
$DWGCODEPAGE
  3
ANSI_1252
  9
$INSBASE
 10
1.734375
 20
0.9375
 30
0.0
  9
$EXTMIN
 10
-0.0086065792271433
 20
0.1982313959174185
 30
0.0
  9
$EXTMAX
 10
3.476612742519984
 20
1.94164213562373
 30
0.0
  9
$LIMMIN
 10
0.0
 20
0.0
  9
$LIMMAX
 10
18.0
 20
12.0
  9
$ORTHOMODE
 70
     1
  9
$REGENMODE
 70
     1
  9
$FILLMODE
 70
     1
  9
$QTEXTMODE
 70
     0
  9
$MIRRTEXT
 70
     0
  9
$DRAGMODE
 70
     2
  9
$LTSCALE
 40
1.0
  9
$OSMODE
 70
    39
  9
$ATTMODE
 70
     1
  9
$TEXTSIZE
 40
0.125
  9
$TRACEWID
 40
0.05
  9
$TEXTSTYLE
  7
ROMANS
  9
$CLAYER
  8
0
  9
$CELTYPE
  6
BYLAYER
  9
$CECOLOR
 62
   256
  9
$CELTSCALE
 40
1.0
  9
$DELOBJ
 70
     1
  9
$DISPSILH
 70
     1
  9
$DIMSCALE
 40
1.0
  9
$DIMASZ
 40
0.125
  9
$DIMEXO
 40
0.125
  9
$DIMDLI
 40
0.375
  9
$DIMRND
 40
0.0
  9
$DIMDLE
 40
0.0
  9
$DIMEXE
 40
0.125
  9
$DIMTP
 40
0.0
  9
$DIMTM
 40
0.0
  9
$DIMTXT
 40
0.125
  9
$DIMCEN
 40
-0.125
  9
$DIMTSZ
 40
0.0
  9
$DIMTOL
 70
     0
  9
$DIMLIM
 70
     0
  9
$DIMTIH
 70
     1
  9
$DIMTOH
 70
     1
  9
$DIMSE1
 70
     0
  9
$DIMSE2
 70
     0
  9
$DIMTAD
 70
     0
  9
$DIMZIN
 70
     4
  9
$DIMBLK
  1

  9
$DIMASO
 70
     1
  9
$DIMSHO
 70
     1
  9
$DIMPOST
  1

  9
$DIMAPOST
  1

  9
$DIMALT
 70
     0
  9
$DIMALTD
 70
     2
  9
$DIMALTF
 40
25.4
  9
$DIMLFAC
 40
1.0
  9
$DIMTOFL
 70
     0
  9
$DIMTVP
 40
0.0
  9
$DIMTIX
 70
     1
  9
$DIMSOXD
 70
     0
  9
$DIMSAH
 70
     0
  9
$DIMBLK1
  1

  9
$DIMBLK2
  1

  9
$DIMSTYLE
  2
STANDARD
  9
$DIMCLRD
 70
     0
  9
$DIMCLRE
 70
     0
  9
$DIMCLRT
 70
     0
  9
$DIMTFAC
 40
1.0
  9
$DIMGAP
 40
0.09
  9
$DIMJUST
 70
     0
  9
$DIMSD1
 70
     0
  9
$DIMSD2
 70
     0
  9
$DIMTOLJ
 70
     1
  9
$DIMTZIN
 70
     4
  9
$DIMALTZ
 70
     0
  9
$DIMALTTZ
 70
     0
  9
$DIMFIT
 70
     3
  9
$DIMUPT
 70
     0
  9
$DIMUNIT
 70
     2
  9
$DIMDEC
 70
     3
  9
$DIMTDEC
 70
     3
  9
$DIMALTU
 70
     2
  9
$DIMALTTD
 70
     2
  9
$DIMTXSTY
  7
ROMANS
  9
$DIMAUNIT
 70
     0
  9
$LUNITS
 70
     2
  9
$LUPREC
 70
     3
  9
$SKETCHINC
 40
0.1
  9
$FILLETRAD
 40
0.03125
  9
$AUNITS
 70
     0
  9
$AUPREC
 70
     0
  9
$MENU
  1
ACAD
  9
$ELEVATION
 40
0.0
  9
$PELEVATION
 40
0.0
  9
$THICKNESS
 40
0.0
  9
$LIMCHECK
 70
     0
  9
$BLIPMODE
 70
     0
  9
$CHAMFERA
 40
0.0
  9
$CHAMFERB
 40
0.0
  9
$CHAMFERC
 40
0.0
  9
$CHAMFERD
 40
0.0
  9
$SKPOLY
 70
     0
  9
$TDCREATE
 40
2448994.293513078
  9
$TDUPDATE
 40
2452458.295605243
  9
$TDINDWG
 40
0.0006064352
  9
$TDUSRTIMER
 40
0.0006064352
  9
$USRTIMER
 70
     1
  9
$ANGBASE
 50
0.0
  9
$ANGDIR
 70
     0
  9
$PDMODE
 70
     0
  9
$PDSIZE
 40
0.0
  9
$PLINEWID
 40
0.0
  9
$COORDS
 70
     2
  9
$SPLFRAME
 70
     0
  9
$SPLINETYPE
 70
     6
  9
$SPLINESEGS
 70
     8
  9
$ATTDIA
 70
     0
  9
$ATTREQ
 70
     1
  9
$HANDLING
 70
 22529
  9
$HANDSEED
  5
3EF0D9A1ECE614A
  9
$SURFTAB1
 70
     6
  9
$SURFTAB2
 70
     6
  9
$SURFTYPE
 70
     6
  9
$SURFU
 70
     6
  9
$SURFV
 70
     6
  9
$UCSNAME
  2

  9
$UCSORG
 10
0.0
 20
0.0
 30
0.0
  9
$UCSXDIR
 10
1.0
 20
0.0
 30
0.0
  9
$UCSYDIR
 10
0.0
 20
1.0
 30
0.0
  9
$PUCSNAME
  2

  9
$PUCSORG
 10
0.0
 20
0.0
 30
0.0
  9
$PUCSXDIR
 10
1.0
 20
0.0
 30
0.0
  9
$PUCSYDIR
 10
0.0
 20
1.0
 30
0.0
  9
$USERI1
 70
     0
  9
$USERI2
 70
     0
  9
$USERI3
 70
     0
  9
$USERI4
 70
     0
  9
$USERI5
 70
     0
  9
$USERR1
 40
0.0
  9
$USERR2
 40
0.0
  9
$USERR3
 40
0.0
  9
$USERR4
 40
0.0
  9
$USERR5
 40
0.0
  9
$WORLDVIEW
 70
     1
  9
$SHADEDGE
 70
     3
  9
$SHADEDIF
 70
    70
  9
$TILEMODE
 70
     1
  9
$MAXACTVP
 70
    16
  9
$PINSBASE
 10
0.9292508768600942
 20
50.00000000000001
 30
1.996951226322273
  9
$PLIMCHECK
 70
     0
  9
$PEXTMIN
 10
1.000000000000000E+20
 20
1.000000000000000E+20
 30
1.000000000000000E+20
  9
$PEXTMAX
 10
-1.000000000000000E+20
 20
-1.000000000000000E+20
 30
-1.000000000000000E+20
  9
$PLIMMIN
 10
0.0
 20
0.0
  9
$PLIMMAX
 10
12.0
 20
9.0
  9
$UNITMODE
 70
     0
  9
$VISRETAIN
 70
     0
  9
$PLINEGEN
 70
     1
  9
$PSLTSCALE
 70
     0
  9
$TREEDEPTH
 70
  3020
  9
$PICKSTYLE
 70
     1
  9
$CMLSTYLE
  2
STANDARD
  9
$CMLJUST
 70
     0
  9
$CMLSCALE
 40
1.0
  9
$PROXYGRAPHICS
 70
     1
  9
$MEASUREMENT
 70
     0
  0
ENDSEC
  0
SECTION
  2
CLASSES
  0
CLASS
  1
LWPOLYLINE
  2
AcDbPolyline
  3
AutoCAD 2000
 90
        0
280
     0
281
     1
  0
CLASS
  1
ACDBDICTIONARYWDFLT
  2
AcDbDictionaryWithDefault
  3
AutoCAD 2000
 90
        0
280
     0
281
     0
  0
CLASS
  1
ACDBPLACEHOLDER
  2
AcDbPlaceHolder
  3
AutoCAD 2000
 90
        0
280
     0
281
     0
  0
CLASS
  1
LAYOUT
  2
AcDbLayout
  3
AutoCAD 2000
 90
        0
280
     0
281
     0
  0
CLASS
  1
DICTIONARYVAR
  2
AcDbDictionaryVar
  3
AutoCAD 2000
 90
        0
280
     0
281
     0
  0
CLASS
  1
LONG_TRANSACTION
  2
AcDbLongTransaction
  3
AutoCAD 2000
 90
        0
280
     0
281
     0
  0
CLASS
  1
LWPOLYLINE
  2
AcDbPolyline
  3
AutoCAD 2000
 90
        0
280
     0
281
     1
  0
CLASS
  1
HATCH
  2
AcDbHatch
  3
AutoCAD 2000
 90
        0
280
     0
281
     1
  0
CLASS
  1
XRECORD
  2
AcDbXrecord
  3
AutoCAD 2000
 90
        0
280
     0
281
     0
  0
ENDSEC
  0
SECTION
  2
TABLES
  0
TABLE
  2
VPORT
  5
3EF0D9A1ECE60F1
330
0
100
AcDbSymbolTable
 70
     2
  0
VPORT
  5
3EF0D9A1ECE6125
330
3EF0D9A1ECE60F1
100
AcDbSymbolTableRecord
100
AcDbViewportTableRecord
  2
*ACTIVE
 70
     0
 10
0.0
 20
0.0
 11
1.0
 21
1.0
 12
4.710970033643526
 22
1.069885276106518
 13
0.0
 23
0.0
 14
0.015625
 24
0.015625
 15
0.0
 25
0.0
 16
0.0
 26
0.0
 36
1.0
 17
0.0
 27
0.0
 37
0.0
 40
2.282839183772193
 41
4.320930232558139
 42
50.0
 43
0.0
 44
0.0
 50
0.0
 51
0.0
 71
     0
 72
  2000
 73
     1
 74
     0
 75
     1
 76
     0
 77
     0
 78
     0
  0
ENDTAB
  0
TABLE
  2
LTYPE
  5
3EF0D9A1ECE60EE
330
0
100
AcDbSymbolTable
 70
     1
  0
LTYPE
  5
3EF0D9A1ECE60FB
330
3EF0D9A1ECE60EE
100
AcDbSymbolTableRecord
100
AcDbLinetypeTableRecord
  2
BYBLOCK
 70
     0
  3

 72
    65
 73
     0
 40
0.0
  0
LTYPE
  5
3EF0D9A1ECE60FC
330
3EF0D9A1ECE60EE
100
AcDbSymbolTableRecord
100
AcDbLinetypeTableRecord
  2
BYLAYER
 70
     0
  3

 72
    65
 73
     0
 40
0.0
  0
LTYPE
  5
3EF0D9A1ECE60FD
330
3EF0D9A1ECE60EE
100
AcDbSymbolTableRecord
100
AcDbLinetypeTableRecord
  2
CONTINUOUS
 70
     0
  3
Solid line
 72
    65
 73
     0
 40
0.0
  0
ENDTAB
  0
TABLE
  2
LAYER
  5
3EF0D9A1ECE60EB
330
0
100
AcDbSymbolTable
 70
     2
  0
LAYER
  5
3EF0D9A1ECE60F8
330
3EF0D9A1ECE60EB
100
AcDbSymbolTableRecord
100
AcDbLayerTableRecord
  2
0
 70
     0
 62
     7
  6
CONTINUOUS
  0
LAYER
  5
3EF0D9A1ECE6108
330
3EF0D9A1ECE60EB
100
AcDbSymbolTableRecord
100
AcDbLayerTableRecord
  2
TEXT
 70
     0
 62
     3
  6
CONTINUOUS
  0
ENDTAB
  0
TABLE
  2
STYLE
  5
3EF0D9A1ECE60EC
330
0
100
AcDbSymbolTable
 70
     3
  0
STYLE
  5
3EF0D9A1ECE60F9
330
3EF0D9A1ECE60EC
100
AcDbSymbolTableRecord
100
AcDbTextStyleTableRecord
  2
STANDARD
 70
     0
 40
0.0
 41
1.0
 50
0.0
 71
     0
 42
0.3125
  3
txt
  4

  0
STYLE
  5
3EF0D9A1ECE6105
330
3EF0D9A1ECE60EC
100
AcDbSymbolTableRecord
100
AcDbTextStyleTableRecord
  2
ITALICC
 70
     0
 40
0.0
 41
1.0
 50
0.0
 71
     0
 42
0.125
  3
italicc
  4

  0
STYLE
  5
3EF0D9A1ECE6115
330
3EF0D9A1ECE60EC
100
AcDbSymbolTableRecord
100
AcDbTextStyleTableRecord
  2
ROMANS
 70
     0
 40
0.0
 41
1.0
 50
0.0
 71
     0
 42
0.125
  3
romans.shx
  4

  0
ENDTAB
  0
TABLE
  2
VIEW
  5
3EF0D9A1ECE60EF
330
0
100
AcDbSymbolTable
 70
     0
  0
ENDTAB
  0
TABLE
  2
UCS
  5
3EF0D9A1ECE60F0
330
0
100
AcDbSymbolTable
 70
     0
  0
ENDTAB
  0
TABLE
  2
APPID
  5
3EF0D9A1ECE60F2
330
0
100
AcDbSymbolTable
 70
     1
  0
APPID
  5
3EF0D9A1ECE60FA
330
3EF0D9A1ECE60F2
100
AcDbSymbolTableRecord
100
AcDbRegAppTableRecord
  2
ACAD
 70
     0
  0
ENDTAB
  0
TABLE
  2
DIMSTYLE
  5
3EF0D9A1ECE60F3
330
0
100
AcDbSymbolTable
 70
     1
  0
DIMSTYLE
105
3EF0D9A1ECE610D
330
3EF0D9A1ECE60F3
100
AcDbSymbolTableRecord
100
AcDbDimStyleTableRecord
  2
STANDARD
 70
     0
  3

  4

  5

  6

  7

 40
1.0
 41
0.125
 42
0.125
 43
0.375
 44
0.125
 45
0.0
 46
0.0
 47
0.0
 48
0.0
140
0.125
141
-0.125
142
0.0
143
25.4
144
1.0
145
0.0
146
1.0
147
0.09
 71
     0
 72
     0
 73
     1
 74
     1
 75
     0
 76
     0
 77
     0
 78
     4
170
     0
171
     2
172
     0
173
     0
174
     1
175
     0
176
     0
177
     0
178
     0
270
     2
271
     3
272
     3
273
     2
274
     2
340
3EF0D9A1ECE6115
275
     0
280
     0
281
     0
282
     0
283
     1
284
     4
285
     0
286
     0
287
     3
288
     0
  0
ENDTAB
  0
TABLE
  2
BLOCK_RECORD
  5
3EF0D9A1ECE60EA
330
0
100
AcDbSymbolTable
 70
     0
  0
BLOCK_RECORD
  5
3EF0D9A1ECE6101
102
{ACAD_XDICTIONARY
360
3EF0D9A1ECE6148
102
}
330
3EF0D9A1ECE60EA
100
AcDbSymbolTableRecord
100
AcDbBlockTableRecord
  2
*MODEL_SPACE
  0
BLOCK_RECORD
  5
3EF0D9A1ECE60FE
102
{ACAD_XDICTIONARY
360
3EF0D9A1ECE6146
102
}
330
3EF0D9A1ECE60EA
100
AcDbSymbolTableRecord
100
AcDbBlockTableRecord
  2
*PAPER_SPACE
  0
ENDTAB
  0
ENDSEC
  0
SECTION
  2
BLOCKS
  0
BLOCK
  5
3EF0D9A1ECE610B
330
3EF0D9A1ECE6101
100
AcDbEntity
  8
0
100
AcDbBlockBegin
  2
*MODEL_SPACE
 70
     0
 10
0.0
 20
0.0
 30
0.0
  3
*MODEL_SPACE
  1

  0
ENDBLK
  5
3EF0D9A1ECE610C
330
3EF0D9A1ECE6101
100
AcDbEntity
  8
0
100
AcDbBlockEnd
  0
BLOCK
  5
3EF0D9A1ECE6109
330
3EF0D9A1ECE60FE
100
AcDbEntity
 67
     1
  8
0
100
AcDbBlockBegin
  2
*PAPER_SPACE
 70
     0
 10
0.0
 20
0.0
 30
0.0
  3
*PAPER_SPACE
  1

  0
ENDBLK
  5
3EF0D9A1ECE610A
330
3EF0D9A1ECE60FE
100
AcDbEntity
 67
     1
  8
0
100
AcDbBlockEnd
  0
ENDSEC
  0
SECTION
  2
ENTITIES
  0
LWPOLYLINE
  5
3EF0D9A1ECE4D04
330
3EF0D9A1ECE6101
100
AcDbEntity
  8
0
100
AcDbPolyline
 90
        8
 70
     1
 43
0.0
 10
2.234375
 20
1.9175
 42
0.4142135623730951
 10
2.214374999999999
 20
1.9375
 10
1.254375
 20
1.9375
 42
0.4142135623730951
 10
1.234375
 20
1.9175
 10
1.234375
 20
0.9574999999999999
 42
0.4142135623730951
 10
1.254375
 20
0.9375
 10
2.214374999999999
 20
0.9375
 42
0.4142135623730951
 10
2.234375
 20
0.9574999999999999
  0
LWPOLYLINE
  5
3EF0D9A1ECE4D48
330
3EF0D9A1ECE6101
100
AcDbEntity
  8
0
100
AcDbPolyline
 90
       10
 70
     1
 43
0.0
 10
2.151874999999999
 20
1.875
 10
1.316875
 20
1.875
 42
0.4142135623730951
 10
1.296875
 20
1.855
 10
1.296875
 20
1.26
 10
1.296875
 20
1.24
 10
1.296875
 20
1.02
 42
0.4142135623730951
 10
1.316875
 20
1.0
 10
2.151874999999999
 20
1.0
 42
0.4142135623730951
 10
2.171875
 20
1.02
 10
2.171875
 20
1.855
 42
0.4142135623730951
  0
TEXT
  5
3EF0D9A1ECE5FAC
330
3EF0D9A1ECE6101
100
AcDbEntity
  8
TEXT
100
AcDbText
 10
0.9813988095238091
 20
0.65625
 30
0.0
 40
0.125
  1
PART #110113
  7
ITALICC
 72
     1
 11
1.734375
 21
0.65625
 31
0.0
100
AcDbText
  0
TEXT
  5
3EF0D9A1ECE5FAD
330
3EF0D9A1ECE6101
100
AcDbEntity
  8
TEXT
100
AcDbText
 10
2.14768015825032
 20
0.2093273573276249
 30
0.0
 40
0.0522247191011236
  1
Phone  1-800-328-2495
 41
1.272321428571429
 72
     5
 11
3.476612742519984
 21
0.2093273573276249
 31
0.0
100
AcDbText
  0
TEXT
  5
3EF0D9A1ECE5FAE
330
3EF0D9A1ECE6101
100
AcDbEntity
  8
TEXT
100
AcDbText
 10
2.14768015825032
 20
0.4891026382265014
 30
0.0
 40
0.0522247191011236
  1
Stylmark  Incorporated
 41
1.221428571428573
 72
     5
 11
3.476612742519984
 21
0.4891026382265014
 31
0.0
100
AcDbText
  0
TEXT
  5
3EF0D9A1ECE5FAF
330
3EF0D9A1ECE6101
100
AcDbEntity
  8
TEXT
100
AcDbText
 10
2.14768015825032
 20
0.3958442112602092
 30
0.0
 40
0.0522247191011236
  1
6536 Main St. N.E. * P.O. Box 32008
 41
0.8388932496075366
 72
     5
 11
3.476612742519984
 21
0.3958442112602092
 31
0.0
100
AcDbText
  0
TEXT
  5
3EF0D9A1ECE5FB0
330
3EF0D9A1ECE6101
100
AcDbEntity
  8
TEXT
100
AcDbText
 10
2.14768015825032
 20
0.302585784293917
 30
0.0
 40
0.0522247191011236
  1
Minneapolis, MN 55432-0008
 41
1.11444212721585
 72
     5
 11
3.476612742519984
 21
0.302585784293917
 31
0.0
100
AcDbText
  0
LWPOLYLINE
  5
3EF0D9A1ECE5FB1
330
3EF0D9A1ECE6101
100
AcDbEntity
  8
TEXT
100
AcDbPolyline
 90
        3
 70
     0
 43
0.0006660908203125
 10
-0.008273533816987
 20
0.3229721199650597
 10
-0.008273533816987
 20
0.2097366805119321
 10
0.1049619056361353
 20
0.2097366805119321
  0
LWPOLYLINE
  5
3EF0D9A1ECE5FB6
330
3EF0D9A1ECE6101
100
AcDbEntity
  8
TEXT
100
AcDbPolyline
 90
        3
 70
     0
 43
0.0006660908203125
 10
0.0183700989955105
 20
0.3229721199650597
 10
0.0183700989955105
 20
0.2363803133244331
 10
0.1049619056361353
 20
0.2363803133244331
  0
LWPOLYLINE
  5
3EF0D9A1ECE5FBB
330
3EF0D9A1ECE6101
100
AcDbEntity
  8
TEXT
100
AcDbPolyline
 90
        2
 70
     0
 43
0.0001332181640625
 10
0.0649964564173873
 20
0.3329634822697449
 10
-0.008273533816987
 20
0.3229721199650597
  0
LWPOLYLINE
  5
3EF0D9A1ECE5FBF
330
3EF0D9A1ECE6101
100
AcDbEntity
  8
TEXT
100
AcDbPolyline
 90
        2
 70
     0
 43
0.0001332181640625
 10
0.0183700989955105
 20
0.3229721199650597
 10
0.0783182728236378
 20
0.3329634822697449
  0
LWPOLYLINE
  5
3EF0D9A1ECE5FC3
330
3EF0D9A1ECE6101
100
AcDbEntity
  8
TEXT
100
AcDbPolyline
 90
        2
 70
     0
 43
0.0001332181640625
 10
0.0183700989955105
 20
0.2363803133244331
 10
0.0783182728236378
 20
0.2963284871525587
  0
LWPOLYLINE
  5
3EF0D9A1ECE5FC7
330
3EF0D9A1ECE6101
100
AcDbEntity
  8
TEXT
100
AcDbPolyline
 90
        3
 70
     0
 43
0.0006660908203125
 10
0.1049619056361353
 20
0.4761730086369354
 10
-0.008273533816987
 20
0.4761730086369354
 10
-0.008273533816987
 20
0.3629375691838077
  0
LWPOLYLINE
  5
3EF0D9A1ECE5FCC
330
3EF0D9A1ECE6101
100
AcDbEntity
  8
TEXT
100
AcDbPolyline
 90
        3
 70
     0
 43
0.0006660908203125
 10
0.1049619056361353
 20
0.4495293758244343
 10
0.0183700989955105
 20
0.4495293758244343
 10
0.0183700989955105
 20
0.3629375691838077
  0
LWPOLYLINE
  5
3EF0D9A1ECE5FD1
330
3EF0D9A1ECE6101
100
AcDbEntity
  8
TEXT
100
AcDbPolyline
 90
        2
 70
     0
 43
0.0001332181640625
 10
0.0183700989955105
 20
0.4495293758244343
 10
0.078318272823636
 20
0.3895812019963087
  0
LWPOLYLINE
  5
3EF0D9A1ECE5FD5
330
3EF0D9A1ECE6101
100
AcDbEntity
  8
TEXT
100
AcDbPolyline
 90
        2
 70
     0
 43
0.0001332181640625
 10
0.0183700989955105
 20
0.3629375691838077
 10
0.078318272823636
 20
0.3529462068791189
  0
LWPOLYLINE
  5
3EF0D9A1ECE5FD9
330
3EF0D9A1ECE6101
100
AcDbEntity
  8
TEXT
100
AcDbPolyline
 90
        2
 70
     0
 43
0.0001332181640625
 10
-0.008273533816987
 20
0.3629375691838077
 10
0.0649964564173873
 20
0.3529462068791189
  0
LWPOLYLINE
  5
3EF0D9A1ECE5FDD
330
3EF0D9A1ECE6101
100
AcDbEntity
  8
TEXT
100
AcDbPolyline
 90
        2
 70
     0
 43
0.0006660908203125
 10
0.0183700989955105
 20
0.3229721199650597
 10
-0.008273533816987
 20
0.3229721199650597
  0
LWPOLYLINE
  5
3EF0D9A1ECE5FE1
330
3EF0D9A1ECE6101
100
AcDbEntity
  8
TEXT
100
AcDbPolyline
 90
        2
 70
     0
 43
0.0006660908203125
 10
0.0183700989955105
 20
0.3629375691838077
 10
-0.008273533816987
 20
0.3629375691838077
  0
LINE
  5
3EF0D9A1ECE5FE5
330
3EF0D9A1ECE6101
100
AcDbEntity
  8
TEXT
100
AcDbLine
 10
1.50691689530951
 20
0.4118963139801664
 30
0.0
 11
1.399710621922221
 21
0.4118963139801664
 31
0.0
  0
LINE
  5
3EF0D9A1ECE5FE6
330
3EF0D9A1ECE6101
100
AcDbEntity
  8
TEXT
100
AcDbLine
 10
1.535947793653988
 20
0.4761730086369318
 30
0.0
 11
1.401115884436929
 21
0.4761730086369318
 31
0.0
  0
ARC
  5
3EF0D9A1ECE5FE7
330
3EF0D9A1ECE6101
100
AcDbEntity
  8
TEXT
100
AcDbCircle
 10
1.460429980830246
 20
0.3069357593739155
 30
0.0
 40
0.0676855811441166
100
AcDbArc
 50
90.0
 51
153.7768192527749
  0
LWPOLYLINE
  5
3EF0D9A1ECE5FE8
330
3EF0D9A1ECE6101
100
AcDbEntity
  8
TEXT
100
AcDbPolyline
 90
        2
 70
     0
 43
0.0
 10
1.398678126467411
 20
0.2531909205988589
 42
0.2901071551932823
 10
1.441754059335046
 20
0.2096999756484208
 42
5.328517124445801
  0
ARC
  5
3EF0D9A1ECE5FEC
330
3EF0D9A1ECE6101
100
AcDbEntity
  8
TEXT
100
AcDbCircle
 10
0.755298603158761
 20
0.2694923669864706
 30
0.0
 40
0.0601160179737537
100
AcDbArc
 50
180.0000000000003
 51
264.0521544866073
  0
LINE
  5
3EF0D9A1ECE5FED
330
3EF0D9A1ECE6101
100
AcDbEntity
  8
TEXT
100
AcDbLine
 10
0.7588139587843088
 20
0.51056092623107
 30
0.0
 11
0.6987713539403018
 21
0.51056092623107
 31
0.0
  0
ARC
  5
3EF0D9A1ECE5FEE
330
3EF0D9A1ECE6101
100
AcDbEntity
  8
TEXT
100
AcDbCircle
 10
0.5230396010417904
 20
0.39408554919043
 30
0.0
 40
0.0820874594465043
100
AcDbArc
 50
90.0
 51
270.0
  0
LWPOLYLINE
  5
3EF0D9A1ECE5FEF
330
3EF0D9A1ECE6101
100
AcDbEntity
  8
TEXT
100
AcDbPolyline
 90
        2
 70
     0
 43
0.0001332181640625
 10
0.1149532679408258
 20
0.4029030184025558
 10
0.1049619056361353
 20
0.4761730086369354
  0
LWPOLYLINE
  5
3EF0D9A1ECE5FF3
330
3EF0D9A1ECE6101
100
AcDbEntity
  8
TEXT
100
AcDbPolyline
 90
        2
 70
     0
 43
0.0001332181640625
 10
0.1049619056361353
 20
0.4495293758244343
 10
0.1149532679408258
 20
0.3895812019963087
  0
LWPOLYLINE
  5
3EF0D9A1ECE5FF7
330
3EF0D9A1ECE6101
100
AcDbEntity
  8
TEXT
100
AcDbPolyline
 90
        3
 70
     0
 43
0.0006660908203125
 10
0.2581627943080127
 20
0.3629375691838077
 10
0.2581627943080127
 20
0.4761730086369354
 10
0.1449273548548868
 20
0.4761730086369354
  0
LWPOLYLINE
  5
3EF0D9A1ECE5FFC
330
3EF0D9A1ECE6101
100
AcDbEntity
  8
TEXT
100
AcDbPolyline
 90
        3
 70
     0
 43
0.0006660908203125
 10
0.2315191614955117
 20
0.3629375691838077
 10
0.2315191614955117
 20
0.4495293758244343
 10
0.1449273548548868
 20
0.4495293758244343
  0
LWPOLYLINE
  5
3EF0D9A1ECE6001
330
3EF0D9A1ECE6101
100
AcDbEntity
  8
TEXT
100
AcDbPolyline
 90
        2
 70
     0
 43
0.0001332181640625
 10
0.2315191614955117
 20
0.4495293758244343
 10
0.1715709876673879
 20
0.3895812019963087
  0
LWPOLYLINE
  5
3EF0D9A1ECE6005
330
3EF0D9A1ECE6101
100
AcDbEntity
  8
TEXT
100
AcDbPolyline
 90
        2
 70
     0
 43
0.0001332181640625
 10
0.1449273548548868
 20
0.4495293758244343
 10
0.1349359925501981
 20
0.3895812019963087
  0
LWPOLYLINE
  5
3EF0D9A1ECE6009
330
3EF0D9A1ECE6101
100
AcDbEntity
  8
TEXT
100
AcDbPolyline
 90
        2
 70
     0
 43
0.0001332181640625
 10
0.1449273548548868
 20
0.4761730086369354
 10
0.1349359925501981
 20
0.4029030184025558
  0
LWPOLYLINE
  5
3EF0D9A1ECE600D
330
3EF0D9A1ECE6101
100
AcDbEntity
  8
TEXT
100
AcDbPolyline
 90
        2
 70
     0
 43
0.0001332181640625
 10
0.1848928040736366
 20
0.3529462068791189
 10
0.2581627943080127
 20
0.3629375691838077
  0
LWPOLYLINE
  5
3EF0D9A1ECE6011
330
3EF0D9A1ECE6101
100
AcDbEntity
  8
TEXT
100
AcDbPolyline
 90
        2
 70
     0
 43
0.0001332181640625
 10
0.2315191614955117
 20
0.3629375691838077
 10
0.1715709876673879
 20
0.3529462068791189
  0
LWPOLYLINE
  5
3EF0D9A1ECE6015
330
3EF0D9A1ECE6101
100
AcDbEntity
  8
TEXT
100
AcDbPolyline
 90
        2
 70
     0
 43
0.0001332181640625
 10
0.2581627943080127
 20
0.3229721199650597
 10
0.1848928040736366
 20
0.3329634822697449
  0
LWPOLYLINE
  5
3EF0D9A1ECE6019
330
3EF0D9A1ECE6101
100
AcDbEntity
  8
TEXT
100
AcDbPolyline
 90
        2
 70
     0
 43
0.0001332181640625
 10
0.2315191614955117
 20
0.3229721199650597
 10
0.1715709876673879
 20
0.3329634822697449
  0
LWPOLYLINE
  5
3EF0D9A1ECE601D
330
3EF0D9A1ECE6101
100
AcDbEntity
  8
TEXT
100
AcDbPolyline
 90
        2
 70
     0
 43
0.0001332181640625
 10
0.2315191614955117
 20
0.2363803133244331
 10
0.1715709876673879
 20
0.2963284871525587
  0
LWPOLYLINE
  5
3EF0D9A1ECE6021
330
3EF0D9A1ECE6101
100
AcDbEntity
  8
TEXT
100
AcDbPolyline
 90
        3
 70
     0
 43
0.0006660908203125
 10
0.1449273548548868
 20
0.2363803133244331
 10
0.2315191614955117
 20
0.2363803133244331
 10
0.2315191614955117
 20
0.3229721199650597
  0
LWPOLYLINE
  5
3EF0D9A1ECE6026
330
3EF0D9A1ECE6101
100
AcDbEntity
  8
TEXT
100
AcDbPolyline
 90
        3
 70
     0
 43
0.0006660908203125
 10
0.1449273548548868
 20
0.2097366805119321
 10
0.2581627943080127
 20
0.2097366805119321
 10
0.2581627943080127
 20
0.3229721199650597
  0
LWPOLYLINE
  5
3EF0D9A1ECE602B
330
3EF0D9A1ECE6101
100
AcDbEntity
  8
TEXT
100
AcDbPolyline
 90
        5
 70
     0
 43
0.0001332181640625
 10
0.1149532679408258
 20
0.2830066707463081
 10
0.1149532679408258
 20
0.2963284871525587
 10
0.0783182728236378
 20
0.2963284871525587
 10
0.0783182728236378
 20
0.3329634822697449
 10
0.0649964564173873
 20
0.3329634822697449
  0
LWPOLYLINE
  5
3EF0D9A1ECE6032
330
3EF0D9A1ECE6101
100
AcDbEntity
  8
TEXT
100
AcDbPolyline
 90
        2
 70
     0
 43
0.0006660908203125
 10
0.1049619056361353
 20
0.2363803133244331
 10
0.1049619056361353
 20
0.2097366805119321
  0
LWPOLYLINE
  5
3EF0D9A1ECE6036
330
3EF0D9A1ECE6101
100
AcDbEntity
  8
TEXT
100
AcDbPolyline
 90
        2
 70
     0
 43
0.0001332181640625
 10
0.1049619056361353
 20
0.2363803133244331
 10
0.1149532679408258
 20
0.2963284871525587
  0
LWPOLYLINE
  5
3EF0D9A1ECE603A
330
3EF0D9A1ECE6101
100
AcDbEntity
  8
TEXT
100
AcDbPolyline
 90
        2
 70
     0
 43
0.0001332181640625
 10
0.1049619056361353
 20
0.2097366805119321
 10
0.1149532679408258
 20
0.2830066707463081
  0
LWPOLYLINE
  5
3EF0D9A1ECE603E
330
3EF0D9A1ECE6101
100
AcDbEntity
  8
TEXT
100
AcDbPolyline
 90
        5
 70
     0
 43
0.0001332181640625
 10
0.0649964564173873
 20
0.3529462068791189
 10
0.078318272823636
 20
0.3529462068791189
 10
0.078318272823636
 20
0.3895812019963087
 10
0.1149532679408258
 20
0.3895812019963087
 10
0.1149532679408258
 20
0.4029030184025558
  0
LWPOLYLINE
  5
3EF0D9A1ECE6045
330
3EF0D9A1ECE6101
100
AcDbEntity
  8
TEXT
100
AcDbPolyline
 90
        5
 70
     0
 43
0.0001332181640625
 10
0.1349359925501981
 20
0.4029030184025558
 10
0.1349359925501981
 20
0.3895812019963087
 10
0.1715709876673879
 20
0.3895812019963087
 10
0.1715709876673879
 20
0.3529462068791189
 10
0.1848928040736366
 20
0.3529462068791189
  0
LWPOLYLINE
  5
3EF0D9A1ECE604C
330
3EF0D9A1ECE6101
100
AcDbEntity
  8
TEXT
100
AcDbPolyline
 90
        2
 70
     0
 43
0.0001332181640625
 10
0.1449273548548868
 20
0.2363803133244331
 10
0.1349359925501981
 20
0.2963284871525587
  0
LWPOLYLINE
  5
3EF0D9A1ECE6050
330
3EF0D9A1ECE6101
100
AcDbEntity
  8
TEXT
100
AcDbPolyline
 90
        2
 70
     0
 43
0.0001332181640625
 10
0.1349359925501981
 20
0.2830066707463081
 10
0.1449273548548868
 20
0.2097366805119321
  0
LWPOLYLINE
  5
3EF0D9A1ECE6054
330
3EF0D9A1ECE6101
100
AcDbEntity
  8
TEXT
100
AcDbPolyline
 90
        2
 70
     0
 43
0.0006660908203125
 10
0.1449273548548868
 20
0.2363803133244331
 10
0.1449273548548868
 20
0.2097366805119321
  0
LWPOLYLINE
  5
3EF0D9A1ECE6058
330
3EF0D9A1ECE6101
100
AcDbEntity
  8
TEXT
100
AcDbPolyline
 90
        5
 70
     0
 43
0.0001332181640625
 10
0.1848928040736366
 20
0.3329634822697449
 10
0.1715709876673879
 20
0.3329634822697449
 10
0.1715709876673879
 20
0.2963284871525587
 10
0.1349359925501981
 20
0.2963284871525587
 10
0.1349359925501981
 20
0.2830066707463081
  0
LWPOLYLINE
  5
3EF0D9A1ECE605F
330
3EF0D9A1ECE6101
100
AcDbEntity
  8
TEXT
100
AcDbPolyline
 90
        2
 70
     0
 43
0.0006660908203125
 10
0.2315191614955117
 20
0.3629375691838077
 10
0.2581627943080127
 20
0.3629375691838077
  0
LWPOLYLINE
  5
3EF0D9A1ECE6063
330
3EF0D9A1ECE6101
100
AcDbEntity
  8
TEXT
100
AcDbPolyline
 90
        2
 70
     0
 43
0.0006660908203125
 10
0.2315191614955117
 20
0.3229721199650597
 10
0.2581627943080127
 20
0.3229721199650597
  0
LINE
  5
3EF0D9A1ECE6067
330
3EF0D9A1ECE6101
100
AcDbEntity
  8
TEXT
100
AcDbLine
 10
0.5282769311560376
 20
0.4118963139801664
 30
0.0
 11
0.6951825851850089
 21
0.4118963139801664
 31
0.0
  0
LINE
  5
3EF0D9A1ECE6068
330
3EF0D9A1ECE6101
100
AcDbEntity
  8
TEXT
100
AcDbLine
 10
0.5938770674003387
 20
0.3760915923695385
 30
0.0
 11
0.5282769311560376
 21
0.3760915923695385
 31
0.0
  0
LINE
  5
3EF0D9A1ECE6069
330
3EF0D9A1ECE6101
100
AcDbEntity
  8
TEXT
100
AcDbLine
 10
0.440952141595286
 20
0.2096999756484208
 30
0.0
 11
0.5938770674003387
 21
0.2096999756484208
 31
0.0
  0
LINE
  5
3EF0D9A1ECE606A
330
3EF0D9A1ECE6101
100
AcDbEntity
  8
TEXT
100
AcDbLine
 10
0.5988174413066183
 20
0.2780569819818601
 30
0.0
 11
0.4409521415952842
 21
0.2780569819818601
 31
0.0
  0
LINE
  5
3EF0D9A1ECE606B
330
3EF0D9A1ECE6101
100
AcDbEntity
  8
TEXT
100
AcDbLine
 10
0.5230396010417895
 20
0.3119980897439247
 30
0.0
 11
0.5988174413066183
 21
0.3119980897439247
 31
0.0
  0
ARC
  5
3EF0D9A1ECE606C
330
3EF0D9A1ECE6101
100
AcDbEntity
  8
TEXT
100
AcDbCircle
 10
0.5282769311560385
 20
0.3939939531748542
 30
0.0
 40
0.017902360805315
100
AcDbArc
 50
90.0
 51
270.0
  0
LINE
  5
3EF0D9A1ECE606D
330
3EF0D9A1ECE6101
100
AcDbEntity
  8
TEXT
100
AcDbLine
 10
0.4409521415952842
 20
0.2780569819818601
 30
0.0
 11
0.440952141595286
 21
0.2096999756484208
 31
0.0
  0
LINE
  5
3EF0D9A1ECE606E
330
3EF0D9A1ECE6101
100
AcDbEntity
  8
TEXT
100
AcDbLine
 10
0.6951825851850089
 20
0.4118963139801664
 30
0.0
 11
0.6951825851850089
 21
0.2694923669864706
 31
0.0
  0
ARC
  5
3EF0D9A1ECE606F
330
3EF0D9A1ECE6101
100
AcDbEntity
  8
TEXT
100
AcDbCircle
 10
0.5938770674003396
 20
0.2928957840089779
 30
0.0
 40
0.0831958083605586
100
AcDbArc
 50
270.0
 51
90.0
  0
ARC
  5
3EF0D9A1ECE6070
330
3EF0D9A1ECE6101
100
AcDbEntity
  8
TEXT
100
AcDbCircle
 10
0.5988174413066192
 20
0.2950275358628942
 30
0.0
 40
0.0169705538810321
100
AcDbArc
 50
270.0
 51
90.0
  0
LWPOLYLINE
  5
3EF0D9A1ECE6071
330
3EF0D9A1ECE6101
100
AcDbEntity
  8
TEXT
100
AcDbPolyline
 90
        2
 70
     0
 43
0.0006660908203125
 10
0.1049619056361353
 20
0.4495293758244343
 10
0.1049619056361353
 20
0.4761730086369354
  0
LWPOLYLINE
  5
3EF0D9A1ECE6075
330
3EF0D9A1ECE6101
100
AcDbEntity
  8
TEXT
100
AcDbPolyline
 90
        2
 70
     0
 43
0.0006660908203125
 10
0.1449273548548868
 20
0.4495293758244343
 10
0.1449273548548868
 20
0.4761730086369354
  0
LINE
  5
3EF0D9A1ECE6079
330
3EF0D9A1ECE6101
100
AcDbEntity
  8
TEXT
100
AcDbLine
 10
0.6987713539403018
 20
0.4761730086369318
 30
0.0
 11
0.5230396010417895
 21
0.4761730086369318
 31
0.0
  0
LINE
  5
3EF0D9A1ECE607A
330
3EF0D9A1ECE6101
100
AcDbEntity
  8
TEXT
100
AcDbLine
 10
0.6987713539403018
 20
0.51056092623107
 30
0.0
 11
0.6987713539403018
 21
0.4761730086369318
 31
0.0
  0
LINE
  5
3EF0D9A1ECE607B
330
3EF0D9A1ECE6101
100
AcDbEntity
  8
TEXT
100
AcDbLine
 10
0.889243245960154
 20
0.3753010125238112
 30
0.0
 11
0.8306129249282161
 21
0.4761730086369318
 31
0.0
  0
LINE
  5
3EF0D9A1ECE607C
330
3EF0D9A1ECE6101
100
AcDbEntity
  8
TEXT
100
AcDbLine
 10
0.9479918087660195
 20
0.4761730086369318
 30
0.0
 11
0.889243245960154
 21
0.3753010125238112
 31
0.0
  0
LINE
  5
3EF0D9A1ECE607D
330
3EF0D9A1ECE6101
100
AcDbEntity
  8
TEXT
100
AcDbLine
 10
1.04492243412576
 20
0.29208781375142
 30
0.0
 11
1.04492243412576
 21
0.5441844863757424
 31
0.0
  0
LINE
  5
3EF0D9A1ECE607E
330
3EF0D9A1ECE6101
100
AcDbEntity
  8
TEXT
100
AcDbLine
 10
1.07723428826342
 20
0.4761730086369318
 30
0.0
 11
1.07723428826342
 21
0.2753088019045236
 31
0.0
  0
LINE
  5
3EF0D9A1ECE607F
330
3EF0D9A1ECE6101
100
AcDbEntity
  8
TEXT
100
AcDbLine
 10
1.07723428826342
 20
0.2753088019045236
 30
0.0
 11
1.060240651378819
 21
0.2753088019045236
 31
0.0
  0
LINE
  5
3EF0D9A1ECE6080
330
3EF0D9A1ECE6101
100
AcDbEntity
  8
TEXT
100
AcDbLine
 10
1.046062007621955
 20
0.2096999756484208
 30
0.0
 11
1.14406534132139
 21
0.2096999756484208
 31
0.0
  0
LINE
  5
3EF0D9A1ECE6081
330
3EF0D9A1ECE6101
100
AcDbEntity
  8
TEXT
100
AcDbLine
 10
0.8796430089631996
 20
0.2296584817534337
 30
0.0
 11
0.9769427150566443
 21
0.3940086926887019
 31
0.0
  0
ARC
  5
3EF0D9A1ECE6082
330
3EF0D9A1ECE6101
100
AcDbEntity
  8
TEXT
100
AcDbCircle
 10
0.8455994490509857
 20
0.2492476979221165
 30
0.0
 40
0.0392772371940762
100
AcDbArc
 50
270.1604552698595
 51
330.0831797321295
  0
LINE
  5
3EF0D9A1ECE6083
330
3EF0D9A1ECE6101
100
AcDbEntity
  8
TEXT
100
AcDbLine
 10
0.7490691926651146
 20
0.2096999756484208
 30
0.0
 11
0.8457094437401089
 21
0.2099706147467031
 31
0.0
  0
LWPOLYLINE
  5
3EF0D9A1ECE6084
330
3EF0D9A1ECE6101
100
AcDbEntity
  8
TEXT
100
AcDbPolyline
 90
        6
 70
     1
 43
0.0
 10
0.7915929962402642
 20
0.4118963139801664
 10
0.761276402020056
 20
0.4118963139801664
 10
0.761276402020056
 20
0.288785315925272
 42
0.407328721240804
 10
0.7728200531815324
 20
0.2769664012488859
 10
0.8334417522262631
 20
0.2769664012488859
 10
0.8509070926335811
 20
0.3097786302923651
  0
LINE
  5
3EF0D9A1ECE608C
330
3EF0D9A1ECE6101
100
AcDbEntity
  8
TEXT
100
AcDbLine
 10
0.9769427150566443
 20
0.3940086926887019
 30
0.0
 11
0.9769427150566443
 21
0.2612513178633455
 31
0.0
  0
ARC
  5
3EF0D9A1ECE608D
330
3EF0D9A1ECE6101
100
AcDbEntity
  8
TEXT
100
AcDbCircle
 10
1.060240651378817
 20
0.290690608147949
 30
0.0
 40
0.0153818062434269
100
AcDbArc
 50
174.7883570302258
 51
270.0
  0
LWPOLYLINE
  5
3EF0D9A1ECE608E
330
3EF0D9A1ECE6101
100
AcDbEntity
  8
TEXT
100
AcDbPolyline
 90
        2
 70
     0
 43
0.0
 10
0.9769427150566425
 20
0.2612513178633491
 42
0.3318488747599744
 10
1.046062007621955
 20
0.2096999756484208
 42
-6.868794160588311
  0
LINE
  5
3EF0D9A1ECE6092
330
3EF0D9A1ECE6101
100
AcDbEntity
  8
TEXT
100
AcDbLine
 10
1.201454410310651
 20
0.2096999756484208
 30
0.0
 11
1.268512457092491
 21
0.2096999756484208
 31
0.0
  0
LINE
  5
3EF0D9A1ECE6093
330
3EF0D9A1ECE6101
100
AcDbEntity
  8
TEXT
100
AcDbLine
 10
1.201454410310651
 20
0.4043425248140565
 30
0.0
 11
1.201454410310651
 21
0.2096999756484208
 31
0.0
  0
LINE
  5
3EF0D9A1ECE6094
330
3EF0D9A1ECE6101
100
AcDbEntity
  8
TEXT
100
AcDbLine
 10
1.14406534132139
 20
0.4118963139801664
 30
0.0
 11
1.193900621144537
 21
0.4118963139801664
 31
0.0
  0
LINE
  5
3EF0D9A1ECE6095
330
3EF0D9A1ECE6101
100
AcDbEntity
  8
TEXT
100
AcDbLine
 10
1.14406534132139
 20
0.2096999756484208
 30
0.0
 11
1.14406534132139
 21
0.4118963139801664
 31
0.0
  0
LWPOLYLINE
  5
3EF0D9A1ECE6096
330
3EF0D9A1ECE6101
100
AcDbEntity
  8
TEXT
100
AcDbPolyline
 90
        2
 70
     0
 43
0.0
 10
1.193900621144535
 20
0.4118963139801664
 42
-0.4142135623731017
 10
1.201454410310649
 20
0.4043425248140565
 42
-0.9999999999999998
  0
LINE
  5
3EF0D9A1ECE609A
330
3EF0D9A1ECE6101
100
AcDbEntity
  8
TEXT
100
AcDbLine
 10
1.399710621922221
 20
0.4118963139801664
 30
0.0
 11
1.399710621922221
 21
0.3368439079059597
 31
0.0
  0
LINE
  5
3EF0D9A1ECE609B
330
3EF0D9A1ECE6101
100
AcDbEntity
  8
TEXT
100
AcDbLine
 10
1.268512457092491
 20
0.4118963139801664
 30
0.0
 11
1.322646054013441
 21
0.4118963139801664
 31
0.0
  0
LINE
  5
3EF0D9A1ECE609C
330
3EF0D9A1ECE6101
100
AcDbEntity
  8
TEXT
100
AcDbLine
 10
1.268512457092491
 20
0.2096999756484208
 30
0.0
 11
1.268512457092491
 21
0.4118963139801664
 31
0.0
  0
LWPOLYLINE
  5
3EF0D9A1ECE609D
330
3EF0D9A1ECE6101
100
AcDbEntity
  8
TEXT
100
AcDbPolyline
 90
        2
 70
     0
 43
0.0
 10
1.322646054013439
 20
0.4118963139801664
 42
-0.4142135623731017
 10
1.330199843179553
 20
0.4043425248140565
 42
-0.9999999999999998
  0
LWPOLYLINE
  5
3EF0D9A1ECE60A1
330
3EF0D9A1ECE6101
100
AcDbEntity
  8
TEXT
100
AcDbPolyline
 90
        4
 70
     0
 43
0.0
 10
1.330199843179553
 20
0.4043425248140565
 10
1.330199843179553
 20
0.2096999756484208
 10
1.398678126467411
 20
0.2096999756484208
 10
1.398678126467411
 20
0.2531909205988589
 42
-1.714843617202739
  0
LINE
  5
3EF0D9A1ECE60A7
330
3EF0D9A1ECE6101
100
AcDbEntity
  8
TEXT
100
AcDbLine
 10
0.7588139587843088
 20
0.4761730086369318
 30
0.0
 11
0.7588139587843088
 21
0.51056092623107
 31
0.0
  0
LINE
  5
3EF0D9A1ECE60A8
330
3EF0D9A1ECE6101
100
AcDbEntity
  8
TEXT
100
AcDbLine
 10
0.8306129249282161
 20
0.4761730086369318
 30
0.0
 11
0.7588139587843088
 21
0.4761730086369318
 31
0.0
  0
LINE
  5
3EF0D9A1ECE60A9
330
3EF0D9A1ECE6101
100
AcDbEntity
  8
TEXT
100
AcDbLine
 10
0.9781137215593957
 20
0.4761730086369318
 30
0.0
 11
0.9479918087660195
 21
0.4761730086369318
 31
0.0
  0
LINE
  5
3EF0D9A1ECE60AA
330
3EF0D9A1ECE6101
100
AcDbEntity
  8
TEXT
100
AcDbLine
 10
0.9781137215593957
 20
0.5441844863757424
 30
0.0
 11
0.9781137215593957
 21
0.4761730086369318
 31
0.0
  0
LINE
  5
3EF0D9A1ECE60AB
330
3EF0D9A1ECE6101
100
AcDbEntity
  8
TEXT
100
AcDbLine
 10
1.04492243412576
 20
0.5441844863757424
 30
0.0
 11
0.9781137215593957
 21
0.5441844863757424
 31
0.0
  0
LWPOLYLINE
  5
3EF0D9A1ECE60AC
330
3EF0D9A1ECE6101
100
AcDbEntity
  8
TEXT
100
AcDbPolyline
 90
        3
 70
     0
 43
0.0
 10
1.365334193723763
 20
0.4761730086369354
 10
1.247034034907718
 20
0.4761730086369354
 10
1.247034034907718
 20
0.4490055118760395
 42
-1.960274751411753
  0
LINE
  5
3EF0D9A1ECE60B1
330
3EF0D9A1ECE6101
100
AcDbEntity
  8
TEXT
100
AcDbLine
 10
1.211252344194557
 20
0.4761730086369318
 30
0.0
 11
1.07723428826342
 21
0.4761730086369318
 31
0.0
  0
LWPOLYLINE
  5
3EF0D9A1ECE60B2
330
3EF0D9A1ECE6101
100
AcDbEntity
  8
TEXT
100
AcDbPolyline
 90
        2
 70
     0
 43
0.0
 10
1.211252344194557
 20
0.4761730086369354
 42
-0.3328679258950098
 10
1.247034034907718
 20
0.4490055118760395
 42
6.772930709997214
  0
LINE
  5
3EF0D9A1ECE60B6
330
3EF0D9A1ECE6101
100
AcDbEntity
  8
TEXT
100
AcDbLine
 10
1.401115884436929
 20
0.4761730086369318
 30
0.0
 11
1.401115884436929
 21
0.447850462867288
 31
0.0
  0
LWPOLYLINE
  5
3EF0D9A1ECE60B7
330
3EF0D9A1ECE6101
100
AcDbEntity
  8
TEXT
100
AcDbPolyline
 90
        2
 70
     0
 43
0.0
 10
1.365334193723763
 20
0.4761730086369354
 42
-0.3277054968067132
 10
1.401115884436928
 20
0.4478504628672915
 42
6.667889725900311
  0
LINE
  5
3EF0D9A1ECE60BB
330
3EF0D9A1ECE6101
100
AcDbEntity
  8
TEXT
100
AcDbLine
 10
1.614907732529029
 20
0.3709610300835044
 30
0.0
 11
1.571156961347128
 21
0.4532113060796497
 31
0.0
  0
LINE
  5
3EF0D9A1ECE60BC
330
3EF0D9A1ECE6101
100
AcDbEntity
  8
TEXT
100
AcDbLine
 10
1.614907732529029
 20
0.4761730086369318
 30
0.0
 11
1.614907732529029
 21
0.3709610300835044
 31
0.0
  0
LINE
  5
3EF0D9A1ECE60BD
330
3EF0D9A1ECE6101
100
AcDbEntity
  8
TEXT
100
AcDbLine
 10
1.842591471467398
 20
0.4003076822253937
 30
0.0
 11
1.842591471467398
 21
0.5416372144045325
 31
0.0
  0
LINE
  5
3EF0D9A1ECE60BE
330
3EF0D9A1ECE6101
100
AcDbEntity
  8
TEXT
100
AcDbLine
 10
1.889689630023383
 20
0.4761730086369318
 30
0.0
 11
1.842591471467398
 21
0.4003076822253937
 31
0.0
  0
LINE
  5
3EF0D9A1ECE60BF
330
3EF0D9A1ECE6101
100
AcDbEntity
  8
TEXT
100
AcDbLine
 10
1.900124346787306
 20
0.3662797656959582
 30
0.0
 11
1.964681462753011
 21
0.4761730086369318
 31
0.0
  0
LINE
  5
3EF0D9A1ECE60C0
330
3EF0D9A1ECE6101
100
AcDbEntity
  8
TEXT
100
AcDbLine
 10
1.778756480244625
 20
0.2096999756484208
 30
0.0
 11
1.843134664563246
 21
0.2096999756484208
 31
0.0
  0
LWPOLYLINE
  5
3EF0D9A1ECE60C1
330
3EF0D9A1ECE6101
100
AcDbEntity
  8
TEXT
100
AcDbPolyline
 90
        2
 70
     0
 43
0.0
 10
1.618847409834067
 20
0.2531909205988589
 42
-0.2901071551932486
 10
1.575771476966423
 20
0.2096999756484208
 42
-5.328517124445184
  0
ARC
  5
3EF0D9A1ECE60C5
330
3EF0D9A1ECE6101
100
AcDbEntity
  8
TEXT
100
AcDbCircle
 10
1.506916895309508
 20
0.3835369389801691
 30
0.0
 40
0.028359375
100
AcDbArc
 50
25.78218179591245
 51
90.0
  0
LINE
  5
3EF0D9A1ECE60C6
330
3EF0D9A1ECE6101
100
AcDbEntity
  8
TEXT
100
AcDbLine
 10
1.542717970613631
 20
0.3746213405180341
 30
0.0
 11
1.532453210200067
 21
0.3958718800907284
 31
0.0
  0
LINE
  5
3EF0D9A1ECE60C7
330
3EF0D9A1ECE6101
100
AcDbEntity
  8
TEXT
100
AcDbLine
 10
1.460429980830248
 20
0.3746213405180341
 30
0.0
 11
1.542717970613631
 21
0.3746213405180341
 31
0.0
  0
LWPOLYLINE
  5
3EF0D9A1ECE60C8
330
3EF0D9A1ECE6101
100
AcDbEntity
  8
TEXT
100
AcDbPolyline
 90
        4
 70
     1
 43
0.0
 10
1.55564901189653
 20
0.312663953632446
 10
1.466988693236672
 20
0.312663953632446
 42
0.9999999999999998
 10
1.466988693236672
 20
0.2702654131285853
 10
1.55564901189653
 20
0.2702654131285853
 42
1.0
  0
LWPOLYLINE
  5
3EF0D9A1ECE60CE
330
3EF0D9A1ECE6101
100
AcDbEntity
  8
TEXT
100
AcDbPolyline
 90
        2
 70
     0
 43
0.0
 10
1.441754059335046
 20
0.2096999756484208
 10
1.575771476966423
 20
0.2096999756484208
 42
0.9999999999999998
  0
LINE
  5
3EF0D9A1ECE60D2
330
3EF0D9A1ECE6101
100
AcDbEntity
  8
TEXT
100
AcDbLine
 10
1.702108498952062
 20
0.4118963139801664
 30
0.0
 11
1.77875648024462
 21
0.4118963139801664
 31
0.0
  0
LINE
  5
3EF0D9A1ECE60D3
330
3EF0D9A1ECE6101
100
AcDbEntity
  8
TEXT
100
AcDbLine
 10
1.77875648024462
 20
0.4118963139801664
 30
0.0
 11
1.778756480244625
 21
0.2096999756484208
 31
0.0
  0
ARC
  5
3EF0D9A1ECE60D4
330
3EF0D9A1ECE6101
100
AcDbEntity
  8
TEXT
100
AcDbCircle
 10
1.70210849895206
 20
0.3869904386975036
 30
0.0
 40
0.0249058752826653
100
AcDbArc
 50
89.99971217465335
 51
179.9999999999985
  0
LINE
  5
3EF0D9A1ECE60D5
330
3EF0D9A1ECE6101
100
AcDbEntity
  8
TEXT
100
AcDbLine
 10
1.677202623669403
 20
0.2096999756484208
 30
0.0
 11
1.677202623669398
 21
0.3869904810798892
 31
0.0
  0
LWPOLYLINE
  5
3EF0D9A1ECE60D6
330
3EF0D9A1ECE6101
100
AcDbEntity
  8
TEXT
100
AcDbPolyline
 90
        2
 70
     0
 43
0.0
 10
1.618847409834067
 20
0.2096999756484208
 10
1.677202623669401
 20
0.2096999756484208
  0
LWPOLYLINE
  5
3EF0D9A1ECE60DA
330
3EF0D9A1ECE6101
100
AcDbEntity
  8
TEXT
100
AcDbPolyline
 90
        2
 70
     0
 43
0.0
 10
1.618847409834067
 20
0.2531909205988589
 10
1.618847409834067
 20
0.2096999756484208
  0
LINE
  5
3EF0D9A1ECE60DE
330
3EF0D9A1ECE6101
100
AcDbEntity
  8
TEXT
100
AcDbLine
 10
1.995616570150916
 20
0.2096999756484208
 30
0.0
 11
1.900124346787306
 21
0.3662797656959582
 31
0.0
  0
LINE
  5
3EF0D9A1ECE60DF
330
3EF0D9A1ECE6101
100
AcDbEntity
  8
TEXT
100
AcDbLine
 10
1.91903819777471
 20
0.2096999756484208
 30
0.0
 11
1.995616570150916
 21
0.2096999756484208
 31
0.0
  0
LINE
  5
3EF0D9A1ECE60E0
330
3EF0D9A1ECE6101
100
AcDbEntity
  8
TEXT
100
AcDbLine
 10
1.843134664563246
 20
0.341279544124601
 30
0.0
 11
1.91903819777471
 21
0.2096999756484208
 31
0.0
  0
LINE
  5
3EF0D9A1ECE60E1
330
3EF0D9A1ECE6101
100
AcDbEntity
  8
TEXT
100
AcDbLine
 10
1.843134664563246
 20
0.2096999756484208
 30
0.0
 11
1.843134664563246
 21
0.341279544124601
 31
0.0
  0
LINE
  5
3EF0D9A1ECE60E2
330
3EF0D9A1ECE6101
100
AcDbEntity
  8
TEXT
100
AcDbLine
 10
1.842591471467398
 20
0.5416372144045325
 30
0.0
 11
1.774276592918125
 21
0.5416372144045325
 31
0.0
  0
ARC
  5
3EF0D9A1ECE60E3
330
3EF0D9A1ECE6101
100
AcDbEntity
  8
TEXT
100
AcDbCircle
 10
1.533920853876919
 20
0.4345894415160294
 30
0.0
 40
0.0416329381542859
100
AcDbArc
 50
26.56974201007528
 51
87.20939649401342
  0
LINE
  5
3EF0D9A1ECE60E4
330
3EF0D9A1ECE6101
100
AcDbEntity
  8
TEXT
100
AcDbLine
 10
1.67880463882853
 20
0.4761730086369318
 30
0.0
 11
1.614907732529029
 21
0.4761730086369318
 31
0.0
  0
LINE
  5
3EF0D9A1ECE60E5
330
3EF0D9A1ECE6101
100
AcDbEntity
  8
TEXT
100
AcDbLine
 10
1.67880463882853
 20
0.4486253587760572
 30
0.0
 11
1.67880463882853
 21
0.4761730086369318
 31
0.0
  0
ARC
  5
3EF0D9A1ECE60E6
330
3EF0D9A1ECE6101
100
AcDbEntity
  8
TEXT
100
AcDbCircle
 10
1.709997455891638
 20
0.444927281354667
 30
0.0
 40
0.0314112657011332
100
AcDbArc
 50
95.88484768694724
 51
173.2388340632136
  0
LINE
  5
3EF0D9A1ECE60E7
330
3EF0D9A1ECE6101
100
AcDbEntity
  8
TEXT
100
AcDbLine
 10
1.77427659291812
 20
0.4761730086369318
 30
0.0
 11
1.706776875268603
 21
0.4761730086369318
 31
0.0
  0
LINE
  5
3EF0D9A1ECE60E8
330
3EF0D9A1ECE6101
100
AcDbEntity
  8
TEXT
100
AcDbLine
 10
1.774276592918125
 20
0.5416372144045325
 30
0.0
 11
1.77427659291812
 21
0.4761730086369318
 31
0.0
  0
LINE
  5
3EF0D9A1ECE60E9
330
3EF0D9A1ECE6101
100
AcDbEntity
  8
TEXT
100
AcDbLine
 10
1.964681462753011
 20
0.4761730086369318
 30
0.0
 11
1.889689630023385
 21
0.4761730086369318
 31
0.0
  0
ENDSEC
  0
SECTION
  2
OBJECTS
  0
DICTIONARY
  5
3EF0D9A1ECE60F5
330
0
100
AcDbDictionary
  3
ACAD_GROUP
350
3EF0D9A1ECE60F6
  3
ACAD_LAYOUT
350
3EF0D9A1ECE611B
  3
ACAD_MLINESTYLE
350
3EF0D9A1ECE60F7
  3
ACAD_PLOTSETTINGS
350
3EF0D9A1ECE611C
  3
ACAD_PLOTSTYLENAME
350
3EF0D9A1ECE6119
  3
ACDBHEADERROUNDTRIPXREC
350
3EF0D9A1ECE6126
  3
ACDBVARIABLEDICTIONARY
350
3EF0D9A1ECE6123
  0
DICTIONARY
  5
3EF0D9A1ECE6148
330
3EF0D9A1ECE6101
100
AcDbDictionary
280
     1
  3
ACAD_LAYOUTSELFREF
360
3EF0D9A1ECE6149
  0
DICTIONARY
  5
3EF0D9A1ECE6146
330
3EF0D9A1ECE60FE
100
AcDbDictionary
280
     1
  3
ACAD_LAYOUTSELFREF
360
3EF0D9A1ECE6147
  0
DICTIONARY
  5
3EF0D9A1ECE60F6
102
{ACAD_REACTORS
330
3EF0D9A1ECE60F5
102
}
330
3EF0D9A1ECE60F5
100
AcDbDictionary
  0
DICTIONARY
  5
3EF0D9A1ECE611B
102
{ACAD_REACTORS
330
3EF0D9A1ECE60F5
102
}
330
3EF0D9A1ECE60F5
100
AcDbDictionary
  0
DICTIONARY
  5
3EF0D9A1ECE60F7
102
{ACAD_REACTORS
330
3EF0D9A1ECE60F5
102
}
330
3EF0D9A1ECE60F5
100
AcDbDictionary
  3
STANDARD
350
3EF0D9A1ECE6104
  0
DICTIONARY
  5
3EF0D9A1ECE611C
102
{ACAD_REACTORS
330
3EF0D9A1ECE60F5
102
}
330
3EF0D9A1ECE60F5
100
AcDbDictionary
  0
ACDBDICTIONARYWDFLT
  5
3EF0D9A1ECE6119
102
{ACAD_REACTORS
330
3EF0D9A1ECE60F5
102
}
330
3EF0D9A1ECE60F5
100
AcDbDictionary
281
     1
  3
Normal
350
3EF0D9A1ECE611A
100
AcDbDictionaryWithDefault
340
3EF0D9A1ECE611A
  0
DICTIONARY
  5
3EF0D9A1ECE6126
102
{ACAD_REACTORS
330
3EF0D9A1ECE60F5
102
}
330
3EF0D9A1ECE60F5
100
AcDbDictionary
  3
CEPSNTYPE
350
3EF0D9A1ECE6130
  3
FINGERPRINTGUID
350
3EF0D9A1ECE6131
  3
HYPERLINKBASE
350
3EF0D9A1ECE6129
  3
INSUNITS
350
3EF0D9A1ECE612F
  3
LAYOUTDICT
350
3EF0D9A1ECE612B
  3
LWETCUNION
350
3EF0D9A1ECE612E
  3
PLOTSETDICT
350
3EF0D9A1ECE612C
  3
PLOTSTYLNAMDICT
350
3EF0D9A1ECE612D
  3
PSVPSCALE
350
3EF0D9A1ECE6133
  3
PUCSBASE
350
3EF0D9A1ECE6136
  3
PUCSORGBACK
350
3EF0D9A1ECE613C
  3
PUCSORGBOTTOM
350
3EF0D9A1ECE6138
  3
PUCSORGFRONT
350
3EF0D9A1ECE613B
  3
PUCSORGLEFT
350
3EF0D9A1ECE6139
  3
PUCSORGRIGHT
350
3EF0D9A1ECE613A
  3
PUCSORGTOP
350
3EF0D9A1ECE6137
  3
PUCSORTHOREF
350
3EF0D9A1ECE6134
  3
PUCSORTHOVIEW
350
3EF0D9A1ECE6135
  3
STYLESHEET
350
3EF0D9A1ECE612A
  3
TSTACKALIGN
350
3EF0D9A1ECE6127
  3
TSTACKSIZE
350
3EF0D9A1ECE6128
  3
UCSBASE
350
3EF0D9A1ECE613F
  3
UCSORGBACK
350
3EF0D9A1ECE6145
  3
UCSORGBOTTOM
350
3EF0D9A1ECE6141
  3
UCSORGFRONT
350
3EF0D9A1ECE6144
  3
UCSORGLEFT
350
3EF0D9A1ECE6142
  3
UCSORGRIGHT
350
3EF0D9A1ECE6143
  3
UCSORGTOP
350
3EF0D9A1ECE6140
  3
UCSORTHOREF
350
3EF0D9A1ECE613D
  3
UCSORTHOVIEW
350
3EF0D9A1ECE613E
  3
VERSIONGUID
350
3EF0D9A1ECE6132
  0
DICTIONARY
  5
3EF0D9A1ECE6123
102
{ACAD_REACTORS
330
3EF0D9A1ECE60F5
102
}
330
3EF0D9A1ECE60F5
100
AcDbDictionary
  3
DIMASSOC
350
3EF0D9A1ECE6124
  0
XRECORD
  5
3EF0D9A1ECE6149
102
{ACAD_REACTORS
330
3EF0D9A1ECE6148
102
}
330
3EF0D9A1ECE6148
100
AcDbXrecord
340
3EF0D9A1ECE6101
  0
XRECORD
  5
3EF0D9A1ECE6147
102
{ACAD_REACTORS
330
3EF0D9A1ECE6146
102
}
330
3EF0D9A1ECE6146
100
AcDbXrecord
340
3EF0D9A1ECE60FE
  0
MLINESTYLE
  5
3EF0D9A1ECE6104
102
{ACAD_REACTORS
330
3EF0D9A1ECE60F7
102
}
330
3EF0D9A1ECE60F7
100
AcDbMlineStyle
  2
STANDARD
 70
     0
  3

 62
     0
 51
90.0
 52
90.0
 71
     2
 49
0.5
 62
   256
  6
BYLAYER
 49
-0.5
 62
   256
  6
BYLAYER
  0
ACDBPLACEHOLDER
  5
3EF0D9A1ECE611A
102
{ACAD_REACTORS
330
3EF0D9A1ECE6119
102
}
330
3EF0D9A1ECE6119
100
AcDbPlaceHolder
280
     0
  0
XRECORD
  5
3EF0D9A1ECE6130
102
{ACAD_REACTORS
330
3EF0D9A1ECE6126
102
}
330
3EF0D9A1ECE6126
100
AcDbXrecord
 90
        0
  0
XRECORD
  5
3EF0D9A1ECE6131
102
{ACAD_REACTORS
330
3EF0D9A1ECE6126
102
}
330
3EF0D9A1ECE6126
100
AcDbXrecord
  1
{055B57C0-8DB4-11D6-88E6-0090279574E7}
  0
XRECORD
  5
3EF0D9A1ECE6129
102
{ACAD_REACTORS
330
3EF0D9A1ECE6126
102
}
330
3EF0D9A1ECE6126
100
AcDbXrecord
  1

  0
XRECORD
  5
3EF0D9A1ECE612F
102
{ACAD_REACTORS
330
3EF0D9A1ECE6126
102
}
330
3EF0D9A1ECE6126
100
AcDbXrecord
 90
        0
  0
XRECORD
  5
3EF0D9A1ECE612B
102
{ACAD_REACTORS
330
3EF0D9A1ECE6126
102
}
330
3EF0D9A1ECE6126
100
AcDbXrecord
340
3EF0D9A1ECE611B
  0
XRECORD
  5
3EF0D9A1ECE612E
102
{ACAD_REACTORS
330
3EF0D9A1ECE6126
102
}
330
3EF0D9A1ECE6126
100
AcDbXrecord
 90
    14877
  0
XRECORD
  5
3EF0D9A1ECE612C
102
{ACAD_REACTORS
330
3EF0D9A1ECE6126
102
}
330
3EF0D9A1ECE6126
100
AcDbXrecord
340
3EF0D9A1ECE611C
  0
XRECORD
  5
3EF0D9A1ECE612D
102
{ACAD_REACTORS
330
3EF0D9A1ECE6126
102
}
330
3EF0D9A1ECE6126
100
AcDbXrecord
340
3EF0D9A1ECE6119
  0
XRECORD
  5
3EF0D9A1ECE6133
102
{ACAD_REACTORS
330
3EF0D9A1ECE6126
102
}
330
3EF0D9A1ECE6126
100
AcDbXrecord
 40
0.0
  0
XRECORD
  5
3EF0D9A1ECE6136
102
{ACAD_REACTORS
330
3EF0D9A1ECE6126
102
}
330
3EF0D9A1ECE6126
100
AcDbXrecord
340
0
  0
XRECORD
  5
3EF0D9A1ECE613C
102
{ACAD_REACTORS
330
3EF0D9A1ECE6126
102
}
330
3EF0D9A1ECE6126
100
AcDbXrecord
 10
0.0
 20
0.0
 30
0.0
  0
XRECORD
  5
3EF0D9A1ECE6138
102
{ACAD_REACTORS
330
3EF0D9A1ECE6126
102
}
330
3EF0D9A1ECE6126
100
AcDbXrecord
 10
0.0
 20
0.0
 30
0.0
  0
XRECORD
  5
3EF0D9A1ECE613B
102
{ACAD_REACTORS
330
3EF0D9A1ECE6126
102
}
330
3EF0D9A1ECE6126
100
AcDbXrecord
 10
0.0
 20
0.0
 30
0.0
  0
XRECORD
  5
3EF0D9A1ECE6139
102
{ACAD_REACTORS
330
3EF0D9A1ECE6126
102
}
330
3EF0D9A1ECE6126
100
AcDbXrecord
 10
0.0
 20
0.0
 30
0.0
  0
XRECORD
  5
3EF0D9A1ECE613A
102
{ACAD_REACTORS
330
3EF0D9A1ECE6126
102
}
330
3EF0D9A1ECE6126
100
AcDbXrecord
 10
0.0
 20
0.0
 30
0.0
  0
XRECORD
  5
3EF0D9A1ECE6137
102
{ACAD_REACTORS
330
3EF0D9A1ECE6126
102
}
330
3EF0D9A1ECE6126
100
AcDbXrecord
 10
0.0
 20
0.0
 30
0.0
  0
XRECORD
  5
3EF0D9A1ECE6134
102
{ACAD_REACTORS
330
3EF0D9A1ECE6126
102
}
330
3EF0D9A1ECE6126
100
AcDbXrecord
340
0
  0
XRECORD
  5
3EF0D9A1ECE6135
102
{ACAD_REACTORS
330
3EF0D9A1ECE6126
102
}
330
3EF0D9A1ECE6126
100
AcDbXrecord
 70
     0
  0
XRECORD
  5
3EF0D9A1ECE612A
102
{ACAD_REACTORS
330
3EF0D9A1ECE6126
102
}
330
3EF0D9A1ECE6126
100
AcDbXrecord
  1

  0
XRECORD
  5
3EF0D9A1ECE6127
102
{ACAD_REACTORS
330
3EF0D9A1ECE6126
102
}
330
3EF0D9A1ECE6126
100
AcDbXrecord
 90
        1
  0
XRECORD
  5
3EF0D9A1ECE6128
102
{ACAD_REACTORS
330
3EF0D9A1ECE6126
102
}
330
3EF0D9A1ECE6126
100
AcDbXrecord
 90
       70
  0
XRECORD
  5
3EF0D9A1ECE613F
102
{ACAD_REACTORS
330
3EF0D9A1ECE6126
102
}
330
3EF0D9A1ECE6126
100
AcDbXrecord
340
0
  0
XRECORD
  5
3EF0D9A1ECE6145
102
{ACAD_REACTORS
330
3EF0D9A1ECE6126
102
}
330
3EF0D9A1ECE6126
100
AcDbXrecord
 10
0.0
 20
0.0
 30
0.0
  0
XRECORD
  5
3EF0D9A1ECE6141
102
{ACAD_REACTORS
330
3EF0D9A1ECE6126
102
}
330
3EF0D9A1ECE6126
100
AcDbXrecord
 10
0.0
 20
0.0
 30
0.0
  0
XRECORD
  5
3EF0D9A1ECE6144
102
{ACAD_REACTORS
330
3EF0D9A1ECE6126
102
}
330
3EF0D9A1ECE6126
100
AcDbXrecord
 10
0.0
 20
0.0
 30
0.0
  0
XRECORD
  5
3EF0D9A1ECE6142
102
{ACAD_REACTORS
330
3EF0D9A1ECE6126
102
}
330
3EF0D9A1ECE6126
100
AcDbXrecord
 10
0.0
 20
0.0
 30
0.0
  0
XRECORD
  5
3EF0D9A1ECE6143
102
{ACAD_REACTORS
330
3EF0D9A1ECE6126
102
}
330
3EF0D9A1ECE6126
100
AcDbXrecord
 10
0.0
 20
0.0
 30
0.0
  0
XRECORD
  5
3EF0D9A1ECE6140
102
{ACAD_REACTORS
330
3EF0D9A1ECE6126
102
}
330
3EF0D9A1ECE6126
100
AcDbXrecord
 10
0.0
 20
0.0
 30
0.0
  0
XRECORD
  5
3EF0D9A1ECE613D
102
{ACAD_REACTORS
330
3EF0D9A1ECE6126
102
}
330
3EF0D9A1ECE6126
100
AcDbXrecord
340
0
  0
XRECORD
  5
3EF0D9A1ECE613E
102
{ACAD_REACTORS
330
3EF0D9A1ECE6126
102
}
330
3EF0D9A1ECE6126
100
AcDbXrecord
 70
     0
  0
XRECORD
  5
3EF0D9A1ECE6132
102
{ACAD_REACTORS
330
3EF0D9A1ECE6126
102
}
330
3EF0D9A1ECE6126
100
AcDbXrecord
  1
{055B57C2-8DB4-11D6-88E6-0090279574E7}
  0
DICTIONARYVAR
  5
3EF0D9A1ECE6124
102
{ACAD_REACTORS
330
3EF0D9A1ECE6123
102
}
330
3EF0D9A1ECE6123
100
DictionaryVariables
280
     0
  1
1
  0
ENDSEC
  0
EOF
