  0
SECTION
  2
HEADER
  9
$ACADVER
  1
AC1014
  9
$ACADMAINTVER
 70
     9
  9
$DWGCODEPAGE
  3
ANSI_1252
  9
$INSBASE
 10
1.640625
 20
1.53125
 30
0.0
  9
$EXTMIN
 10
-0.1158016894226393
 20
-0.5468172819907784
 30
0.0
  9
$EXTMAX
 10
3.369417632324488
 20
2.491566741460908
 30
0.0
  9
$LIMMIN
 10
0.0
 20
0.0
  9
$LIMMAX
 10
18.0
 20
12.0
  9
$ORTHOMODE
 70
     1
  9
$REGENMODE
 70
     1
  9
$FILLMODE
 70
     1
  9
$QTEXTMODE
 70
     0
  9
$MIRRTEXT
 70
     0
  9
$DRAGMODE
 70
     2
  9
$LTSCALE
 40
1.0
  9
$OSMODE
 70
    39
  9
$ATTMODE
 70
     1
  9
$TEXTSIZE
 40
0.125
  9
$TRACEWID
 40
0.05
  9
$TEXTSTYLE
  7
ROMANS
  9
$CLAYER
  8
0
  9
$CELTYPE
  6
BYLAYER
  9
$CECOLOR
 62
   256
  9
$CELTSCALE
 40
1.0
  9
$DELOBJ
 70
     1
  9
$DISPSILH
 70
     1
  9
$DIMSCALE
 40
1.0
  9
$DIMASZ
 40
0.125
  9
$DIMEXO
 40
0.125
  9
$DIMDLI
 40
0.375
  9
$DIMRND
 40
0.0
  9
$DIMDLE
 40
0.0
  9
$DIMEXE
 40
0.125
  9
$DIMTP
 40
0.0
  9
$DIMTM
 40
0.0
  9
$DIMTXT
 40
0.125
  9
$DIMCEN
 40
-0.125
  9
$DIMTSZ
 40
0.0
  9
$DIMTOL
 70
     0
  9
$DIMLIM
 70
     0
  9
$DIMTIH
 70
     1
  9
$DIMTOH
 70
     1
  9
$DIMSE1
 70
     0
  9
$DIMSE2
 70
     0
  9
$DIMTAD
 70
     0
  9
$DIMZIN
 70
     4
  9
$DIMBLK
  1

  9
$DIMASO
 70
     1
  9
$DIMSHO
 70
     1
  9
$DIMPOST
  1

  9
$DIMAPOST
  1

  9
$DIMALT
 70
     0
  9
$DIMALTD
 70
     2
  9
$DIMALTF
 40
25.4
  9
$DIMLFAC
 40
1.0
  9
$DIMTOFL
 70
     0
  9
$DIMTVP
 40
0.0
  9
$DIMTIX
 70
     1
  9
$DIMSOXD
 70
     0
  9
$DIMSAH
 70
     0
  9
$DIMBLK1
  1

  9
$DIMBLK2
  1

  9
$DIMSTYLE
  2
STANDARD
  9
$DIMCLRD
 70
     0
  9
$DIMCLRE
 70
     0
  9
$DIMCLRT
 70
     0
  9
$DIMTFAC
 40
1.0
  9
$DIMGAP
 40
0.09
  9
$DIMJUST
 70
     0
  9
$DIMSD1
 70
     0
  9
$DIMSD2
 70
     0
  9
$DIMTOLJ
 70
     1
  9
$DIMTZIN
 70
     4
  9
$DIMALTZ
 70
     0
  9
$DIMALTTZ
 70
     0
  9
$DIMFIT
 70
     3
  9
$DIMUPT
 70
     0
  9
$DIMUNIT
 70
     2
  9
$DIMDEC
 70
     3
  9
$DIMTDEC
 70
     3
  9
$DIMALTU
 70
     2
  9
$DIMALTTD
 70
     2
  9
$DIMTXSTY
  7
ROMANS
  9
$DIMAUNIT
 70
     0
  9
$LUNITS
 70
     2
  9
$LUPREC
 70
     3
  9
$SKETCHINC
 40
0.1
  9
$FILLETRAD
 40
0.03125
  9
$AUNITS
 70
     0
  9
$AUPREC
 70
     0
  9
$MENU
  1
ACAD
  9
$ELEVATION
 40
0.0
  9
$PELEVATION
 40
0.0
  9
$THICKNESS
 40
0.0
  9
$LIMCHECK
 70
     0
  9
$BLIPMODE
 70
     0
  9
$CHAMFERA
 40
0.0
  9
$CHAMFERB
 40
0.0
  9
$CHAMFERC
 40
0.0
  9
$CHAMFERD
 40
0.0
  9
$SKPOLY
 70
     0
  9
$TDCREATE
 40
2448994.292712731
  9
$TDUPDATE
 40
2452458.295525035
  9
$TDINDWG
 40
0.0035883796
  9
$TDUSRTIMER
 40
0.0035883796
  9
$USRTIMER
 70
     1
  9
$ANGBASE
 50
0.0
  9
$ANGDIR
 70
     0
  9
$PDMODE
 70
     0
  9
$PDSIZE
 40
0.0
  9
$PLINEWID
 40
0.0
  9
$COORDS
 70
     2
  9
$SPLFRAME
 70
     0
  9
$SPLINETYPE
 70
     6
  9
$SPLINESEGS
 70
     8
  9
$ATTDIA
 70
     0
  9
$ATTREQ
 70
     1
  9
$HANDLING
 70
 22529
  9
$HANDSEED
  5
3EF0D9A1ECE5C17
  9
$SURFTAB1
 70
     6
  9
$SURFTAB2
 70
     6
  9
$SURFTYPE
 70
     6
  9
$SURFU
 70
     6
  9
$SURFV
 70
     6
  9
$UCSNAME
  2

  9
$UCSORG
 10
0.0
 20
0.0
 30
0.0
  9
$UCSXDIR
 10
1.0
 20
0.0
 30
0.0
  9
$UCSYDIR
 10
0.0
 20
1.0
 30
0.0
  9
$PUCSNAME
  2

  9
$PUCSORG
 10
0.0
 20
0.0
 30
0.0
  9
$PUCSXDIR
 10
1.0
 20
0.0
 30
0.0
  9
$PUCSYDIR
 10
0.0
 20
1.0
 30
0.0
  9
$USERI1
 70
     0
  9
$USERI2
 70
     0
  9
$USERI3
 70
     0
  9
$USERI4
 70
     0
  9
$USERI5
 70
     0
  9
$USERR1
 40
0.0
  9
$USERR2
 40
0.0
  9
$USERR3
 40
0.0
  9
$USERR4
 40
0.0
  9
$USERR5
 40
0.0
  9
$WORLDVIEW
 70
     1
  9
$SHADEDGE
 70
     3
  9
$SHADEDIF
 70
    70
  9
$TILEMODE
 70
     1
  9
$MAXACTVP
 70
    16
  9
$PINSBASE
 10
0.1614763698330675
 20
50.00000000000001
 30
1.917682927056086
  9
$PLIMCHECK
 70
     0
  9
$PEXTMIN
 10
1.000000000000000E+20
 20
1.000000000000000E+20
 30
1.000000000000000E+20
  9
$PEXTMAX
 10
-1.000000000000000E+20
 20
-1.000000000000000E+20
 30
-1.000000000000000E+20
  9
$PLIMMIN
 10
0.0
 20
0.0
  9
$PLIMMAX
 10
12.0
 20
9.0
  9
$UNITMODE
 70
     0
  9
$VISRETAIN
 70
     0
  9
$PLINEGEN
 70
     1
  9
$PSLTSCALE
 70
     0
  9
$TREEDEPTH
 70
  3020
  9
$PICKSTYLE
 70
     1
  9
$CMLSTYLE
  2
STANDARD
  9
$CMLJUST
 70
     0
  9
$CMLSCALE
 40
1.0
  9
$PROXYGRAPHICS
 70
     1
  9
$MEASUREMENT
 70
     0
  0
ENDSEC
  0
SECTION
  2
CLASSES
  0
CLASS
  1
LWPOLYLINE
  2
AcDbPolyline
  3
AutoCAD 2000
 90
        0
280
     0
281
     1
  0
CLASS
  1
ACDBDICTIONARYWDFLT
  2
AcDbDictionaryWithDefault
  3
AutoCAD 2000
 90
        0
280
     0
281
     0
  0
CLASS
  1
ACDBPLACEHOLDER
  2
AcDbPlaceHolder
  3
AutoCAD 2000
 90
        0
280
     0
281
     0
  0
CLASS
  1
LAYOUT
  2
AcDbLayout
  3
AutoCAD 2000
 90
        0
280
     0
281
     0
  0
CLASS
  1
DICTIONARYVAR
  2
AcDbDictionaryVar
  3
AutoCAD 2000
 90
        0
280
     0
281
     0
  0
CLASS
  1
LONG_TRANSACTION
  2
AcDbLongTransaction
  3
AutoCAD 2000
 90
        0
280
     0
281
     0
  0
CLASS
  1
LWPOLYLINE
  2
AcDbPolyline
  3
AutoCAD 2000
 90
        0
280
     0
281
     1
  0
CLASS
  1
HATCH
  2
AcDbHatch
  3
AutoCAD 2000
 90
        0
280
     0
281
     1
  0
CLASS
  1
XRECORD
  2
AcDbXrecord
  3
AutoCAD 2000
 90
        0
280
     0
281
     0
  0
ENDSEC
  0
SECTION
  2
TABLES
  0
TABLE
  2
VPORT
  5
3EF0D9A1ECE5BBE
330
0
100
AcDbSymbolTable
 70
     2
  0
VPORT
  5
3EF0D9A1ECE5BF2
330
3EF0D9A1ECE5BBE
100
AcDbSymbolTableRecord
100
AcDbViewportTableRecord
  2
*ACTIVE
 70
     0
 10
0.0
 20
0.0
 11
1.0
 21
1.0
 12
6.101033460143343
 22
0.9724281723093978
 13
0.0
 23
0.0
 14
0.015625
 24
0.015625
 15
0.0
 25
0.0
 16
0.0
 26
0.0
 36
1.0
 17
0.0
 27
0.0
 37
0.0
 40
3.431127527952916
 41
4.320930232558139
 42
50.0
 43
0.0
 44
0.0
 50
0.0
 51
0.0
 71
     0
 72
  2000
 73
     1
 74
     0
 75
     1
 76
     0
 77
     0
 78
     0
  0
ENDTAB
  0
TABLE
  2
LTYPE
  5
3EF0D9A1ECE5BBB
330
0
100
AcDbSymbolTable
 70
     1
  0
LTYPE
  5
3EF0D9A1ECE5BC8
330
3EF0D9A1ECE5BBB
100
AcDbSymbolTableRecord
100
AcDbLinetypeTableRecord
  2
BYBLOCK
 70
     0
  3

 72
    65
 73
     0
 40
0.0
  0
LTYPE
  5
3EF0D9A1ECE5BC9
330
3EF0D9A1ECE5BBB
100
AcDbSymbolTableRecord
100
AcDbLinetypeTableRecord
  2
BYLAYER
 70
     0
  3

 72
    65
 73
     0
 40
0.0
  0
LTYPE
  5
3EF0D9A1ECE5BCA
330
3EF0D9A1ECE5BBB
100
AcDbSymbolTableRecord
100
AcDbLinetypeTableRecord
  2
CONTINUOUS
 70
     0
  3
Solid line
 72
    65
 73
     0
 40
0.0
  0
ENDTAB
  0
TABLE
  2
LAYER
  5
3EF0D9A1ECE5BB8
330
0
100
AcDbSymbolTable
 70
     2
  0
LAYER
  5
3EF0D9A1ECE5BC5
330
3EF0D9A1ECE5BB8
100
AcDbSymbolTableRecord
100
AcDbLayerTableRecord
  2
0
 70
     0
 62
     7
  6
CONTINUOUS
  0
LAYER
  5
3EF0D9A1ECE5BD5
330
3EF0D9A1ECE5BB8
100
AcDbSymbolTableRecord
100
AcDbLayerTableRecord
  2
TEXT
 70
     0
 62
     3
  6
CONTINUOUS
  0
ENDTAB
  0
TABLE
  2
STYLE
  5
3EF0D9A1ECE5BB9
330
0
100
AcDbSymbolTable
 70
     3
  0
STYLE
  5
3EF0D9A1ECE5BC6
330
3EF0D9A1ECE5BB9
100
AcDbSymbolTableRecord
100
AcDbTextStyleTableRecord
  2
STANDARD
 70
     0
 40
0.0
 41
1.0
 50
0.0
 71
     0
 42
0.3125
  3
txt
  4

  0
STYLE
  5
3EF0D9A1ECE5BD2
330
3EF0D9A1ECE5BB9
100
AcDbSymbolTableRecord
100
AcDbTextStyleTableRecord
  2
ITALICC
 70
     0
 40
0.0
 41
1.0
 50
0.0
 71
     0
 42
0.125
  3
italicc
  4

  0
STYLE
  5
3EF0D9A1ECE5BE2
330
3EF0D9A1ECE5BB9
100
AcDbSymbolTableRecord
100
AcDbTextStyleTableRecord
  2
ROMANS
 70
     0
 40
0.0
 41
1.0
 50
0.0
 71
     0
 42
0.125
  3
romans.shx
  4

  0
ENDTAB
  0
TABLE
  2
VIEW
  5
3EF0D9A1ECE5BBC
330
0
100
AcDbSymbolTable
 70
     0
  0
ENDTAB
  0
TABLE
  2
UCS
  5
3EF0D9A1ECE5BBD
330
0
100
AcDbSymbolTable
 70
     0
  0
ENDTAB
  0
TABLE
  2
APPID
  5
3EF0D9A1ECE5BBF
330
0
100
AcDbSymbolTable
 70
     1
  0
APPID
  5
3EF0D9A1ECE5BC7
330
3EF0D9A1ECE5BBF
100
AcDbSymbolTableRecord
100
AcDbRegAppTableRecord
  2
ACAD
 70
     0
  0
ENDTAB
  0
TABLE
  2
DIMSTYLE
  5
3EF0D9A1ECE5BC0
330
0
100
AcDbSymbolTable
 70
     1
  0
DIMSTYLE
105
3EF0D9A1ECE5BDA
330
3EF0D9A1ECE5BC0
100
AcDbSymbolTableRecord
100
AcDbDimStyleTableRecord
  2
STANDARD
 70
     0
  3

  4

  5

  6

  7

 40
1.0
 41
0.125
 42
0.125
 43
0.375
 44
0.125
 45
0.0
 46
0.0
 47
0.0
 48
0.0
140
0.125
141
-0.125
142
0.0
143
25.4
144
1.0
145
0.0
146
1.0
147
0.09
 71
     0
 72
     0
 73
     1
 74
     1
 75
     0
 76
     0
 77
     0
 78
     4
170
     0
171
     2
172
     0
173
     0
174
     1
175
     0
176
     0
177
     0
178
     0
270
     2
271
     3
272
     3
273
     2
274
     2
340
3EF0D9A1ECE5BE2
275
     0
280
     0
281
     0
282
     0
283
     1
284
     4
285
     0
286
     0
287
     3
288
     0
  0
ENDTAB
  0
TABLE
  2
BLOCK_RECORD
  5
3EF0D9A1ECE5BB7
330
0
100
AcDbSymbolTable
 70
     0
  0
BLOCK_RECORD
  5
3EF0D9A1ECE5BCE
102
{ACAD_XDICTIONARY
360
3EF0D9A1ECE5C15
102
}
330
3EF0D9A1ECE5BB7
100
AcDbSymbolTableRecord
100
AcDbBlockTableRecord
  2
*MODEL_SPACE
  0
BLOCK_RECORD
  5
3EF0D9A1ECE5BCB
102
{ACAD_XDICTIONARY
360
3EF0D9A1ECE5C13
102
}
330
3EF0D9A1ECE5BB7
100
AcDbSymbolTableRecord
100
AcDbBlockTableRecord
  2
*PAPER_SPACE
  0
ENDTAB
  0
ENDSEC
  0
SECTION
  2
BLOCKS
  0
BLOCK
  5
3EF0D9A1ECE5BD8
330
3EF0D9A1ECE5BCE
100
AcDbEntity
  8
0
100
AcDbBlockBegin
  2
*MODEL_SPACE
 70
     0
 10
0.0
 20
0.0
 30
0.0
  3
*MODEL_SPACE
  1

  0
ENDBLK
  5
3EF0D9A1ECE5BD9
330
3EF0D9A1ECE5BCE
100
AcDbEntity
  8
0
100
AcDbBlockEnd
  0
BLOCK
  5
3EF0D9A1ECE5BD6
330
3EF0D9A1ECE5BCB
100
AcDbEntity
 67
     1
  8
0
100
AcDbBlockBegin
  2
*PAPER_SPACE
 70
     0
 10
0.0
 20
0.0
 30
0.0
  3
*PAPER_SPACE
  1

  0
ENDBLK
  5
3EF0D9A1ECE5BD7
330
3EF0D9A1ECE5BCB
100
AcDbEntity
 67
     1
  8
0
100
AcDbBlockEnd
  0
ENDSEC
  0
SECTION
  2
ENTITIES
  0
LWPOLYLINE
  5
3EF0D9A1ECE4744
330
3EF0D9A1ECE5BCE
100
AcDbEntity
  8
0
100
AcDbPolyline
 90
       39
 70
     1
 43
0.0
 10
1.96875
 20
2.371538794600565
 10
1.3125
 20
2.417428264938493
 10
1.3125
 20
2.306874999999999
 10
1.3025
 20
2.296874999999999
 10
1.3125
 20
2.286875
 10
1.3125
 20
2.218749999999999
 42
-1.0
 10
1.21875
 20
2.218749999999999
 10
1.21875
 20
2.453125
 42
-0.4348123749609387
 10
1.252179889804504
 20
2.484298876570619
 10
2.002179889804503
 20
2.431853767612986
 42
-0.3939104756149435
 10
2.03125
 20
2.400679891042367
 10
2.03125
 20
0.296875
 42
-0.4142135623730951
 10
1.96875
 20
0.234375
 10
1.9375
 20
0.234375
 10
1.9375
 20
0.5993750000000003
 10
1.9475
 20
0.609375
 10
1.9375
 20
0.6193750000000003
 10
1.9375
 20
1.109375
 10
1.8125
 20
1.109375
 10
1.8125
 20
1.171875
 10
1.96875
 20
1.171875
 10
1.96875
 20
1.564386358319264
 42
0.6370702608074934
 10
1.917412887197295
 20
1.588325247166732
 10
1.355335252444342
 20
1.116686111152532
 42
-0.176326980708465
 10
1.335248139641638
 20
1.109375
 10
1.21875
 20
1.109375
 10
1.21875
 20
1.046875
 10
1.2
 20
1.046875
 42
-0.4142135623730951
 10
1.16875
 20
1.078125
 10
1.16875
 20
1.190314247075823
 42
-0.2216946626429411
 10
1.179912887197295
 20
1.214253135923291
 10
1.252238661591886
 20
1.274941666542403
 42
-1.0
 10
1.292412887197295
 20
1.227063888847467
 42
0.9999999999999973
 10
1.332587112802704
 20
1.179186111152531
 10
1.859242667446991
 20
1.621102592812019
 42
0.999999999999995
 10
1.819068441841583
 20
1.668980370506956
 42
-1.0
 10
1.778894216236174
 20
1.716858148201893
 10
1.957587112802704
 20
1.866799291804866
 42
0.2216946626429406
 10
1.96875
 20
1.890738180652335
  0
TEXT
  5
3EF0D9A1ECE5A79
330
3EF0D9A1ECE5BCE
100
AcDbEntity
  8
TEXT
100
AcDbText
 10
0.8861084612330749
 20
-0.0887986779081969
 30
0.0
 40
0.125
  1
PART #110111
  7
ITALICC
 72
     1
 11
1.627179889804503
 21
-0.0887986779081969
 31
0.0
100
AcDbText
  0
TEXT
  5
3EF0D9A1ECE5A7A
330
3EF0D9A1ECE5BCE
100
AcDbEntity
  8
TEXT
100
AcDbText
 10
2.040485048054824
 20
-0.535721320580572
 30
0.0
 40
0.0522247191011236
  1
Phone  1-800-328-2495
 41
1.272321428571429
 72
     5
 11
3.369417632324488
 21
-0.535721320580572
 31
0.0
100
AcDbText
  0
TEXT
  5
3EF0D9A1ECE5A7B
330
3EF0D9A1ECE5BCE
100
AcDbEntity
  8
TEXT
100
AcDbText
 10
2.040485048054824
 20
-0.2559460396816955
 30
0.0
 40
0.0522247191011236
  1
Stylmark  Incorporated
 41
1.221428571428573
 72
     5
 11
3.369417632324488
 21
-0.2559460396816955
 31
0.0
100
AcDbText
  0
TEXT
  5
3EF0D9A1ECE5A7C
330
3EF0D9A1ECE5BCE
100
AcDbEntity
  8
TEXT
100
AcDbText
 10
2.040485048054824
 20
-0.3492044666479876
 30
0.0
 40
0.0522247191011236
  1
6536 Main St. N.E. * P.O. Box 32008
 41
0.8388932496075366
 72
     5
 11
3.369417632324488
 21
-0.3492044666479876
 31
0.0
100
AcDbText
  0
TEXT
  5
3EF0D9A1ECE5A7D
330
3EF0D9A1ECE5BCE
100
AcDbEntity
  8
TEXT
100
AcDbText
 10
2.040485048054824
 20
-0.4424628936142799
 30
0.0
 40
0.0522247191011236
  1
Minneapolis, MN 55432-0008
 41
1.11444212721585
 72
     5
 11
3.369417632324488
 21
-0.4424628936142799
 31
0.0
100
AcDbText
  0
LWPOLYLINE
  5
3EF0D9A1ECE5A7E
330
3EF0D9A1ECE5BCE
100
AcDbEntity
  8
TEXT
100
AcDbPolyline
 90
        3
 70
     0
 43
0.0006660908203125
 10
-0.115468644012483
 20
-0.4220765579431372
 10
-0.115468644012483
 20
-0.5353119973962648
 10
-0.0022332045593607
 20
-0.5353119973962648
  0
LWPOLYLINE
  5
3EF0D9A1ECE5A83
330
3EF0D9A1ECE5BCE
100
AcDbEntity
  8
TEXT
100
AcDbPolyline
 90
        3
 70
     0
 43
0.0006660908203125
 10
-0.0888250111999856
 20
-0.4220765579431372
 10
-0.0888250111999856
 20
-0.5086683645837638
 10
-0.0022332045593607
 20
-0.5086683645837638
  0
LWPOLYLINE
  5
3EF0D9A1ECE5A88
330
3EF0D9A1ECE5BCE
100
AcDbEntity
  8
TEXT
100
AcDbPolyline
 90
        2
 70
     0
 43
0.0001332181640625
 10
-0.0421986537781087
 20
-0.412085195638452
 10
-0.115468644012483
 20
-0.4220765579431372
  0
LWPOLYLINE
  5
3EF0D9A1ECE5A8C
330
3EF0D9A1ECE5BCE
100
AcDbEntity
  8
TEXT
100
AcDbPolyline
 90
        2
 70
     0
 43
0.0001332181640625
 10
-0.0888250111999856
 20
-0.4220765579431372
 10
-0.0288768373718582
 20
-0.412085195638452
  0
LWPOLYLINE
  5
3EF0D9A1ECE5A90
330
3EF0D9A1ECE5BCE
100
AcDbEntity
  8
TEXT
100
AcDbPolyline
 90
        2
 70
     0
 43
0.0001332181640625
 10
-0.0888250111999856
 20
-0.5086683645837638
 10
-0.0288768373718582
 20
-0.4487201907556382
  0
LWPOLYLINE
  5
3EF0D9A1ECE5A94
330
3EF0D9A1ECE5BCE
100
AcDbEntity
  8
TEXT
100
AcDbPolyline
 90
        3
 70
     0
 43
0.0006660908203125
 10
-0.0022332045593607
 20
-0.2688756692712615
 10
-0.115468644012483
 20
-0.2688756692712615
 10
-0.115468644012483
 20
-0.3821111087243891
  0
LWPOLYLINE
  5
3EF0D9A1ECE5A99
330
3EF0D9A1ECE5BCE
100
AcDbEntity
  8
TEXT
100
AcDbPolyline
 90
        3
 70
     0
 43
0.0006660908203125
 10
-0.0022332045593607
 20
-0.2955193020837625
 10
-0.0888250111999856
 20
-0.2955193020837625
 10
-0.0888250111999856
 20
-0.3821111087243891
  0
LWPOLYLINE
  5
3EF0D9A1ECE5A9E
330
3EF0D9A1ECE5BCE
100
AcDbEntity
  8
TEXT
100
AcDbPolyline
 90
        2
 70
     0
 43
0.0001332181640625
 10
-0.0888250111999856
 20
-0.2955193020837625
 10
-0.02887683737186
 20
-0.3554674759118881
  0
LWPOLYLINE
  5
3EF0D9A1ECE5AA2
330
3EF0D9A1ECE5BCE
100
AcDbEntity
  8
TEXT
100
AcDbPolyline
 90
        2
 70
     0
 43
0.0001332181640625
 10
-0.0888250111999856
 20
-0.3821111087243891
 10
-0.02887683737186
 20
-0.3921024710290779
  0
LWPOLYLINE
  5
3EF0D9A1ECE5AA6
330
3EF0D9A1ECE5BCE
100
AcDbEntity
  8
TEXT
100
AcDbPolyline
 90
        2
 70
     0
 43
0.0001332181640625
 10
-0.115468644012483
 20
-0.3821111087243891
 10
-0.0421986537781087
 20
-0.3921024710290779
  0
LWPOLYLINE
  5
3EF0D9A1ECE5AAA
330
3EF0D9A1ECE5BCE
100
AcDbEntity
  8
TEXT
100
AcDbPolyline
 90
        2
 70
     0
 43
0.0006660908203125
 10
-0.0888250111999856
 20
-0.4220765579431372
 10
-0.115468644012483
 20
-0.4220765579431372
  0
LWPOLYLINE
  5
3EF0D9A1ECE5AAE
330
3EF0D9A1ECE5BCE
100
AcDbEntity
  8
TEXT
100
AcDbPolyline
 90
        2
 70
     0
 43
0.0006660908203125
 10
-0.0888250111999856
 20
-0.3821111087243891
 10
-0.115468644012483
 20
-0.3821111087243891
  0
LINE
  5
3EF0D9A1ECE5AB2
330
3EF0D9A1ECE5BCE
100
AcDbEntity
  8
TEXT
100
AcDbLine
 10
1.399721785114014
 20
-0.3331523639280305
 30
0.0
 11
1.292515511726725
 21
-0.3331523639280305
 31
0.0
  0
LINE
  5
3EF0D9A1ECE5AB3
330
3EF0D9A1ECE5BCE
100
AcDbEntity
  8
TEXT
100
AcDbLine
 10
1.428752683458492
 20
-0.268875669271265
 30
0.0
 11
1.293920774241433
 21
-0.268875669271265
 31
0.0
  0
ARC
  5
3EF0D9A1ECE5AB4
330
3EF0D9A1ECE5BCE
100
AcDbEntity
  8
TEXT
100
AcDbCircle
 10
1.35323487063475
 20
-0.4381129185342814
 30
0.0
 40
0.0676855811441166
100
AcDbArc
 50
90.0
 51
153.7768192527749
  0
LWPOLYLINE
  5
3EF0D9A1ECE5AB5
330
3EF0D9A1ECE5BCE
100
AcDbEntity
  8
TEXT
100
AcDbPolyline
 90
        2
 70
     0
 43
0.0
 10
1.291483016271915
 20
-0.4918577573093379
 42
0.2901071551932823
 10
1.33455894913955
 20
-0.5353487022597761
 42
5.328517124445801
  0
ARC
  5
3EF0D9A1ECE5AB9
330
3EF0D9A1ECE5BCE
100
AcDbEntity
  8
TEXT
100
AcDbCircle
 10
0.648103492963265
 20
-0.4755563109217263
 30
0.0
 40
0.0601160179737537
100
AcDbArc
 50
180.0000000000003
 51
264.0521544866073
  0
LINE
  5
3EF0D9A1ECE5ABA
330
3EF0D9A1ECE5BCE
100
AcDbEntity
  8
TEXT
100
AcDbLine
 10
0.6516188485888128
 20
-0.2344877516771269
 30
0.0
 11
0.5915762437448058
 21
-0.2344877516771269
 31
0.0
  0
ARC
  5
3EF0D9A1ECE5ABB
330
3EF0D9A1ECE5BCE
100
AcDbEntity
  8
TEXT
100
AcDbCircle
 10
0.4158444908462944
 20
-0.3509631287177668
 30
0.0
 40
0.0820874594465043
100
AcDbArc
 50
90.0
 51
270.0
  0
LWPOLYLINE
  5
3EF0D9A1ECE5ABC
330
3EF0D9A1ECE5BCE
100
AcDbEntity
  8
TEXT
100
AcDbPolyline
 90
        2
 70
     0
 43
0.0001332181640625
 10
0.0077581577453298
 20
-0.3421456595056411
 10
-0.0022332045593607
 20
-0.2688756692712615
  0
LWPOLYLINE
  5
3EF0D9A1ECE5AC0
330
3EF0D9A1ECE5BCE
100
AcDbEntity
  8
TEXT
100
AcDbPolyline
 90
        2
 70
     0
 43
0.0001332181640625
 10
-0.0022332045593607
 20
-0.2955193020837625
 10
0.0077581577453298
 20
-0.3554674759118881
  0
LWPOLYLINE
  5
3EF0D9A1ECE5AC4
330
3EF0D9A1ECE5BCE
100
AcDbEntity
  8
TEXT
100
AcDbPolyline
 90
        3
 70
     0
 43
0.0006660908203125
 10
0.1509676841125167
 20
-0.3821111087243891
 10
0.1509676841125167
 20
-0.2688756692712615
 10
0.0377322446593909
 20
-0.2688756692712615
  0
LWPOLYLINE
  5
3EF0D9A1ECE5AC9
330
3EF0D9A1ECE5BCE
100
AcDbEntity
  8
TEXT
100
AcDbPolyline
 90
        3
 70
     0
 43
0.0006660908203125
 10
0.1243240513000157
 20
-0.3821111087243891
 10
0.1243240513000157
 20
-0.2955193020837625
 10
0.0377322446593909
 20
-0.2955193020837625
  0
LWPOLYLINE
  5
3EF0D9A1ECE5ACE
330
3EF0D9A1ECE5BCE
100
AcDbEntity
  8
TEXT
100
AcDbPolyline
 90
        2
 70
     0
 43
0.0001332181640625
 10
0.1243240513000157
 20
-0.2955193020837625
 10
0.0643758774718919
 20
-0.3554674759118881
  0
LWPOLYLINE
  5
3EF0D9A1ECE5AD2
330
3EF0D9A1ECE5BCE
100
AcDbEntity
  8
TEXT
100
AcDbPolyline
 90
        2
 70
     0
 43
0.0001332181640625
 10
0.0377322446593909
 20
-0.2955193020837625
 10
0.0277408823547021
 20
-0.3554674759118881
  0
LWPOLYLINE
  5
3EF0D9A1ECE5AD6
330
3EF0D9A1ECE5BCE
100
AcDbEntity
  8
TEXT
100
AcDbPolyline
 90
        2
 70
     0
 43
0.0001332181640625
 10
0.0377322446593909
 20
-0.2688756692712615
 10
0.0277408823547021
 20
-0.3421456595056411
  0
LWPOLYLINE
  5
3EF0D9A1ECE5ADA
330
3EF0D9A1ECE5BCE
100
AcDbEntity
  8
TEXT
100
AcDbPolyline
 90
        2
 70
     0
 43
0.0001332181640625
 10
0.0776976938781406
 20
-0.3921024710290779
 10
0.1509676841125167
 20
-0.3821111087243891
  0
LWPOLYLINE
  5
3EF0D9A1ECE5ADE
330
3EF0D9A1ECE5BCE
100
AcDbEntity
  8
TEXT
100
AcDbPolyline
 90
        2
 70
     0
 43
0.0001332181640625
 10
0.1243240513000157
 20
-0.3821111087243891
 10
0.0643758774718919
 20
-0.3921024710290779
  0
LWPOLYLINE
  5
3EF0D9A1ECE5AE2
330
3EF0D9A1ECE5BCE
100
AcDbEntity
  8
TEXT
100
AcDbPolyline
 90
        2
 70
     0
 43
0.0001332181640625
 10
0.1509676841125167
 20
-0.4220765579431372
 10
0.0776976938781406
 20
-0.412085195638452
  0
LWPOLYLINE
  5
3EF0D9A1ECE5AE6
330
3EF0D9A1ECE5BCE
100
AcDbEntity
  8
TEXT
100
AcDbPolyline
 90
        2
 70
     0
 43
0.0001332181640625
 10
0.1243240513000157
 20
-0.4220765579431372
 10
0.0643758774718919
 20
-0.412085195638452
  0
LWPOLYLINE
  5
3EF0D9A1ECE5AEA
330
3EF0D9A1ECE5BCE
100
AcDbEntity
  8
TEXT
100
AcDbPolyline
 90
        2
 70
     0
 43
0.0001332181640625
 10
0.1243240513000157
 20
-0.5086683645837638
 10
0.0643758774718919
 20
-0.4487201907556382
  0
LWPOLYLINE
  5
3EF0D9A1ECE5AEE
330
3EF0D9A1ECE5BCE
100
AcDbEntity
  8
TEXT
100
AcDbPolyline
 90
        3
 70
     0
 43
0.0006660908203125
 10
0.0377322446593909
 20
-0.5086683645837638
 10
0.1243240513000157
 20
-0.5086683645837638
 10
0.1243240513000157
 20
-0.4220765579431372
  0
LWPOLYLINE
  5
3EF0D9A1ECE5AF3
330
3EF0D9A1ECE5BCE
100
AcDbEntity
  8
TEXT
100
AcDbPolyline
 90
        3
 70
     0
 43
0.0006660908203125
 10
0.0377322446593909
 20
-0.5353119973962648
 10
0.1509676841125167
 20
-0.5353119973962648
 10
0.1509676841125167
 20
-0.4220765579431372
  0
LWPOLYLINE
  5
3EF0D9A1ECE5AF8
330
3EF0D9A1ECE5BCE
100
AcDbEntity
  8
TEXT
100
AcDbPolyline
 90
        5
 70
     0
 43
0.0001332181640625
 10
0.0077581577453298
 20
-0.4620420071618887
 10
0.0077581577453298
 20
-0.4487201907556382
 10
-0.0288768373718582
 20
-0.4487201907556382
 10
-0.0288768373718582
 20
-0.412085195638452
 10
-0.0421986537781087
 20
-0.412085195638452
  0
LWPOLYLINE
  5
3EF0D9A1ECE5AFF
330
3EF0D9A1ECE5BCE
100
AcDbEntity
  8
TEXT
100
AcDbPolyline
 90
        2
 70
     0
 43
0.0006660908203125
 10
-0.0022332045593607
 20
-0.5086683645837638
 10
-0.0022332045593607
 20
-0.5353119973962648
  0
LWPOLYLINE
  5
3EF0D9A1ECE5B03
330
3EF0D9A1ECE5BCE
100
AcDbEntity
  8
TEXT
100
AcDbPolyline
 90
        2
 70
     0
 43
0.0001332181640625
 10
-0.0022332045593607
 20
-0.5086683645837638
 10
0.0077581577453298
 20
-0.4487201907556382
  0
LWPOLYLINE
  5
3EF0D9A1ECE5B07
330
3EF0D9A1ECE5BCE
100
AcDbEntity
  8
TEXT
100
AcDbPolyline
 90
        2
 70
     0
 43
0.0001332181640625
 10
-0.0022332045593607
 20
-0.5353119973962648
 10
0.0077581577453298
 20
-0.4620420071618887
  0
LWPOLYLINE
  5
3EF0D9A1ECE5B0B
330
3EF0D9A1ECE5BCE
100
AcDbEntity
  8
TEXT
100
AcDbPolyline
 90
        5
 70
     0
 43
0.0001332181640625
 10
-0.0421986537781087
 20
-0.3921024710290779
 10
-0.02887683737186
 20
-0.3921024710290779
 10
-0.02887683737186
 20
-0.3554674759118881
 10
0.0077581577453298
 20
-0.3554674759118881
 10
0.0077581577453298
 20
-0.3421456595056411
  0
LWPOLYLINE
  5
3EF0D9A1ECE5B12
330
3EF0D9A1ECE5BCE
100
AcDbEntity
  8
TEXT
100
AcDbPolyline
 90
        5
 70
     0
 43
0.0001332181640625
 10
0.0277408823547021
 20
-0.3421456595056411
 10
0.0277408823547021
 20
-0.3554674759118881
 10
0.0643758774718919
 20
-0.3554674759118881
 10
0.0643758774718919
 20
-0.3921024710290779
 10
0.0776976938781406
 20
-0.3921024710290779
  0
LWPOLYLINE
  5
3EF0D9A1ECE5B19
330
3EF0D9A1ECE5BCE
100
AcDbEntity
  8
TEXT
100
AcDbPolyline
 90
        2
 70
     0
 43
0.0001332181640625
 10
0.0377322446593909
 20
-0.5086683645837638
 10
0.0277408823547021
 20
-0.4487201907556382
  0
LWPOLYLINE
  5
3EF0D9A1ECE5B1D
330
3EF0D9A1ECE5BCE
100
AcDbEntity
  8
TEXT
100
AcDbPolyline
 90
        2
 70
     0
 43
0.0001332181640625
 10
0.0277408823547021
 20
-0.4620420071618887
 10
0.0377322446593909
 20
-0.5353119973962648
  0
LWPOLYLINE
  5
3EF0D9A1ECE5B21
330
3EF0D9A1ECE5BCE
100
AcDbEntity
  8
TEXT
100
AcDbPolyline
 90
        2
 70
     0
 43
0.0006660908203125
 10
0.0377322446593909
 20
-0.5086683645837638
 10
0.0377322446593909
 20
-0.5353119973962648
  0
LWPOLYLINE
  5
3EF0D9A1ECE5B25
330
3EF0D9A1ECE5BCE
100
AcDbEntity
  8
TEXT
100
AcDbPolyline
 90
        5
 70
     0
 43
0.0001332181640625
 10
0.0776976938781406
 20
-0.412085195638452
 10
0.0643758774718919
 20
-0.412085195638452
 10
0.0643758774718919
 20
-0.4487201907556382
 10
0.0277408823547021
 20
-0.4487201907556382
 10
0.0277408823547021
 20
-0.4620420071618887
  0
LWPOLYLINE
  5
3EF0D9A1ECE5B2C
330
3EF0D9A1ECE5BCE
100
AcDbEntity
  8
TEXT
100
AcDbPolyline
 90
        2
 70
     0
 43
0.0006660908203125
 10
0.1243240513000157
 20
-0.3821111087243891
 10
0.1509676841125167
 20
-0.3821111087243891
  0
LWPOLYLINE
  5
3EF0D9A1ECE5B30
330
3EF0D9A1ECE5BCE
100
AcDbEntity
  8
TEXT
100
AcDbPolyline
 90
        2
 70
     0
 43
0.0006660908203125
 10
0.1243240513000157
 20
-0.4220765579431372
 10
0.1509676841125167
 20
-0.4220765579431372
  0
LINE
  5
3EF0D9A1ECE5B34
330
3EF0D9A1ECE5BCE
100
AcDbEntity
  8
TEXT
100
AcDbLine
 10
0.4210818209605416
 20
-0.3331523639280305
 30
0.0
 11
0.5879874749895129
 21
-0.3331523639280305
 31
0.0
  0
LINE
  5
3EF0D9A1ECE5B35
330
3EF0D9A1ECE5BCE
100
AcDbEntity
  8
TEXT
100
AcDbLine
 10
0.4866819572048426
 20
-0.3689570855386584
 30
0.0
 11
0.4210818209605416
 21
-0.3689570855386584
 31
0.0
  0
LINE
  5
3EF0D9A1ECE5B36
330
3EF0D9A1ECE5BCE
100
AcDbEntity
  8
TEXT
100
AcDbLine
 10
0.33375703139979
 20
-0.5353487022597761
 30
0.0
 11
0.4866819572048426
 21
-0.5353487022597761
 31
0.0
  0
LINE
  5
3EF0D9A1ECE5B37
330
3EF0D9A1ECE5BCE
100
AcDbEntity
  8
TEXT
100
AcDbLine
 10
0.4916223311111223
 20
-0.4669916959263368
 30
0.0
 11
0.3337570313997882
 21
-0.4669916959263368
 31
0.0
  0
LINE
  5
3EF0D9A1ECE5B38
330
3EF0D9A1ECE5BCE
100
AcDbEntity
  8
TEXT
100
AcDbLine
 10
0.4158444908462935
 20
-0.4330505881642721
 30
0.0
 11
0.4916223311111223
 21
-0.4330505881642721
 31
0.0
  0
ARC
  5
3EF0D9A1ECE5B39
330
3EF0D9A1ECE5BCE
100
AcDbEntity
  8
TEXT
100
AcDbCircle
 10
0.4210818209605425
 20
-0.3510547247333426
 30
0.0
 40
0.017902360805315
100
AcDbArc
 50
90.0
 51
270.0
  0
LINE
  5
3EF0D9A1ECE5B3A
330
3EF0D9A1ECE5BCE
100
AcDbEntity
  8
TEXT
100
AcDbLine
 10
0.3337570313997882
 20
-0.4669916959263368
 30
0.0
 11
0.33375703139979
 21
-0.5353487022597761
 31
0.0
  0
LINE
  5
3EF0D9A1ECE5B3B
330
3EF0D9A1ECE5BCE
100
AcDbEntity
  8
TEXT
100
AcDbLine
 10
0.5879874749895129
 20
-0.3331523639280305
 30
0.0
 11
0.5879874749895129
 21
-0.4755563109217263
 31
0.0
  0
ARC
  5
3EF0D9A1ECE5B3C
330
3EF0D9A1ECE5BCE
100
AcDbEntity
  8
TEXT
100
AcDbCircle
 10
0.4866819572048435
 20
-0.452152893899219
 30
0.0
 40
0.0831958083605586
100
AcDbArc
 50
270.0
 51
90.0
  0
ARC
  5
3EF0D9A1ECE5B3D
330
3EF0D9A1ECE5BCE
100
AcDbEntity
  8
TEXT
100
AcDbCircle
 10
0.4916223311111232
 20
-0.4500211420453027
 30
0.0
 40
0.0169705538810321
100
AcDbArc
 50
270.0
 51
90.0
  0
LWPOLYLINE
  5
3EF0D9A1ECE5B3E
330
3EF0D9A1ECE5BCE
100
AcDbEntity
  8
TEXT
100
AcDbPolyline
 90
        2
 70
     0
 43
0.0006660908203125
 10
-0.0022332045593607
 20
-0.2955193020837625
 10
-0.0022332045593607
 20
-0.2688756692712615
  0
LWPOLYLINE
  5
3EF0D9A1ECE5B42
330
3EF0D9A1ECE5BCE
100
AcDbEntity
  8
TEXT
100
AcDbPolyline
 90
        2
 70
     0
 43
0.0006660908203125
 10
0.0377322446593909
 20
-0.2955193020837625
 10
0.0377322446593909
 20
-0.2688756692712615
  0
LINE
  5
3EF0D9A1ECE5B46
330
3EF0D9A1ECE5BCE
100
AcDbEntity
  8
TEXT
100
AcDbLine
 10
0.5915762437448058
 20
-0.268875669271265
 30
0.0
 11
0.4158444908462935
 21
-0.268875669271265
 31
0.0
  0
LINE
  5
3EF0D9A1ECE5B47
330
3EF0D9A1ECE5BCE
100
AcDbEntity
  8
TEXT
100
AcDbLine
 10
0.5915762437448058
 20
-0.2344877516771269
 30
0.0
 11
0.5915762437448058
 21
-0.268875669271265
 31
0.0
  0
LINE
  5
3EF0D9A1ECE5B48
330
3EF0D9A1ECE5BCE
100
AcDbEntity
  8
TEXT
100
AcDbLine
 10
0.782048135764658
 20
-0.3697476653843856
 30
0.0
 11
0.7234178147327201
 21
-0.268875669271265
 31
0.0
  0
LINE
  5
3EF0D9A1ECE5B49
330
3EF0D9A1ECE5BCE
100
AcDbEntity
  8
TEXT
100
AcDbLine
 10
0.8407966985705234
 20
-0.268875669271265
 30
0.0
 11
0.782048135764658
 21
-0.3697476653843856
 31
0.0
  0
LINE
  5
3EF0D9A1ECE5B4A
330
3EF0D9A1ECE5BCE
100
AcDbEntity
  8
TEXT
100
AcDbLine
 10
0.9377273239302647
 20
-0.4529608641567769
 30
0.0
 11
0.9377273239302647
 21
-0.2008641915324545
 31
0.0
  0
LINE
  5
3EF0D9A1ECE5B4B
330
3EF0D9A1ECE5BCE
100
AcDbEntity
  8
TEXT
100
AcDbLine
 10
0.9700391780679249
 20
-0.268875669271265
 30
0.0
 11
0.9700391780679249
 21
-0.4697398760036733
 31
0.0
  0
LINE
  5
3EF0D9A1ECE5B4C
330
3EF0D9A1ECE5BCE
100
AcDbEntity
  8
TEXT
100
AcDbLine
 10
0.9700391780679249
 20
-0.4697398760036733
 30
0.0
 11
0.9530455411833235
 21
-0.4697398760036733
 31
0.0
  0
LINE
  5
3EF0D9A1ECE5B4D
330
3EF0D9A1ECE5BCE
100
AcDbEntity
  8
TEXT
100
AcDbLine
 10
0.9388668974264595
 20
-0.5353487022597761
 30
0.0
 11
1.036870231125894
 21
-0.5353487022597761
 31
0.0
  0
LINE
  5
3EF0D9A1ECE5B4E
330
3EF0D9A1ECE5BCE
100
AcDbEntity
  8
TEXT
100
AcDbLine
 10
0.7724478987677037
 20
-0.5153901961547632
 30
0.0
 11
0.8697476048611482
 21
-0.351039985219495
 31
0.0
  0
ARC
  5
3EF0D9A1ECE5B4F
330
3EF0D9A1ECE5BCE
100
AcDbEntity
  8
TEXT
100
AcDbCircle
 10
0.7384043388554897
 20
-0.4958009799860803
 30
0.0
 40
0.0392772371940762
100
AcDbArc
 50
270.1604552698595
 51
330.0831797321295
  0
LINE
  5
3EF0D9A1ECE5B50
330
3EF0D9A1ECE5BCE
100
AcDbEntity
  8
TEXT
100
AcDbLine
 10
0.6418740824696185
 20
-0.5353487022597761
 30
0.0
 11
0.7385143335446129
 21
-0.5350780631614938
 31
0.0
  0
LWPOLYLINE
  5
3EF0D9A1ECE5B51
330
3EF0D9A1ECE5BCE
100
AcDbEntity
  8
TEXT
100
AcDbPolyline
 90
        6
 70
     1
 43
0.0
 10
0.6843978860447681
 20
-0.3331523639280305
 10
0.65408129182456
 20
-0.3331523639280305
 10
0.65408129182456
 20
-0.4562633619829249
 42
0.407328721240804
 10
0.6656249429860364
 20
-0.4680822766593109
 10
0.7262466420307672
 20
-0.4680822766593109
 10
0.7437119824380851
 20
-0.4352700476158318
  0
LINE
  5
3EF0D9A1ECE5B59
330
3EF0D9A1ECE5BCE
100
AcDbEntity
  8
TEXT
100
AcDbLine
 10
0.8697476048611482
 20
-0.351039985219495
 30
0.0
 11
0.8697476048611482
 21
-0.4837973600448513
 31
0.0
  0
ARC
  5
3EF0D9A1ECE5B5A
330
3EF0D9A1ECE5BCE
100
AcDbEntity
  8
TEXT
100
AcDbCircle
 10
0.9530455411833218
 20
-0.4543580697602479
 30
0.0
 40
0.0153818062434269
100
AcDbArc
 50
174.7883570302258
 51
270.0
  0
LWPOLYLINE
  5
3EF0D9A1ECE5B5B
330
3EF0D9A1ECE5BCE
100
AcDbEntity
  8
TEXT
100
AcDbPolyline
 90
        2
 70
     0
 43
0.0
 10
0.8697476048611465
 20
-0.4837973600448478
 42
0.3318488747599744
 10
0.9388668974264595
 20
-0.5353487022597761
 42
-6.868794160588311
  0
LINE
  5
3EF0D9A1ECE5B5F
330
3EF0D9A1ECE5BCE
100
AcDbEntity
  8
TEXT
100
AcDbLine
 10
1.094259300115155
 20
-0.5353487022597761
 30
0.0
 11
1.161317346896995
 21
-0.5353487022597761
 31
0.0
  0
LINE
  5
3EF0D9A1ECE5B60
330
3EF0D9A1ECE5BCE
100
AcDbEntity
  8
TEXT
100
AcDbLine
 10
1.094259300115155
 20
-0.3407061530941404
 30
0.0
 11
1.094259300115155
 21
-0.5353487022597761
 31
0.0
  0
LINE
  5
3EF0D9A1ECE5B61
330
3EF0D9A1ECE5BCE
100
AcDbEntity
  8
TEXT
100
AcDbLine
 10
1.036870231125894
 20
-0.3331523639280305
 30
0.0
 11
1.086705510949041
 21
-0.3331523639280305
 31
0.0
  0
LINE
  5
3EF0D9A1ECE5B62
330
3EF0D9A1ECE5BCE
100
AcDbEntity
  8
TEXT
100
AcDbLine
 10
1.036870231125894
 20
-0.5353487022597761
 30
0.0
 11
1.036870231125894
 21
-0.3331523639280305
 31
0.0
  0
LWPOLYLINE
  5
3EF0D9A1ECE5B63
330
3EF0D9A1ECE5BCE
100
AcDbEntity
  8
TEXT
100
AcDbPolyline
 90
        2
 70
     0
 43
0.0
 10
1.086705510949039
 20
-0.3331523639280305
 42
-0.4142135623731017
 10
1.094259300115153
 20
-0.3407061530941404
 42
-0.9999999999999998
  0
LINE
  5
3EF0D9A1ECE5B67
330
3EF0D9A1ECE5BCE
100
AcDbEntity
  8
TEXT
100
AcDbLine
 10
1.292515511726725
 20
-0.3331523639280305
 30
0.0
 11
1.292515511726725
 21
-0.4082047700022371
 31
0.0
  0
LINE
  5
3EF0D9A1ECE5B68
330
3EF0D9A1ECE5BCE
100
AcDbEntity
  8
TEXT
100
AcDbLine
 10
1.161317346896995
 20
-0.3331523639280305
 30
0.0
 11
1.215450943817945
 21
-0.3331523639280305
 31
0.0
  0
LINE
  5
3EF0D9A1ECE5B69
330
3EF0D9A1ECE5BCE
100
AcDbEntity
  8
TEXT
100
AcDbLine
 10
1.161317346896995
 20
-0.5353487022597761
 30
0.0
 11
1.161317346896995
 21
-0.3331523639280305
 31
0.0
  0
LWPOLYLINE
  5
3EF0D9A1ECE5B6A
330
3EF0D9A1ECE5BCE
100
AcDbEntity
  8
TEXT
100
AcDbPolyline
 90
        2
 70
     0
 43
0.0
 10
1.215450943817943
 20
-0.3331523639280305
 42
-0.4142135623731017
 10
1.223004732984057
 20
-0.3407061530941404
 42
-0.9999999999999998
  0
LWPOLYLINE
  5
3EF0D9A1ECE5B6E
330
3EF0D9A1ECE5BCE
100
AcDbEntity
  8
TEXT
100
AcDbPolyline
 90
        4
 70
     0
 43
0.0
 10
1.223004732984057
 20
-0.3407061530941404
 10
1.223004732984057
 20
-0.5353487022597761
 10
1.291483016271915
 20
-0.5353487022597761
 10
1.291483016271915
 20
-0.4918577573093379
 42
-1.714843617202739
  0
LINE
  5
3EF0D9A1ECE5B74
330
3EF0D9A1ECE5BCE
100
AcDbEntity
  8
TEXT
100
AcDbLine
 10
0.6516188485888128
 20
-0.268875669271265
 30
0.0
 11
0.6516188485888128
 21
-0.2344877516771269
 31
0.0
  0
LINE
  5
3EF0D9A1ECE5B75
330
3EF0D9A1ECE5BCE
100
AcDbEntity
  8
TEXT
100
AcDbLine
 10
0.7234178147327201
 20
-0.268875669271265
 30
0.0
 11
0.6516188485888128
 21
-0.268875669271265
 31
0.0
  0
LINE
  5
3EF0D9A1ECE5B76
330
3EF0D9A1ECE5BCE
100
AcDbEntity
  8
TEXT
100
AcDbLine
 10
0.8709186113638997
 20
-0.268875669271265
 30
0.0
 11
0.8407966985705234
 21
-0.268875669271265
 31
0.0
  0
LINE
  5
3EF0D9A1ECE5B77
330
3EF0D9A1ECE5BCE
100
AcDbEntity
  8
TEXT
100
AcDbLine
 10
0.8709186113638997
 20
-0.2008641915324545
 30
0.0
 11
0.8709186113638997
 21
-0.268875669271265
 31
0.0
  0
LINE
  5
3EF0D9A1ECE5B78
330
3EF0D9A1ECE5BCE
100
AcDbEntity
  8
TEXT
100
AcDbLine
 10
0.9377273239302647
 20
-0.2008641915324545
 30
0.0
 11
0.8709186113638997
 21
-0.2008641915324545
 31
0.0
  0
LWPOLYLINE
  5
3EF0D9A1ECE5B79
330
3EF0D9A1ECE5BCE
100
AcDbEntity
  8
TEXT
100
AcDbPolyline
 90
        3
 70
     0
 43
0.0
 10
1.258139083528267
 20
-0.2688756692712615
 10
1.139838924712222
 20
-0.2688756692712615
 10
1.139838924712222
 20
-0.2960431660321574
 42
-1.960274751411753
  0
LINE
  5
3EF0D9A1ECE5B7E
330
3EF0D9A1ECE5BCE
100
AcDbEntity
  8
TEXT
100
AcDbLine
 10
1.104057233999061
 20
-0.268875669271265
 30
0.0
 11
0.9700391780679249
 21
-0.268875669271265
 31
0.0
  0
LWPOLYLINE
  5
3EF0D9A1ECE5B7F
330
3EF0D9A1ECE5BCE
100
AcDbEntity
  8
TEXT
100
AcDbPolyline
 90
        2
 70
     0
 43
0.0
 10
1.104057233999061
 20
-0.2688756692712615
 42
-0.3328679258950098
 10
1.139838924712222
 20
-0.2960431660321574
 42
6.772930709997214
  0
LINE
  5
3EF0D9A1ECE5B83
330
3EF0D9A1ECE5BCE
100
AcDbEntity
  8
TEXT
100
AcDbLine
 10
1.293920774241433
 20
-0.268875669271265
 30
0.0
 11
1.293920774241433
 21
-0.2971982150409089
 31
0.0
  0
LWPOLYLINE
  5
3EF0D9A1ECE5B84
330
3EF0D9A1ECE5BCE
100
AcDbEntity
  8
TEXT
100
AcDbPolyline
 90
        2
 70
     0
 43
0.0
 10
1.258139083528267
 20
-0.2688756692712615
 42
-0.3277054968067132
 10
1.293920774241432
 20
-0.2971982150409054
 42
6.667889725900311
  0
LINE
  5
3EF0D9A1ECE5B88
330
3EF0D9A1ECE5BCE
100
AcDbEntity
  8
TEXT
100
AcDbLine
 10
1.507712622333533
 20
-0.3740876478246924
 30
0.0
 11
1.463961851151632
 21
-0.2918373718285472
 31
0.0
  0
LINE
  5
3EF0D9A1ECE5B89
330
3EF0D9A1ECE5BCE
100
AcDbEntity
  8
TEXT
100
AcDbLine
 10
1.507712622333533
 20
-0.268875669271265
 30
0.0
 11
1.507712622333533
 21
-0.3740876478246924
 31
0.0
  0
LINE
  5
3EF0D9A1ECE5B8A
330
3EF0D9A1ECE5BCE
100
AcDbEntity
  8
TEXT
100
AcDbLine
 10
1.735396361271902
 20
-0.3447409956828031
 30
0.0
 11
1.735396361271902
 21
-0.2034114635036643
 31
0.0
  0
LINE
  5
3EF0D9A1ECE5B8B
330
3EF0D9A1ECE5BCE
100
AcDbEntity
  8
TEXT
100
AcDbLine
 10
1.782494519827887
 20
-0.268875669271265
 30
0.0
 11
1.735396361271902
 21
-0.3447409956828031
 31
0.0
  0
LINE
  5
3EF0D9A1ECE5B8C
330
3EF0D9A1ECE5BCE
100
AcDbEntity
  8
TEXT
100
AcDbLine
 10
1.79292923659181
 20
-0.3787689122122386
 30
0.0
 11
1.857486352557515
 21
-0.268875669271265
 31
0.0
  0
LINE
  5
3EF0D9A1ECE5B8D
330
3EF0D9A1ECE5BCE
100
AcDbEntity
  8
TEXT
100
AcDbLine
 10
1.671561370049129
 20
-0.5353487022597761
 30
0.0
 11
1.73593955436775
 21
-0.5353487022597761
 31
0.0
  0
LWPOLYLINE
  5
3EF0D9A1ECE5B8E
330
3EF0D9A1ECE5BCE
100
AcDbEntity
  8
TEXT
100
AcDbPolyline
 90
        2
 70
     0
 43
0.0
 10
1.511652299638571
 20
-0.4918577573093379
 42
-0.2901071551932486
 10
1.468576366770927
 20
-0.5353487022597761
 42
-5.328517124445184
  0
ARC
  5
3EF0D9A1ECE5B92
330
3EF0D9A1ECE5BCE
100
AcDbEntity
  8
TEXT
100
AcDbCircle
 10
1.399721785114012
 20
-0.3615117389280278
 30
0.0
 40
0.028359375
100
AcDbArc
 50
25.78218179591245
 51
90.0
  0
LINE
  5
3EF0D9A1ECE5B93
330
3EF0D9A1ECE5BCE
100
AcDbEntity
  8
TEXT
100
AcDbLine
 10
1.435522860418135
 20
-0.3704273373901628
 30
0.0
 11
1.425258100004571
 21
-0.3491767978174685
 31
0.0
  0
LINE
  5
3EF0D9A1ECE5B94
330
3EF0D9A1ECE5BCE
100
AcDbEntity
  8
TEXT
100
AcDbLine
 10
1.353234870634752
 20
-0.3704273373901628
 30
0.0
 11
1.435522860418135
 21
-0.3704273373901628
 31
0.0
  0
LWPOLYLINE
  5
3EF0D9A1ECE5B95
330
3EF0D9A1ECE5BCE
100
AcDbEntity
  8
TEXT
100
AcDbPolyline
 90
        4
 70
     1
 43
0.0
 10
1.448453901701034
 20
-0.4323847242757508
 10
1.359793583041176
 20
-0.4323847242757508
 42
0.9999999999999998
 10
1.359793583041176
 20
-0.4747832647796116
 10
1.448453901701034
 20
-0.4747832647796116
 42
1.0
  0
LWPOLYLINE
  5
3EF0D9A1ECE5B9B
330
3EF0D9A1ECE5BCE
100
AcDbEntity
  8
TEXT
100
AcDbPolyline
 90
        2
 70
     0
 43
0.0
 10
1.33455894913955
 20
-0.5353487022597761
 10
1.468576366770927
 20
-0.5353487022597761
 42
0.9999999999999998
  0
LINE
  5
3EF0D9A1ECE5B9F
330
3EF0D9A1ECE5BCE
100
AcDbEntity
  8
TEXT
100
AcDbLine
 10
1.594913388756566
 20
-0.3331523639280305
 30
0.0
 11
1.671561370049124
 21
-0.3331523639280305
 31
0.0
  0
LINE
  5
3EF0D9A1ECE5BA0
330
3EF0D9A1ECE5BCE
100
AcDbEntity
  8
TEXT
100
AcDbLine
 10
1.671561370049124
 20
-0.3331523639280305
 30
0.0
 11
1.671561370049129
 21
-0.5353487022597761
 31
0.0
  0
ARC
  5
3EF0D9A1ECE5BA1
330
3EF0D9A1ECE5BCE
100
AcDbEntity
  8
TEXT
100
AcDbCircle
 10
1.594913388756564
 20
-0.3580582392106932
 30
0.0
 40
0.0249058752826653
100
AcDbArc
 50
89.99971217465335
 51
179.9999999999985
  0
LINE
  5
3EF0D9A1ECE5BA2
330
3EF0D9A1ECE5BCE
100
AcDbEntity
  8
TEXT
100
AcDbLine
 10
1.570007513473907
 20
-0.5353487022597761
 30
0.0
 11
1.570007513473902
 21
-0.3580581968283076
 31
0.0
  0
LWPOLYLINE
  5
3EF0D9A1ECE5BA3
330
3EF0D9A1ECE5BCE
100
AcDbEntity
  8
TEXT
100
AcDbPolyline
 90
        2
 70
     0
 43
0.0
 10
1.511652299638571
 20
-0.5353487022597761
 10
1.570007513473905
 20
-0.5353487022597761
  0
LWPOLYLINE
  5
3EF0D9A1ECE5BA7
330
3EF0D9A1ECE5BCE
100
AcDbEntity
  8
TEXT
100
AcDbPolyline
 90
        2
 70
     0
 43
0.0
 10
1.511652299638571
 20
-0.4918577573093379
 10
1.511652299638571
 20
-0.5353487022597761
  0
LINE
  5
3EF0D9A1ECE5BAB
330
3EF0D9A1ECE5BCE
100
AcDbEntity
  8
TEXT
100
AcDbLine
 10
1.88842145995542
 20
-0.5353487022597761
 30
0.0
 11
1.79292923659181
 21
-0.3787689122122386
 31
0.0
  0
LINE
  5
3EF0D9A1ECE5BAC
330
3EF0D9A1ECE5BCE
100
AcDbEntity
  8
TEXT
100
AcDbLine
 10
1.811843087579214
 20
-0.5353487022597761
 30
0.0
 11
1.88842145995542
 21
-0.5353487022597761
 31
0.0
  0
LINE
  5
3EF0D9A1ECE5BAD
330
3EF0D9A1ECE5BCE
100
AcDbEntity
  8
TEXT
100
AcDbLine
 10
1.73593955436775
 20
-0.4037691337835958
 30
0.0
 11
1.811843087579214
 21
-0.5353487022597761
 31
0.0
  0
LINE
  5
3EF0D9A1ECE5BAE
330
3EF0D9A1ECE5BCE
100
AcDbEntity
  8
TEXT
100
AcDbLine
 10
1.73593955436775
 20
-0.5353487022597761
 30
0.0
 11
1.73593955436775
 21
-0.4037691337835958
 31
0.0
  0
LINE
  5
3EF0D9A1ECE5BAF
330
3EF0D9A1ECE5BCE
100
AcDbEntity
  8
TEXT
100
AcDbLine
 10
1.735396361271902
 20
-0.2034114635036643
 30
0.0
 11
1.667081482722629
 21
-0.2034114635036643
 31
0.0
  0
ARC
  5
3EF0D9A1ECE5BB0
330
3EF0D9A1ECE5BCE
100
AcDbEntity
  8
TEXT
100
AcDbCircle
 10
1.426725743681423
 20
-0.3104592363921674
 30
0.0
 40
0.0416329381542859
100
AcDbArc
 50
26.56974201007528
 51
87.20939649401342
  0
LINE
  5
3EF0D9A1ECE5BB1
330
3EF0D9A1ECE5BCE
100
AcDbEntity
  8
TEXT
100
AcDbLine
 10
1.571609528633034
 20
-0.268875669271265
 30
0.0
 11
1.507712622333533
 21
-0.268875669271265
 31
0.0
  0
LINE
  5
3EF0D9A1ECE5BB2
330
3EF0D9A1ECE5BCE
100
AcDbEntity
  8
TEXT
100
AcDbLine
 10
1.571609528633034
 20
-0.2964233191321397
 30
0.0
 11
1.571609528633034
 21
-0.268875669271265
 31
0.0
  0
ARC
  5
3EF0D9A1ECE5BB3
330
3EF0D9A1ECE5BCE
100
AcDbEntity
  8
TEXT
100
AcDbCircle
 10
1.602802345696142
 20
-0.3001213965535299
 30
0.0
 40
0.0314112657011332
100
AcDbArc
 50
95.88484768694724
 51
173.2388340632136
  0
LINE
  5
3EF0D9A1ECE5BB4
330
3EF0D9A1ECE5BCE
100
AcDbEntity
  8
TEXT
100
AcDbLine
 10
1.667081482722624
 20
-0.268875669271265
 30
0.0
 11
1.599581765073107
 21
-0.268875669271265
 31
0.0
  0
LINE
  5
3EF0D9A1ECE5BB5
330
3EF0D9A1ECE5BCE
100
AcDbEntity
  8
TEXT
100
AcDbLine
 10
1.667081482722629
 20
-0.2034114635036643
 30
0.0
 11
1.667081482722624
 21
-0.268875669271265
 31
0.0
  0
LINE
  5
3EF0D9A1ECE5BB6
330
3EF0D9A1ECE5BCE
100
AcDbEntity
  8
TEXT
100
AcDbLine
 10
1.857486352557515
 20
-0.268875669271265
 30
0.0
 11
1.782494519827889
 21
-0.268875669271265
 31
0.0
  0
ENDSEC
  0
SECTION
  2
OBJECTS
  0
DICTIONARY
  5
3EF0D9A1ECE5BC2
330
0
100
AcDbDictionary
  3
ACAD_GROUP
350
3EF0D9A1ECE5BC3
  3
ACAD_LAYOUT
350
3EF0D9A1ECE5BE8
  3
ACAD_MLINESTYLE
350
3EF0D9A1ECE5BC4
  3
ACAD_PLOTSETTINGS
350
3EF0D9A1ECE5BE9
  3
ACAD_PLOTSTYLENAME
350
3EF0D9A1ECE5BE6
  3
ACDBHEADERROUNDTRIPXREC
350
3EF0D9A1ECE5BF3
  3
ACDBVARIABLEDICTIONARY
350
3EF0D9A1ECE5BF0
  0
DICTIONARY
  5
3EF0D9A1ECE5C15
330
3EF0D9A1ECE5BCE
100
AcDbDictionary
280
     1
  3
ACAD_LAYOUTSELFREF
360
3EF0D9A1ECE5C16
  0
DICTIONARY
  5
3EF0D9A1ECE5C13
330
3EF0D9A1ECE5BCB
100
AcDbDictionary
280
     1
  3
ACAD_LAYOUTSELFREF
360
3EF0D9A1ECE5C14
  0
DICTIONARY
  5
3EF0D9A1ECE5BC3
102
{ACAD_REACTORS
330
3EF0D9A1ECE5BC2
102
}
330
3EF0D9A1ECE5BC2
100
AcDbDictionary
  0
DICTIONARY
  5
3EF0D9A1ECE5BE8
102
{ACAD_REACTORS
330
3EF0D9A1ECE5BC2
102
}
330
3EF0D9A1ECE5BC2
100
AcDbDictionary
  0
DICTIONARY
  5
3EF0D9A1ECE5BC4
102
{ACAD_REACTORS
330
3EF0D9A1ECE5BC2
102
}
330
3EF0D9A1ECE5BC2
100
AcDbDictionary
  3
STANDARD
350
3EF0D9A1ECE5BD1
  0
DICTIONARY
  5
3EF0D9A1ECE5BE9
102
{ACAD_REACTORS
330
3EF0D9A1ECE5BC2
102
}
330
3EF0D9A1ECE5BC2
100
AcDbDictionary
  0
ACDBDICTIONARYWDFLT
  5
3EF0D9A1ECE5BE6
102
{ACAD_REACTORS
330
3EF0D9A1ECE5BC2
102
}
330
3EF0D9A1ECE5BC2
100
AcDbDictionary
281
     1
  3
Normal
350
3EF0D9A1ECE5BE7
100
AcDbDictionaryWithDefault
340
3EF0D9A1ECE5BE7
  0
DICTIONARY
  5
3EF0D9A1ECE5BF3
102
{ACAD_REACTORS
330
3EF0D9A1ECE5BC2
102
}
330
3EF0D9A1ECE5BC2
100
AcDbDictionary
  3
CEPSNTYPE
350
3EF0D9A1ECE5BFD
  3
FINGERPRINTGUID
350
3EF0D9A1ECE5BFE
  3
HYPERLINKBASE
350
3EF0D9A1ECE5BF6
  3
INSUNITS
350
3EF0D9A1ECE5BFC
  3
LAYOUTDICT
350
3EF0D9A1ECE5BF8
  3
LWETCUNION
350
3EF0D9A1ECE5BFB
  3
PLOTSETDICT
350
3EF0D9A1ECE5BF9
  3
PLOTSTYLNAMDICT
350
3EF0D9A1ECE5BFA
  3
PSVPSCALE
350
3EF0D9A1ECE5C00
  3
PUCSBASE
350
3EF0D9A1ECE5C03
  3
PUCSORGBACK
350
3EF0D9A1ECE5C09
  3
PUCSORGBOTTOM
350
3EF0D9A1ECE5C05
  3
PUCSORGFRONT
350
3EF0D9A1ECE5C08
  3
PUCSORGLEFT
350
3EF0D9A1ECE5C06
  3
PUCSORGRIGHT
350
3EF0D9A1ECE5C07
  3
PUCSORGTOP
350
3EF0D9A1ECE5C04
  3
PUCSORTHOREF
350
3EF0D9A1ECE5C01
  3
PUCSORTHOVIEW
350
3EF0D9A1ECE5C02
  3
STYLESHEET
350
3EF0D9A1ECE5BF7
  3
TSTACKALIGN
350
3EF0D9A1ECE5BF4
  3
TSTACKSIZE
350
3EF0D9A1ECE5BF5
  3
UCSBASE
350
3EF0D9A1ECE5C0C
  3
UCSORGBACK
350
3EF0D9A1ECE5C12
  3
UCSORGBOTTOM
350
3EF0D9A1ECE5C0E
  3
UCSORGFRONT
350
3EF0D9A1ECE5C11
  3
UCSORGLEFT
350
3EF0D9A1ECE5C0F
  3
UCSORGRIGHT
350
3EF0D9A1ECE5C10
  3
UCSORGTOP
350
3EF0D9A1ECE5C0D
  3
UCSORTHOREF
350
3EF0D9A1ECE5C0A
  3
UCSORTHOVIEW
350
3EF0D9A1ECE5C0B
  3
VERSIONGUID
350
3EF0D9A1ECE5BFF
  0
DICTIONARY
  5
3EF0D9A1ECE5BF0
102
{ACAD_REACTORS
330
3EF0D9A1ECE5BC2
102
}
330
3EF0D9A1ECE5BC2
100
AcDbDictionary
  3
DIMASSOC
350
3EF0D9A1ECE5BF1
  0
XRECORD
  5
3EF0D9A1ECE5C16
102
{ACAD_REACTORS
330
3EF0D9A1ECE5C15
102
}
330
3EF0D9A1ECE5C15
100
AcDbXrecord
340
3EF0D9A1ECE5BCE
  0
XRECORD
  5
3EF0D9A1ECE5C14
102
{ACAD_REACTORS
330
3EF0D9A1ECE5C13
102
}
330
3EF0D9A1ECE5C13
100
AcDbXrecord
340
3EF0D9A1ECE5BCB
  0
MLINESTYLE
  5
3EF0D9A1ECE5BD1
102
{ACAD_REACTORS
330
3EF0D9A1ECE5BC4
102
}
330
3EF0D9A1ECE5BC4
100
AcDbMlineStyle
  2
STANDARD
 70
     0
  3

 62
     0
 51
90.0
 52
90.0
 71
     2
 49
0.5
 62
   256
  6
BYLAYER
 49
-0.5
 62
   256
  6
BYLAYER
  0
ACDBPLACEHOLDER
  5
3EF0D9A1ECE5BE7
102
{ACAD_REACTORS
330
3EF0D9A1ECE5BE6
102
}
330
3EF0D9A1ECE5BE6
100
AcDbPlaceHolder
280
     0
  0
XRECORD
  5
3EF0D9A1ECE5BFD
102
{ACAD_REACTORS
330
3EF0D9A1ECE5BF3
102
}
330
3EF0D9A1ECE5BF3
100
AcDbXrecord
 90
        0
  0
XRECORD
  5
3EF0D9A1ECE5BFE
102
{ACAD_REACTORS
330
3EF0D9A1ECE5BF3
102
}
330
3EF0D9A1ECE5BF3
100
AcDbXrecord
  1
{013CF860-8DB4-11D6-88E6-0090279574E7}
  0
XRECORD
  5
3EF0D9A1ECE5BF6
102
{ACAD_REACTORS
330
3EF0D9A1ECE5BF3
102
}
330
3EF0D9A1ECE5BF3
100
AcDbXrecord
  1

  0
XRECORD
  5
3EF0D9A1ECE5BFC
102
{ACAD_REACTORS
330
3EF0D9A1ECE5BF3
102
}
330
3EF0D9A1ECE5BF3
100
AcDbXrecord
 90
        0
  0
XRECORD
  5
3EF0D9A1ECE5BF8
102
{ACAD_REACTORS
330
3EF0D9A1ECE5BF3
102
}
330
3EF0D9A1ECE5BF3
100
AcDbXrecord
340
3EF0D9A1ECE5BE8
  0
XRECORD
  5
3EF0D9A1ECE5BFB
102
{ACAD_REACTORS
330
3EF0D9A1ECE5BF3
102
}
330
3EF0D9A1ECE5BF3
100
AcDbXrecord
 90
    14877
  0
XRECORD
  5
3EF0D9A1ECE5BF9
102
{ACAD_REACTORS
330
3EF0D9A1ECE5BF3
102
}
330
3EF0D9A1ECE5BF3
100
AcDbXrecord
340
3EF0D9A1ECE5BE9
  0
XRECORD
  5
3EF0D9A1ECE5BFA
102
{ACAD_REACTORS
330
3EF0D9A1ECE5BF3
102
}
330
3EF0D9A1ECE5BF3
100
AcDbXrecord
340
3EF0D9A1ECE5BE6
  0
XRECORD
  5
3EF0D9A1ECE5C00
102
{ACAD_REACTORS
330
3EF0D9A1ECE5BF3
102
}
330
3EF0D9A1ECE5BF3
100
AcDbXrecord
 40
0.0
  0
XRECORD
  5
3EF0D9A1ECE5C03
102
{ACAD_REACTORS
330
3EF0D9A1ECE5BF3
102
}
330
3EF0D9A1ECE5BF3
100
AcDbXrecord
340
0
  0
XRECORD
  5
3EF0D9A1ECE5C09
102
{ACAD_REACTORS
330
3EF0D9A1ECE5BF3
102
}
330
3EF0D9A1ECE5BF3
100
AcDbXrecord
 10
0.0
 20
0.0
 30
0.0
  0
XRECORD
  5
3EF0D9A1ECE5C05
102
{ACAD_REACTORS
330
3EF0D9A1ECE5BF3
102
}
330
3EF0D9A1ECE5BF3
100
AcDbXrecord
 10
0.0
 20
0.0
 30
0.0
  0
XRECORD
  5
3EF0D9A1ECE5C08
102
{ACAD_REACTORS
330
3EF0D9A1ECE5BF3
102
}
330
3EF0D9A1ECE5BF3
100
AcDbXrecord
 10
0.0
 20
0.0
 30
0.0
  0
XRECORD
  5
3EF0D9A1ECE5C06
102
{ACAD_REACTORS
330
3EF0D9A1ECE5BF3
102
}
330
3EF0D9A1ECE5BF3
100
AcDbXrecord
 10
0.0
 20
0.0
 30
0.0
  0
XRECORD
  5
3EF0D9A1ECE5C07
102
{ACAD_REACTORS
330
3EF0D9A1ECE5BF3
102
}
330
3EF0D9A1ECE5BF3
100
AcDbXrecord
 10
0.0
 20
0.0
 30
0.0
  0
XRECORD
  5
3EF0D9A1ECE5C04
102
{ACAD_REACTORS
330
3EF0D9A1ECE5BF3
102
}
330
3EF0D9A1ECE5BF3
100
AcDbXrecord
 10
0.0
 20
0.0
 30
0.0
  0
XRECORD
  5
3EF0D9A1ECE5C01
102
{ACAD_REACTORS
330
3EF0D9A1ECE5BF3
102
}
330
3EF0D9A1ECE5BF3
100
AcDbXrecord
340
0
  0
XRECORD
  5
3EF0D9A1ECE5C02
102
{ACAD_REACTORS
330
3EF0D9A1ECE5BF3
102
}
330
3EF0D9A1ECE5BF3
100
AcDbXrecord
 70
     0
  0
XRECORD
  5
3EF0D9A1ECE5BF7
102
{ACAD_REACTORS
330
3EF0D9A1ECE5BF3
102
}
330
3EF0D9A1ECE5BF3
100
AcDbXrecord
  1

  0
XRECORD
  5
3EF0D9A1ECE5BF4
102
{ACAD_REACTORS
330
3EF0D9A1ECE5BF3
102
}
330
3EF0D9A1ECE5BF3
100
AcDbXrecord
 90
        1
  0
XRECORD
  5
3EF0D9A1ECE5BF5
102
{ACAD_REACTORS
330
3EF0D9A1ECE5BF3
102
}
330
3EF0D9A1ECE5BF3
100
AcDbXrecord
 90
       70
  0
XRECORD
  5
3EF0D9A1ECE5C0C
102
{ACAD_REACTORS
330
3EF0D9A1ECE5BF3
102
}
330
3EF0D9A1ECE5BF3
100
AcDbXrecord
340
0
  0
XRECORD
  5
3EF0D9A1ECE5C12
102
{ACAD_REACTORS
330
3EF0D9A1ECE5BF3
102
}
330
3EF0D9A1ECE5BF3
100
AcDbXrecord
 10
0.0
 20
0.0
 30
0.0
  0
XRECORD
  5
3EF0D9A1ECE5C0E
102
{ACAD_REACTORS
330
3EF0D9A1ECE5BF3
102
}
330
3EF0D9A1ECE5BF3
100
AcDbXrecord
 10
0.0
 20
0.0
 30
0.0
  0
XRECORD
  5
3EF0D9A1ECE5C11
102
{ACAD_REACTORS
330
3EF0D9A1ECE5BF3
102
}
330
3EF0D9A1ECE5BF3
100
AcDbXrecord
 10
0.0
 20
0.0
 30
0.0
  0
XRECORD
  5
3EF0D9A1ECE5C0F
102
{ACAD_REACTORS
330
3EF0D9A1ECE5BF3
102
}
330
3EF0D9A1ECE5BF3
100
AcDbXrecord
 10
0.0
 20
0.0
 30
0.0
  0
XRECORD
  5
3EF0D9A1ECE5C10
102
{ACAD_REACTORS
330
3EF0D9A1ECE5BF3
102
}
330
3EF0D9A1ECE5BF3
100
AcDbXrecord
 10
0.0
 20
0.0
 30
0.0
  0
XRECORD
  5
3EF0D9A1ECE5C0D
102
{ACAD_REACTORS
330
3EF0D9A1ECE5BF3
102
}
330
3EF0D9A1ECE5BF3
100
AcDbXrecord
 10
0.0
 20
0.0
 30
0.0
  0
XRECORD
  5
3EF0D9A1ECE5C0A
102
{ACAD_REACTORS
330
3EF0D9A1ECE5BF3
102
}
330
3EF0D9A1ECE5BF3
100
AcDbXrecord
340
0
  0
XRECORD
  5
3EF0D9A1ECE5C0B
102
{ACAD_REACTORS
330
3EF0D9A1ECE5BF3
102
}
330
3EF0D9A1ECE5BF3
100
AcDbXrecord
 70
     0
  0
XRECORD
  5
3EF0D9A1ECE5BFF
102
{ACAD_REACTORS
330
3EF0D9A1ECE5BF3
102
}
330
3EF0D9A1ECE5BF3
100
AcDbXrecord
  1
{013CF862-8DB4-11D6-88E6-0090279574E7}
  0
DICTIONARYVAR
  5
3EF0D9A1ECE5BF1
102
{ACAD_REACTORS
330
3EF0D9A1ECE5BF0
102
}
330
3EF0D9A1ECE5BF0
100
DictionaryVariables
280
     0
  1
1
  0
ENDSEC
  0
EOF
