  0
SECTION
  2
HEADER
  9
$ACADVER
  1
AC1014
  9
$ACADMAINTVER
 70
     9
  9
$DWGCODEPAGE
  3
ANSI_1252
  9
$INSBASE
 10
1.528086462134651
 20
1.203292328805747
 30
0.0
  9
$EXTMIN
 10
-0.1680201170924914
 20
-0.5359762752768342
 30
0.0
  9
$EXTMAX
 10
3.317199204654636
 20
2.460484070266656
 30
0.0
  9
$LIMMIN
 10
0.0
 20
0.0
  9
$LIMMAX
 10
18.0
 20
12.0
  9
$ORTHOMODE
 70
     1
  9
$REGENMODE
 70
     1
  9
$FILLMODE
 70
     1
  9
$QTEXTMODE
 70
     0
  9
$MIRRTEXT
 70
     0
  9
$DRAGMODE
 70
     2
  9
$LTSCALE
 40
1.0
  9
$OSMODE
 70
    39
  9
$ATTMODE
 70
     1
  9
$TEXTSIZE
 40
0.125
  9
$TRACEWID
 40
0.05
  9
$TEXTSTYLE
  7
ROMANS
  9
$CLAYER
  8
0
  9
$CELTYPE
  6
BYLAYER
  9
$CECOLOR
 62
   256
  9
$CELTSCALE
 40
1.0
  9
$DELOBJ
 70
     1
  9
$DISPSILH
 70
     1
  9
$DIMSCALE
 40
1.0
  9
$DIMASZ
 40
0.125
  9
$DIMEXO
 40
0.125
  9
$DIMDLI
 40
0.375
  9
$DIMRND
 40
0.0
  9
$DIMDLE
 40
0.0
  9
$DIMEXE
 40
0.125
  9
$DIMTP
 40
0.0
  9
$DIMTM
 40
0.0
  9
$DIMTXT
 40
0.125
  9
$DIMCEN
 40
-0.125
  9
$DIMTSZ
 40
0.0
  9
$DIMTOL
 70
     0
  9
$DIMLIM
 70
     0
  9
$DIMTIH
 70
     1
  9
$DIMTOH
 70
     1
  9
$DIMSE1
 70
     0
  9
$DIMSE2
 70
     0
  9
$DIMTAD
 70
     0
  9
$DIMZIN
 70
     4
  9
$DIMBLK
  1

  9
$DIMASO
 70
     1
  9
$DIMSHO
 70
     1
  9
$DIMPOST
  1

  9
$DIMAPOST
  1

  9
$DIMALT
 70
     0
  9
$DIMALTD
 70
     2
  9
$DIMALTF
 40
25.4
  9
$DIMLFAC
 40
1.0
  9
$DIMTOFL
 70
     0
  9
$DIMTVP
 40
0.0
  9
$DIMTIX
 70
     1
  9
$DIMSOXD
 70
     0
  9
$DIMSAH
 70
     0
  9
$DIMBLK1
  1

  9
$DIMBLK2
  1

  9
$DIMSTYLE
  2
STANDARD
  9
$DIMCLRD
 70
     0
  9
$DIMCLRE
 70
     0
  9
$DIMCLRT
 70
     0
  9
$DIMTFAC
 40
1.0
  9
$DIMGAP
 40
0.09
  9
$DIMJUST
 70
     0
  9
$DIMSD1
 70
     0
  9
$DIMSD2
 70
     0
  9
$DIMTOLJ
 70
     1
  9
$DIMTZIN
 70
     4
  9
$DIMALTZ
 70
     0
  9
$DIMALTTZ
 70
     0
  9
$DIMFIT
 70
     3
  9
$DIMUPT
 70
     0
  9
$DIMUNIT
 70
     2
  9
$DIMDEC
 70
     3
  9
$DIMTDEC
 70
     3
  9
$DIMALTU
 70
     2
  9
$DIMALTTD
 70
     2
  9
$DIMTXSTY
  7
ROMANS
  9
$DIMAUNIT
 70
     0
  9
$LUNITS
 70
     2
  9
$LUPREC
 70
     3
  9
$SKETCHINC
 40
0.1
  9
$FILLETRAD
 40
0.03125
  9
$AUNITS
 70
     0
  9
$AUPREC
 70
     0
  9
$MENU
  1
ACAD
  9
$ELEVATION
 40
0.0
  9
$PELEVATION
 40
0.0
  9
$THICKNESS
 40
0.0
  9
$LIMCHECK
 70
     0
  9
$BLIPMODE
 70
     0
  9
$CHAMFERA
 40
0.0
  9
$CHAMFERB
 40
0.0
  9
$CHAMFERC
 40
0.0
  9
$CHAMFERD
 40
0.0
  9
$SKPOLY
 70
     0
  9
$TDCREATE
 40
2448994.291691782
  9
$TDUPDATE
 40
2452458.295441805
  9
$TDINDWG
 40
0.0007899074
  9
$TDUSRTIMER
 40
0.0007899074
  9
$USRTIMER
 70
     1
  9
$ANGBASE
 50
0.0
  9
$ANGDIR
 70
     0
  9
$PDMODE
 70
     0
  9
$PDSIZE
 40
0.0
  9
$PLINEWID
 40
0.0
  9
$COORDS
 70
     2
  9
$SPLFRAME
 70
     0
  9
$SPLINETYPE
 70
     6
  9
$SPLINESEGS
 70
     8
  9
$ATTDIA
 70
     0
  9
$ATTREQ
 70
     1
  9
$HANDLING
 70
 22529
  9
$HANDSEED
  5
3EF0D9A1ECE56B8
  9
$SURFTAB1
 70
     6
  9
$SURFTAB2
 70
     6
  9
$SURFTYPE
 70
     6
  9
$SURFU
 70
     6
  9
$SURFV
 70
     6
  9
$UCSNAME
  2

  9
$UCSORG
 10
0.0
 20
0.0
 30
0.0
  9
$UCSXDIR
 10
1.0
 20
0.0
 30
0.0
  9
$UCSYDIR
 10
0.0
 20
1.0
 30
0.0
  9
$PUCSNAME
  2

  9
$PUCSORG
 10
0.0
 20
0.0
 30
0.0
  9
$PUCSXDIR
 10
1.0
 20
0.0
 30
0.0
  9
$PUCSYDIR
 10
0.0
 20
1.0
 30
0.0
  9
$USERI1
 70
     0
  9
$USERI2
 70
     0
  9
$USERI3
 70
     0
  9
$USERI4
 70
     0
  9
$USERI5
 70
     0
  9
$USERR1
 40
0.0
  9
$USERR2
 40
0.0
  9
$USERR3
 40
0.0
  9
$USERR4
 40
0.0
  9
$USERR5
 40
0.0
  9
$WORLDVIEW
 70
     1
  9
$SHADEDGE
 70
     3
  9
$SHADEDIF
 70
    70
  9
$TILEMODE
 70
     1
  9
$MAXACTVP
 70
    16
  9
$PINSBASE
 10
0.1492894676539764
 20
50.00000000000001
 30
1.814024381861843
  9
$PLIMCHECK
 70
     0
  9
$PEXTMIN
 10
1.000000000000000E+20
 20
1.000000000000000E+20
 30
1.000000000000000E+20
  9
$PEXTMAX
 10
-1.000000000000000E+20
 20
-1.000000000000000E+20
 30
-1.000000000000000E+20
  9
$PLIMMIN
 10
0.0
 20
0.0
  9
$PLIMMAX
 10
12.0
 20
9.0
  9
$UNITMODE
 70
     0
  9
$VISRETAIN
 70
     0
  9
$PLINEGEN
 70
     1
  9
$PSLTSCALE
 70
     0
  9
$TREEDEPTH
 70
  3020
  9
$PICKSTYLE
 70
     1
  9
$CMLSTYLE
  2
STANDARD
  9
$CMLJUST
 70
     0
  9
$CMLSCALE
 40
1.0
  9
$PROXYGRAPHICS
 70
     1
  9
$MEASUREMENT
 70
     0
  0
ENDSEC
  0
SECTION
  2
CLASSES
  0
CLASS
  1
LWPOLYLINE
  2
AcDbPolyline
  3
AutoCAD 2000
 90
        0
280
     0
281
     1
  0
CLASS
  1
ACDBDICTIONARYWDFLT
  2
AcDbDictionaryWithDefault
  3
AutoCAD 2000
 90
        0
280
     0
281
     0
  0
CLASS
  1
ACDBPLACEHOLDER
  2
AcDbPlaceHolder
  3
AutoCAD 2000
 90
        0
280
     0
281
     0
  0
CLASS
  1
LAYOUT
  2
AcDbLayout
  3
AutoCAD 2000
 90
        0
280
     0
281
     0
  0
CLASS
  1
DICTIONARYVAR
  2
AcDbDictionaryVar
  3
AutoCAD 2000
 90
        0
280
     0
281
     0
  0
CLASS
  1
LONG_TRANSACTION
  2
AcDbLongTransaction
  3
AutoCAD 2000
 90
        0
280
     0
281
     0
  0
CLASS
  1
LWPOLYLINE
  2
AcDbPolyline
  3
AutoCAD 2000
 90
        0
280
     0
281
     1
  0
CLASS
  1
HATCH
  2
AcDbHatch
  3
AutoCAD 2000
 90
        0
280
     0
281
     1
  0
CLASS
  1
XRECORD
  2
AcDbXrecord
  3
AutoCAD 2000
 90
        0
280
     0
281
     0
  0
ENDSEC
  0
SECTION
  2
TABLES
  0
TABLE
  2
VPORT
  5
3EF0D9A1ECE565F
330
0
100
AcDbSymbolTable
 70
     2
  0
VPORT
  5
3EF0D9A1ECE5693
330
3EF0D9A1ECE565F
100
AcDbSymbolTableRecord
100
AcDbViewportTableRecord
  2
*ACTIVE
 70
     0
 10
0.0
 20
0.0
 11
1.0
 21
1.0
 12
5.986706705933517
 22
0.9623498922217221
 13
0.0
 23
0.0
 14
0.015625
 24
0.015625
 15
0.0
 25
0.0
 16
0.0
 26
0.0
 36
1.0
 17
0.0
 27
0.0
 37
0.0
 40
3.383893691383057
 41
4.320930232558139
 42
50.0
 43
0.0
 44
0.0
 50
0.0
 51
0.0
 71
     0
 72
  2000
 73
     1
 74
     0
 75
     1
 76
     0
 77
     0
 78
     0
  0
ENDTAB
  0
TABLE
  2
LTYPE
  5
3EF0D9A1ECE565C
330
0
100
AcDbSymbolTable
 70
     1
  0
LTYPE
  5
3EF0D9A1ECE5669
330
3EF0D9A1ECE565C
100
AcDbSymbolTableRecord
100
AcDbLinetypeTableRecord
  2
BYBLOCK
 70
     0
  3

 72
    65
 73
     0
 40
0.0
  0
LTYPE
  5
3EF0D9A1ECE566A
330
3EF0D9A1ECE565C
100
AcDbSymbolTableRecord
100
AcDbLinetypeTableRecord
  2
BYLAYER
 70
     0
  3

 72
    65
 73
     0
 40
0.0
  0
LTYPE
  5
3EF0D9A1ECE566B
330
3EF0D9A1ECE565C
100
AcDbSymbolTableRecord
100
AcDbLinetypeTableRecord
  2
CONTINUOUS
 70
     0
  3
Solid line
 72
    65
 73
     0
 40
0.0
  0
ENDTAB
  0
TABLE
  2
LAYER
  5
3EF0D9A1ECE5659
330
0
100
AcDbSymbolTable
 70
     2
  0
LAYER
  5
3EF0D9A1ECE5666
330
3EF0D9A1ECE5659
100
AcDbSymbolTableRecord
100
AcDbLayerTableRecord
  2
0
 70
     0
 62
     7
  6
CONTINUOUS
  0
LAYER
  5
3EF0D9A1ECE5676
330
3EF0D9A1ECE5659
100
AcDbSymbolTableRecord
100
AcDbLayerTableRecord
  2
TEXT
 70
     0
 62
     3
  6
CONTINUOUS
  0
ENDTAB
  0
TABLE
  2
STYLE
  5
3EF0D9A1ECE565A
330
0
100
AcDbSymbolTable
 70
     3
  0
STYLE
  5
3EF0D9A1ECE5667
330
3EF0D9A1ECE565A
100
AcDbSymbolTableRecord
100
AcDbTextStyleTableRecord
  2
STANDARD
 70
     0
 40
0.0
 41
1.0
 50
0.0
 71
     0
 42
0.3125
  3
txt
  4

  0
STYLE
  5
3EF0D9A1ECE5673
330
3EF0D9A1ECE565A
100
AcDbSymbolTableRecord
100
AcDbTextStyleTableRecord
  2
ITALICC
 70
     0
 40
0.0
 41
1.0
 50
0.0
 71
     0
 42
0.125
  3
italicc
  4

  0
STYLE
  5
3EF0D9A1ECE5683
330
3EF0D9A1ECE565A
100
AcDbSymbolTableRecord
100
AcDbTextStyleTableRecord
  2
ROMANS
 70
     0
 40
0.0
 41
1.0
 50
0.0
 71
     0
 42
0.125
  3
romans.shx
  4

  0
ENDTAB
  0
TABLE
  2
VIEW
  5
3EF0D9A1ECE565D
330
0
100
AcDbSymbolTable
 70
     0
  0
ENDTAB
  0
TABLE
  2
UCS
  5
3EF0D9A1ECE565E
330
0
100
AcDbSymbolTable
 70
     0
  0
ENDTAB
  0
TABLE
  2
APPID
  5
3EF0D9A1ECE5660
330
0
100
AcDbSymbolTable
 70
     1
  0
APPID
  5
3EF0D9A1ECE5668
330
3EF0D9A1ECE5660
100
AcDbSymbolTableRecord
100
AcDbRegAppTableRecord
  2
ACAD
 70
     0
  0
ENDTAB
  0
TABLE
  2
DIMSTYLE
  5
3EF0D9A1ECE5661
330
0
100
AcDbSymbolTable
 70
     1
  0
DIMSTYLE
105
3EF0D9A1ECE567B
330
3EF0D9A1ECE5661
100
AcDbSymbolTableRecord
100
AcDbDimStyleTableRecord
  2
STANDARD
 70
     0
  3

  4

  5

  6

  7

 40
1.0
 41
0.125
 42
0.125
 43
0.375
 44
0.125
 45
0.0
 46
0.0
 47
0.0
 48
0.0
140
0.125
141
-0.125
142
0.0
143
25.4
144
1.0
145
0.0
146
1.0
147
0.09
 71
     0
 72
     0
 73
     1
 74
     1
 75
     0
 76
     0
 77
     0
 78
     4
170
     0
171
     2
172
     0
173
     0
174
     1
175
     0
176
     0
177
     0
178
     0
270
     2
271
     3
272
     3
273
     2
274
     2
340
3EF0D9A1ECE5683
275
     0
280
     0
281
     0
282
     0
283
     1
284
     4
285
     0
286
     0
287
     3
288
     0
  0
ENDTAB
  0
TABLE
  2
BLOCK_RECORD
  5
3EF0D9A1ECE5658
330
0
100
AcDbSymbolTable
 70
     0
  0
BLOCK_RECORD
  5
3EF0D9A1ECE566F
102
{ACAD_XDICTIONARY
360
3EF0D9A1ECE56B6
102
}
330
3EF0D9A1ECE5658
100
AcDbSymbolTableRecord
100
AcDbBlockTableRecord
  2
*MODEL_SPACE
  0
BLOCK_RECORD
  5
3EF0D9A1ECE566C
102
{ACAD_XDICTIONARY
360
3EF0D9A1ECE56B4
102
}
330
3EF0D9A1ECE5658
100
AcDbSymbolTableRecord
100
AcDbBlockTableRecord
  2
*PAPER_SPACE
  0
ENDTAB
  0
ENDSEC
  0
SECTION
  2
BLOCKS
  0
BLOCK
  5
3EF0D9A1ECE5679
330
3EF0D9A1ECE566F
100
AcDbEntity
  8
0
100
AcDbBlockBegin
  2
*MODEL_SPACE
 70
     0
 10
0.0
 20
0.0
 30
0.0
  3
*MODEL_SPACE
  1

  0
ENDBLK
  5
3EF0D9A1ECE567A
330
3EF0D9A1ECE566F
100
AcDbEntity
  8
0
100
AcDbBlockEnd
  0
BLOCK
  5
3EF0D9A1ECE5677
330
3EF0D9A1ECE566C
100
AcDbEntity
 67
     1
  8
0
100
AcDbBlockBegin
  2
*PAPER_SPACE
 70
     0
 10
0.0
 20
0.0
 30
0.0
  3
*PAPER_SPACE
  1

  0
ENDBLK
  5
3EF0D9A1ECE5678
330
3EF0D9A1ECE566C
100
AcDbEntity
 67
     1
  8
0
100
AcDbBlockEnd
  0
ENDSEC
  0
SECTION
  2
ENTITIES
  0
LWPOLYLINE
  5
3EF0D9A1ECE4273
330
3EF0D9A1ECE566F
100
AcDbEntity
  8
0
100
AcDbPolyline
 90
       26
 70
     1
 43
0.0
 10
1.903086462134652
 20
1.297042328805747
 10
1.903086462134652
 20
2.373967645594584
 42
0.3939104756149435
 10
1.874016351939155
 20
2.405141522165204
 10
1.186516351939155
 20
2.453216205376366
 42
0.4348123749609324
 10
1.153086462134651
 20
2.422042328805747
 10
1.153086462134651
 20
2.187667328805746
 42
1.0
 10
1.246836462134651
 20
2.187667328805746
 10
1.246836462134651
 20
2.318125
 10
1.236836462134651
 20
2.328125
 10
1.246836462134651
 20
2.338124999999999
 10
1.246836462134651
 20
2.38634559374424
 10
1.840586462134652
 20
2.344826549152782
 10
1.840586462134652
 20
1.265792328805747
 10
1.184336462134651
 20
1.265792328805747
 42
0.4142135623730951
 10
1.153086462134651
 20
1.234542328805747
 10
1.153086462134651
 20
1.203292328805747
 10
1.903086462134652
 20
1.203292328805747
 10
1.903086462134652
 20
0.5882923288057476
 10
1.913086462134651
 20
0.5782923288057474
 10
1.903086462134652
 20
0.5682923288057471
 10
1.903086462134652
 20
0.2032923288057473
 10
1.965586462134652
 20
0.2032923288057473
 42
0.4142135623730951
 10
1.996836462134652
 20
0.2345423288057473
 10
1.996836462134652
 20
1.234542328805747
 42
0.4142135623730951
 10
1.965586462134652
 20
1.265792328805747
 10
1.934336462134652
 20
1.265792328805747
 42
-0.4142135623730951
  0
TEXT
  5
3EF0D9A1ECE551A
330
3EF0D9A1ECE566F
100
AcDbEntity
  8
TEXT
100
AcDbText
 10
0.8219852716584613
 20
-0.0779576711942527
 30
0.0
 40
0.125
  1
PART #110108
  7
ITALICC
 72
     1
 11
1.574961462134651
 21
-0.0779576711942527
 31
0.0
100
AcDbText
  0
TEXT
  5
3EF0D9A1ECE551B
330
3EF0D9A1ECE566F
100
AcDbEntity
  8
TEXT
100
AcDbText
 10
1.988266620384972
 20
-0.5248803138666279
 30
0.0
 40
0.0522247191011236
  1
Phone  1-800-328-2495
 41
1.272321428571429
 72
     5
 11
3.317199204654636
 21
-0.5248803138666279
 31
0.0
100
AcDbText
  0
TEXT
  5
3EF0D9A1ECE551C
330
3EF0D9A1ECE566F
100
AcDbEntity
  8
TEXT
100
AcDbText
 10
1.988266620384972
 20
-0.2451050329677513
 30
0.0
 40
0.0522247191011236
  1
Stylmark  Incorporated
 41
1.221428571428573
 72
     5
 11
3.317199204654636
 21
-0.2451050329677513
 31
0.0
100
AcDbText
  0
TEXT
  5
3EF0D9A1ECE551D
330
3EF0D9A1ECE566F
100
AcDbEntity
  8
TEXT
100
AcDbText
 10
1.988266620384972
 20
-0.3383634599340435
 30
0.0
 40
0.0522247191011236
  1
6536 Main St. N.E. * P.O. Box 32008
 41
0.8388932496075366
 72
     5
 11
3.317199204654636
 21
-0.3383634599340435
 31
0.0
100
AcDbText
  0
TEXT
  5
3EF0D9A1ECE551E
330
3EF0D9A1ECE566F
100
AcDbEntity
  8
TEXT
100
AcDbText
 10
1.988266620384972
 20
-0.4316218869003357
 30
0.0
 40
0.0522247191011236
  1
Minneapolis, MN 55432-0008
 41
1.11444212721585
 72
     5
 11
3.317199204654636
 21
-0.4316218869003357
 31
0.0
100
AcDbText
  0
LWPOLYLINE
  5
3EF0D9A1ECE551F
330
3EF0D9A1ECE566F
100
AcDbEntity
  8
TEXT
100
AcDbPolyline
 90
        3
 70
     0
 43
0.0006660908203125
 10
-0.1676870716823351
 20
-0.411235551229193
 10
-0.1676870716823351
 20
-0.5244709906823207
 10
-0.0544516322292128
 20
-0.5244709906823207
  0
LWPOLYLINE
  5
3EF0D9A1ECE5524
330
3EF0D9A1ECE566F
100
AcDbEntity
  8
TEXT
100
AcDbPolyline
 90
        3
 70
     0
 43
0.0006660908203125
 10
-0.1410434388698376
 20
-0.411235551229193
 10
-0.1410434388698376
 20
-0.4978273578698196
 10
-0.0544516322292128
 20
-0.4978273578698196
  0
LWPOLYLINE
  5
3EF0D9A1ECE5529
330
3EF0D9A1ECE566F
100
AcDbEntity
  8
TEXT
100
AcDbPolyline
 90
        2
 70
     0
 43
0.0001332181640625
 10
-0.0944170814479608
 20
-0.4012441889245078
 10
-0.1676870716823351
 20
-0.411235551229193
  0
LWPOLYLINE
  5
3EF0D9A1ECE552D
330
3EF0D9A1ECE566F
100
AcDbEntity
  8
TEXT
100
AcDbPolyline
 90
        2
 70
     0
 43
0.0001332181640625
 10
-0.1410434388698376
 20
-0.411235551229193
 10
-0.0810952650417103
 20
-0.4012441889245078
  0
LWPOLYLINE
  5
3EF0D9A1ECE5531
330
3EF0D9A1ECE566F
100
AcDbEntity
  8
TEXT
100
AcDbPolyline
 90
        2
 70
     0
 43
0.0001332181640625
 10
-0.1410434388698376
 20
-0.4978273578698196
 10
-0.0810952650417103
 20
-0.4378791840416941
  0
LWPOLYLINE
  5
3EF0D9A1ECE5535
330
3EF0D9A1ECE566F
100
AcDbEntity
  8
TEXT
100
AcDbPolyline
 90
        3
 70
     0
 43
0.0006660908203125
 10
-0.0544516322292128
 20
-0.2580346625573173
 10
-0.1676870716823351
 20
-0.2580346625573173
 10
-0.1676870716823351
 20
-0.371270102010445
  0
LWPOLYLINE
  5
3EF0D9A1ECE553A
330
3EF0D9A1ECE566F
100
AcDbEntity
  8
TEXT
100
AcDbPolyline
 90
        3
 70
     0
 43
0.0006660908203125
 10
-0.0544516322292128
 20
-0.2846782953698184
 10
-0.1410434388698376
 20
-0.2846782953698184
 10
-0.1410434388698376
 20
-0.371270102010445
  0
LWPOLYLINE
  5
3EF0D9A1ECE553F
330
3EF0D9A1ECE566F
100
AcDbEntity
  8
TEXT
100
AcDbPolyline
 90
        2
 70
     0
 43
0.0001332181640625
 10
-0.1410434388698376
 20
-0.2846782953698184
 10
-0.0810952650417121
 20
-0.3446264691979439
  0
LWPOLYLINE
  5
3EF0D9A1ECE5543
330
3EF0D9A1ECE566F
100
AcDbEntity
  8
TEXT
100
AcDbPolyline
 90
        2
 70
     0
 43
0.0001332181640625
 10
-0.1410434388698376
 20
-0.371270102010445
 10
-0.0810952650417121
 20
-0.3812614643151338
  0
LWPOLYLINE
  5
3EF0D9A1ECE5547
330
3EF0D9A1ECE566F
100
AcDbEntity
  8
TEXT
100
AcDbPolyline
 90
        2
 70
     0
 43
0.0001332181640625
 10
-0.1676870716823351
 20
-0.371270102010445
 10
-0.0944170814479608
 20
-0.3812614643151338
  0
LWPOLYLINE
  5
3EF0D9A1ECE554B
330
3EF0D9A1ECE566F
100
AcDbEntity
  8
TEXT
100
AcDbPolyline
 90
        2
 70
     0
 43
0.0006660908203125
 10
-0.1410434388698376
 20
-0.411235551229193
 10
-0.1676870716823351
 20
-0.411235551229193
  0
LWPOLYLINE
  5
3EF0D9A1ECE554F
330
3EF0D9A1ECE566F
100
AcDbEntity
  8
TEXT
100
AcDbPolyline
 90
        2
 70
     0
 43
0.0006660908203125
 10
-0.1410434388698376
 20
-0.371270102010445
 10
-0.1676870716823351
 20
-0.371270102010445
  0
LINE
  5
3EF0D9A1ECE5553
330
3EF0D9A1ECE566F
100
AcDbEntity
  8
TEXT
100
AcDbLine
 10
1.347503357444162
 20
-0.3223113572140863
 30
0.0
 11
1.240297084056873
 21
-0.3223113572140863
 31
0.0
  0
LINE
  5
3EF0D9A1ECE5554
330
3EF0D9A1ECE566F
100
AcDbEntity
  8
TEXT
100
AcDbLine
 10
1.37653425578864
 20
-0.2580346625573209
 30
0.0
 11
1.241702346571581
 21
-0.2580346625573209
 31
0.0
  0
ARC
  5
3EF0D9A1ECE5555
330
3EF0D9A1ECE566F
100
AcDbEntity
  8
TEXT
100
AcDbCircle
 10
1.301016442964898
 20
-0.4272719118203372
 30
0.0
 40
0.0676855811441166
100
AcDbArc
 50
90.0
 51
153.7768192527749
  0
LWPOLYLINE
  5
3EF0D9A1ECE5556
330
3EF0D9A1ECE566F
100
AcDbEntity
  8
TEXT
100
AcDbPolyline
 90
        2
 70
     0
 43
0.0
 10
1.239264588602063
 20
-0.4810167505953938
 42
0.2901071551932823
 10
1.282340521469698
 20
-0.5245076955458319
 42
5.328517124445801
  0
ARC
  5
3EF0D9A1ECE555A
330
3EF0D9A1ECE566F
100
AcDbEntity
  8
TEXT
100
AcDbCircle
 10
0.5958850652934129
 20
-0.4647153042077821
 30
0.0
 40
0.0601160179737537
100
AcDbArc
 50
180.0000000000003
 51
264.0521544866073
  0
LINE
  5
3EF0D9A1ECE555B
330
3EF0D9A1ECE566F
100
AcDbEntity
  8
TEXT
100
AcDbLine
 10
0.5994004209189608
 20
-0.2236467449631827
 30
0.0
 11
0.5393578160749537
 21
-0.2236467449631827
 31
0.0
  0
ARC
  5
3EF0D9A1ECE555C
330
3EF0D9A1ECE566F
100
AcDbEntity
  8
TEXT
100
AcDbCircle
 10
0.3636260631764423
 20
-0.3401221220038226
 30
0.0
 40
0.0820874594465043
100
AcDbArc
 50
90.0
 51
270.0
  0
LWPOLYLINE
  5
3EF0D9A1ECE555D
330
3EF0D9A1ECE566F
100
AcDbEntity
  8
TEXT
100
AcDbPolyline
 90
        2
 70
     0
 43
0.0001332181640625
 10
-0.0444602699245222
 20
-0.331304652791697
 10
-0.0544516322292128
 20
-0.2580346625573173
  0
LWPOLYLINE
  5
3EF0D9A1ECE5561
330
3EF0D9A1ECE566F
100
AcDbEntity
  8
TEXT
100
AcDbPolyline
 90
        2
 70
     0
 43
0.0001332181640625
 10
-0.0544516322292128
 20
-0.2846782953698184
 10
-0.0444602699245222
 20
-0.3446264691979439
  0
LWPOLYLINE
  5
3EF0D9A1ECE5565
330
3EF0D9A1ECE566F
100
AcDbEntity
  8
TEXT
100
AcDbPolyline
 90
        3
 70
     0
 43
0.0006660908203125
 10
0.0987492564426647
 20
-0.371270102010445
 10
0.0987492564426647
 20
-0.2580346625573173
 10
-0.0144861830104612
 20
-0.2580346625573173
  0
LWPOLYLINE
  5
3EF0D9A1ECE556A
330
3EF0D9A1ECE566F
100
AcDbEntity
  8
TEXT
100
AcDbPolyline
 90
        3
 70
     0
 43
0.0006660908203125
 10
0.0721056236301636
 20
-0.371270102010445
 10
0.0721056236301636
 20
-0.2846782953698184
 10
-0.0144861830104612
 20
-0.2846782953698184
  0
LWPOLYLINE
  5
3EF0D9A1ECE556F
330
3EF0D9A1ECE566F
100
AcDbEntity
  8
TEXT
100
AcDbPolyline
 90
        2
 70
     0
 43
0.0001332181640625
 10
0.0721056236301636
 20
-0.2846782953698184
 10
0.0121574498020398
 20
-0.3446264691979439
  0
LWPOLYLINE
  5
3EF0D9A1ECE5573
330
3EF0D9A1ECE566F
100
AcDbEntity
  8
TEXT
100
AcDbPolyline
 90
        2
 70
     0
 43
0.0001332181640625
 10
-0.0144861830104612
 20
-0.2846782953698184
 10
-0.02447754531515
 20
-0.3446264691979439
  0
LWPOLYLINE
  5
3EF0D9A1ECE5577
330
3EF0D9A1ECE566F
100
AcDbEntity
  8
TEXT
100
AcDbPolyline
 90
        2
 70
     0
 43
0.0001332181640625
 10
-0.0144861830104612
 20
-0.2580346625573173
 10
-0.02447754531515
 20
-0.331304652791697
  0
LWPOLYLINE
  5
3EF0D9A1ECE557B
330
3EF0D9A1ECE566F
100
AcDbEntity
  8
TEXT
100
AcDbPolyline
 90
        2
 70
     0
 43
0.0001332181640625
 10
0.0254792662082886
 20
-0.3812614643151338
 10
0.0987492564426647
 20
-0.371270102010445
  0
LWPOLYLINE
  5
3EF0D9A1ECE557F
330
3EF0D9A1ECE566F
100
AcDbEntity
  8
TEXT
100
AcDbPolyline
 90
        2
 70
     0
 43
0.0001332181640625
 10
0.0721056236301636
 20
-0.371270102010445
 10
0.0121574498020398
 20
-0.3812614643151338
  0
LWPOLYLINE
  5
3EF0D9A1ECE5583
330
3EF0D9A1ECE566F
100
AcDbEntity
  8
TEXT
100
AcDbPolyline
 90
        2
 70
     0
 43
0.0001332181640625
 10
0.0987492564426647
 20
-0.411235551229193
 10
0.0254792662082886
 20
-0.4012441889245078
  0
LWPOLYLINE
  5
3EF0D9A1ECE5587
330
3EF0D9A1ECE566F
100
AcDbEntity
  8
TEXT
100
AcDbPolyline
 90
        2
 70
     0
 43
0.0001332181640625
 10
0.0721056236301636
 20
-0.411235551229193
 10
0.0121574498020398
 20
-0.4012441889245078
  0
LWPOLYLINE
  5
3EF0D9A1ECE558B
330
3EF0D9A1ECE566F
100
AcDbEntity
  8
TEXT
100
AcDbPolyline
 90
        2
 70
     0
 43
0.0001332181640625
 10
0.0721056236301636
 20
-0.4978273578698196
 10
0.0121574498020398
 20
-0.4378791840416941
  0
LWPOLYLINE
  5
3EF0D9A1ECE558F
330
3EF0D9A1ECE566F
100
AcDbEntity
  8
TEXT
100
AcDbPolyline
 90
        3
 70
     0
 43
0.0006660908203125
 10
-0.0144861830104612
 20
-0.4978273578698196
 10
0.0721056236301636
 20
-0.4978273578698196
 10
0.0721056236301636
 20
-0.411235551229193
  0
LWPOLYLINE
  5
3EF0D9A1ECE5594
330
3EF0D9A1ECE566F
100
AcDbEntity
  8
TEXT
100
AcDbPolyline
 90
        3
 70
     0
 43
0.0006660908203125
 10
-0.0144861830104612
 20
-0.5244709906823207
 10
0.0987492564426647
 20
-0.5244709906823207
 10
0.0987492564426647
 20
-0.411235551229193
  0
LWPOLYLINE
  5
3EF0D9A1ECE5599
330
3EF0D9A1ECE566F
100
AcDbEntity
  8
TEXT
100
AcDbPolyline
 90
        5
 70
     0
 43
0.0001332181640625
 10
-0.0444602699245222
 20
-0.4512010004479446
 10
-0.0444602699245222
 20
-0.4378791840416941
 10
-0.0810952650417103
 20
-0.4378791840416941
 10
-0.0810952650417103
 20
-0.4012441889245078
 10
-0.0944170814479608
 20
-0.4012441889245078
  0
LWPOLYLINE
  5
3EF0D9A1ECE55A0
330
3EF0D9A1ECE566F
100
AcDbEntity
  8
TEXT
100
AcDbPolyline
 90
        2
 70
     0
 43
0.0006660908203125
 10
-0.0544516322292128
 20
-0.4978273578698196
 10
-0.0544516322292128
 20
-0.5244709906823207
  0
LWPOLYLINE
  5
3EF0D9A1ECE55A4
330
3EF0D9A1ECE566F
100
AcDbEntity
  8
TEXT
100
AcDbPolyline
 90
        2
 70
     0
 43
0.0001332181640625
 10
-0.0544516322292128
 20
-0.4978273578698196
 10
-0.0444602699245222
 20
-0.4378791840416941
  0
LWPOLYLINE
  5
3EF0D9A1ECE55A8
330
3EF0D9A1ECE566F
100
AcDbEntity
  8
TEXT
100
AcDbPolyline
 90
        2
 70
     0
 43
0.0001332181640625
 10
-0.0544516322292128
 20
-0.5244709906823207
 10
-0.0444602699245222
 20
-0.4512010004479446
  0
LWPOLYLINE
  5
3EF0D9A1ECE55AC
330
3EF0D9A1ECE566F
100
AcDbEntity
  8
TEXT
100
AcDbPolyline
 90
        5
 70
     0
 43
0.0001332181640625
 10
-0.0944170814479608
 20
-0.3812614643151338
 10
-0.0810952650417121
 20
-0.3812614643151338
 10
-0.0810952650417121
 20
-0.3446264691979439
 10
-0.0444602699245222
 20
-0.3446264691979439
 10
-0.0444602699245222
 20
-0.331304652791697
  0
LWPOLYLINE
  5
3EF0D9A1ECE55B3
330
3EF0D9A1ECE566F
100
AcDbEntity
  8
TEXT
100
AcDbPolyline
 90
        5
 70
     0
 43
0.0001332181640625
 10
-0.02447754531515
 20
-0.331304652791697
 10
-0.02447754531515
 20
-0.3446264691979439
 10
0.0121574498020398
 20
-0.3446264691979439
 10
0.0121574498020398
 20
-0.3812614643151338
 10
0.0254792662082886
 20
-0.3812614643151338
  0
LWPOLYLINE
  5
3EF0D9A1ECE55BA
330
3EF0D9A1ECE566F
100
AcDbEntity
  8
TEXT
100
AcDbPolyline
 90
        2
 70
     0
 43
0.0001332181640625
 10
-0.0144861830104612
 20
-0.4978273578698196
 10
-0.02447754531515
 20
-0.4378791840416941
  0
LWPOLYLINE
  5
3EF0D9A1ECE55BE
330
3EF0D9A1ECE566F
100
AcDbEntity
  8
TEXT
100
AcDbPolyline
 90
        2
 70
     0
 43
0.0001332181640625
 10
-0.02447754531515
 20
-0.4512010004479446
 10
-0.0144861830104612
 20
-0.5244709906823207
  0
LWPOLYLINE
  5
3EF0D9A1ECE55C2
330
3EF0D9A1ECE566F
100
AcDbEntity
  8
TEXT
100
AcDbPolyline
 90
        2
 70
     0
 43
0.0006660908203125
 10
-0.0144861830104612
 20
-0.4978273578698196
 10
-0.0144861830104612
 20
-0.5244709906823207
  0
LWPOLYLINE
  5
3EF0D9A1ECE55C6
330
3EF0D9A1ECE566F
100
AcDbEntity
  8
TEXT
100
AcDbPolyline
 90
        5
 70
     0
 43
0.0001332181640625
 10
0.0254792662082886
 20
-0.4012441889245078
 10
0.0121574498020398
 20
-0.4012441889245078
 10
0.0121574498020398
 20
-0.4378791840416941
 10
-0.02447754531515
 20
-0.4378791840416941
 10
-0.02447754531515
 20
-0.4512010004479446
  0
LWPOLYLINE
  5
3EF0D9A1ECE55CD
330
3EF0D9A1ECE566F
100
AcDbEntity
  8
TEXT
100
AcDbPolyline
 90
        2
 70
     0
 43
0.0006660908203125
 10
0.0721056236301636
 20
-0.371270102010445
 10
0.0987492564426647
 20
-0.371270102010445
  0
LWPOLYLINE
  5
3EF0D9A1ECE55D1
330
3EF0D9A1ECE566F
100
AcDbEntity
  8
TEXT
100
AcDbPolyline
 90
        2
 70
     0
 43
0.0006660908203125
 10
0.0721056236301636
 20
-0.411235551229193
 10
0.0987492564426647
 20
-0.411235551229193
  0
LINE
  5
3EF0D9A1ECE55D5
330
3EF0D9A1ECE566F
100
AcDbEntity
  8
TEXT
100
AcDbLine
 10
0.3688633932906895
 20
-0.3223113572140863
 30
0.0
 11
0.5357690473196608
 21
-0.3223113572140863
 31
0.0
  0
LINE
  5
3EF0D9A1ECE55D6
330
3EF0D9A1ECE566F
100
AcDbEntity
  8
TEXT
100
AcDbLine
 10
0.4344635295349906
 20
-0.3581160788247142
 30
0.0
 11
0.3688633932906895
 21
-0.3581160788247142
 31
0.0
  0
LINE
  5
3EF0D9A1ECE55D7
330
3EF0D9A1ECE566F
100
AcDbEntity
  8
TEXT
100
AcDbLine
 10
0.2815386037299379
 20
-0.5245076955458319
 30
0.0
 11
0.4344635295349906
 21
-0.5245076955458319
 31
0.0
  0
LINE
  5
3EF0D9A1ECE55D8
330
3EF0D9A1ECE566F
100
AcDbEntity
  8
TEXT
100
AcDbLine
 10
0.4394039034412703
 20
-0.4561506892123926
 30
0.0
 11
0.2815386037299361
 21
-0.4561506892123926
 31
0.0
  0
LINE
  5
3EF0D9A1ECE55D9
330
3EF0D9A1ECE566F
100
AcDbEntity
  8
TEXT
100
AcDbLine
 10
0.3636260631764414
 20
-0.422209581450328
 30
0.0
 11
0.4394039034412703
 21
-0.422209581450328
 31
0.0
  0
ARC
  5
3EF0D9A1ECE55DA
330
3EF0D9A1ECE566F
100
AcDbEntity
  8
TEXT
100
AcDbCircle
 10
0.3688633932906904
 20
-0.3402137180193985
 30
0.0
 40
0.017902360805315
100
AcDbArc
 50
90.0
 51
270.0
  0
LINE
  5
3EF0D9A1ECE55DB
330
3EF0D9A1ECE566F
100
AcDbEntity
  8
TEXT
100
AcDbLine
 10
0.2815386037299361
 20
-0.4561506892123926
 30
0.0
 11
0.2815386037299379
 21
-0.5245076955458319
 31
0.0
  0
LINE
  5
3EF0D9A1ECE55DC
330
3EF0D9A1ECE566F
100
AcDbEntity
  8
TEXT
100
AcDbLine
 10
0.5357690473196608
 20
-0.3223113572140863
 30
0.0
 11
0.5357690473196608
 21
-0.4647153042077821
 31
0.0
  0
ARC
  5
3EF0D9A1ECE55DD
330
3EF0D9A1ECE566F
100
AcDbEntity
  8
TEXT
100
AcDbCircle
 10
0.4344635295349915
 20
-0.4413118871852748
 30
0.0
 40
0.0831958083605586
100
AcDbArc
 50
270.0
 51
90.0
  0
ARC
  5
3EF0D9A1ECE55DE
330
3EF0D9A1ECE566F
100
AcDbEntity
  8
TEXT
100
AcDbCircle
 10
0.4394039034412712
 20
-0.4391801353313585
 30
0.0
 40
0.0169705538810321
100
AcDbArc
 50
270.0
 51
90.0
  0
LWPOLYLINE
  5
3EF0D9A1ECE55DF
330
3EF0D9A1ECE566F
100
AcDbEntity
  8
TEXT
100
AcDbPolyline
 90
        2
 70
     0
 43
0.0006660908203125
 10
-0.0544516322292128
 20
-0.2846782953698184
 10
-0.0544516322292128
 20
-0.2580346625573173
  0
LWPOLYLINE
  5
3EF0D9A1ECE55E3
330
3EF0D9A1ECE566F
100
AcDbEntity
  8
TEXT
100
AcDbPolyline
 90
        2
 70
     0
 43
0.0006660908203125
 10
-0.0144861830104612
 20
-0.2846782953698184
 10
-0.0144861830104612
 20
-0.2580346625573173
  0
LINE
  5
3EF0D9A1ECE55E7
330
3EF0D9A1ECE566F
100
AcDbEntity
  8
TEXT
100
AcDbLine
 10
0.5393578160749537
 20
-0.2580346625573209
 30
0.0
 11
0.3636260631764414
 21
-0.2580346625573209
 31
0.0
  0
LINE
  5
3EF0D9A1ECE55E8
330
3EF0D9A1ECE566F
100
AcDbEntity
  8
TEXT
100
AcDbLine
 10
0.5393578160749537
 20
-0.2236467449631827
 30
0.0
 11
0.5393578160749537
 21
-0.2580346625573209
 31
0.0
  0
LINE
  5
3EF0D9A1ECE55E9
330
3EF0D9A1ECE566F
100
AcDbEntity
  8
TEXT
100
AcDbLine
 10
0.729829708094806
 20
-0.3589066586704415
 30
0.0
 11
0.6711993870628681
 21
-0.2580346625573209
 31
0.0
  0
LINE
  5
3EF0D9A1ECE55EA
330
3EF0D9A1ECE566F
100
AcDbEntity
  8
TEXT
100
AcDbLine
 10
0.7885782709006715
 20
-0.2580346625573209
 30
0.0
 11
0.729829708094806
 21
-0.3589066586704415
 31
0.0
  0
LINE
  5
3EF0D9A1ECE55EB
330
3EF0D9A1ECE566F
100
AcDbEntity
  8
TEXT
100
AcDbLine
 10
0.8855088962604128
 20
-0.4421198574428327
 30
0.0
 11
0.8855088962604128
 21
-0.1900231848185103
 31
0.0
  0
LINE
  5
3EF0D9A1ECE55EC
330
3EF0D9A1ECE566F
100
AcDbEntity
  8
TEXT
100
AcDbLine
 10
0.9178207503980729
 20
-0.2580346625573209
 30
0.0
 11
0.9178207503980729
 21
-0.4588988692897292
 31
0.0
  0
LINE
  5
3EF0D9A1ECE55ED
330
3EF0D9A1ECE566F
100
AcDbEntity
  8
TEXT
100
AcDbLine
 10
0.9178207503980729
 20
-0.4588988692897292
 30
0.0
 11
0.9008271135134716
 21
-0.4588988692897292
 31
0.0
  0
LINE
  5
3EF0D9A1ECE55EE
330
3EF0D9A1ECE566F
100
AcDbEntity
  8
TEXT
100
AcDbLine
 10
0.8866484697566075
 20
-0.5245076955458319
 30
0.0
 11
0.9846518034560421
 21
-0.5245076955458319
 31
0.0
  0
LINE
  5
3EF0D9A1ECE55EF
330
3EF0D9A1ECE566F
100
AcDbEntity
  8
TEXT
100
AcDbLine
 10
0.7202294710978517
 20
-0.504549189440819
 30
0.0
 11
0.8175291771912963
 21
-0.3401989785055508
 31
0.0
  0
ARC
  5
3EF0D9A1ECE55F0
330
3EF0D9A1ECE566F
100
AcDbEntity
  8
TEXT
100
AcDbCircle
 10
0.6861859111856377
 20
-0.4849599732721362
 30
0.0
 40
0.0392772371940762
100
AcDbArc
 50
270.1604552698595
 51
330.0831797321295
  0
LINE
  5
3EF0D9A1ECE55F1
330
3EF0D9A1ECE566F
100
AcDbEntity
  8
TEXT
100
AcDbLine
 10
0.5896556547997665
 20
-0.5245076955458319
 30
0.0
 11
0.6862959058747609
 21
-0.5242370564475496
 31
0.0
  0
LWPOLYLINE
  5
3EF0D9A1ECE55F2
330
3EF0D9A1ECE566F
100
AcDbEntity
  8
TEXT
100
AcDbPolyline
 90
        6
 70
     1
 43
0.0
 10
0.6321794583749161
 20
-0.3223113572140863
 10
0.6018628641547079
 20
-0.3223113572140863
 10
0.6018628641547079
 20
-0.4454223552689807
 42
0.407328721240804
 10
0.6134065153161843
 20
-0.4572412699453668
 10
0.6740282143609151
 20
-0.4572412699453668
 10
0.6914935547682331
 20
-0.4244290409018876
  0
LINE
  5
3EF0D9A1ECE55FA
330
3EF0D9A1ECE566F
100
AcDbEntity
  8
TEXT
100
AcDbLine
 10
0.8175291771912963
 20
-0.3401989785055508
 30
0.0
 11
0.8175291771912963
 21
-0.4729563533309072
 31
0.0
  0
ARC
  5
3EF0D9A1ECE55FB
330
3EF0D9A1ECE566F
100
AcDbEntity
  8
TEXT
100
AcDbCircle
 10
0.9008271135134698
 20
-0.4435170630463037
 30
0.0
 40
0.0153818062434269
100
AcDbArc
 50
174.7883570302258
 51
270.0
  0
LWPOLYLINE
  5
3EF0D9A1ECE55FC
330
3EF0D9A1ECE566F
100
AcDbEntity
  8
TEXT
100
AcDbPolyline
 90
        2
 70
     0
 43
0.0
 10
0.8175291771912945
 20
-0.4729563533309036
 42
0.3318488747599744
 10
0.8866484697566075
 20
-0.5245076955458319
 42
-6.868794160588311
  0
LINE
  5
3EF0D9A1ECE5600
330
3EF0D9A1ECE566F
100
AcDbEntity
  8
TEXT
100
AcDbLine
 10
1.042040872445303
 20
-0.5245076955458319
 30
0.0
 11
1.109098919227143
 21
-0.5245076955458319
 31
0.0
  0
LINE
  5
3EF0D9A1ECE5601
330
3EF0D9A1ECE566F
100
AcDbEntity
  8
TEXT
100
AcDbLine
 10
1.042040872445303
 20
-0.3298651463801963
 30
0.0
 11
1.042040872445303
 21
-0.5245076955458319
 31
0.0
  0
LINE
  5
3EF0D9A1ECE5602
330
3EF0D9A1ECE566F
100
AcDbEntity
  8
TEXT
100
AcDbLine
 10
0.9846518034560421
 20
-0.3223113572140863
 30
0.0
 11
1.034487083279189
 21
-0.3223113572140863
 31
0.0
  0
LINE
  5
3EF0D9A1ECE5603
330
3EF0D9A1ECE566F
100
AcDbEntity
  8
TEXT
100
AcDbLine
 10
0.9846518034560421
 20
-0.5245076955458319
 30
0.0
 11
0.9846518034560421
 21
-0.3223113572140863
 31
0.0
  0
LWPOLYLINE
  5
3EF0D9A1ECE5604
330
3EF0D9A1ECE566F
100
AcDbEntity
  8
TEXT
100
AcDbPolyline
 90
        2
 70
     0
 43
0.0
 10
1.034487083279187
 20
-0.3223113572140863
 42
-0.4142135623731017
 10
1.042040872445301
 20
-0.3298651463801963
 42
-0.9999999999999998
  0
LINE
  5
3EF0D9A1ECE5608
330
3EF0D9A1ECE566F
100
AcDbEntity
  8
TEXT
100
AcDbLine
 10
1.240297084056873
 20
-0.3223113572140863
 30
0.0
 11
1.240297084056873
 21
-0.3973637632882929
 31
0.0
  0
LINE
  5
3EF0D9A1ECE5609
330
3EF0D9A1ECE566F
100
AcDbEntity
  8
TEXT
100
AcDbLine
 10
1.109098919227143
 20
-0.3223113572140863
 30
0.0
 11
1.163232516148093
 21
-0.3223113572140863
 31
0.0
  0
LINE
  5
3EF0D9A1ECE560A
330
3EF0D9A1ECE566F
100
AcDbEntity
  8
TEXT
100
AcDbLine
 10
1.109098919227143
 20
-0.5245076955458319
 30
0.0
 11
1.109098919227143
 21
-0.3223113572140863
 31
0.0
  0
LWPOLYLINE
  5
3EF0D9A1ECE560B
330
3EF0D9A1ECE566F
100
AcDbEntity
  8
TEXT
100
AcDbPolyline
 90
        2
 70
     0
 43
0.0
 10
1.163232516148091
 20
-0.3223113572140863
 42
-0.4142135623731017
 10
1.170786305314205
 20
-0.3298651463801963
 42
-0.9999999999999998
  0
LWPOLYLINE
  5
3EF0D9A1ECE560F
330
3EF0D9A1ECE566F
100
AcDbEntity
  8
TEXT
100
AcDbPolyline
 90
        4
 70
     0
 43
0.0
 10
1.170786305314205
 20
-0.3298651463801963
 10
1.170786305314205
 20
-0.5245076955458319
 10
1.239264588602063
 20
-0.5245076955458319
 10
1.239264588602063
 20
-0.4810167505953938
 42
-1.714843617202739
  0
LINE
  5
3EF0D9A1ECE5615
330
3EF0D9A1ECE566F
100
AcDbEntity
  8
TEXT
100
AcDbLine
 10
0.5994004209189608
 20
-0.2580346625573209
 30
0.0
 11
0.5994004209189608
 21
-0.2236467449631827
 31
0.0
  0
LINE
  5
3EF0D9A1ECE5616
330
3EF0D9A1ECE566F
100
AcDbEntity
  8
TEXT
100
AcDbLine
 10
0.6711993870628681
 20
-0.2580346625573209
 30
0.0
 11
0.5994004209189608
 21
-0.2580346625573209
 31
0.0
  0
LINE
  5
3EF0D9A1ECE5617
330
3EF0D9A1ECE566F
100
AcDbEntity
  8
TEXT
100
AcDbLine
 10
0.8187001836940478
 20
-0.2580346625573209
 30
0.0
 11
0.7885782709006715
 21
-0.2580346625573209
 31
0.0
  0
LINE
  5
3EF0D9A1ECE5618
330
3EF0D9A1ECE566F
100
AcDbEntity
  8
TEXT
100
AcDbLine
 10
0.8187001836940478
 20
-0.1900231848185103
 30
0.0
 11
0.8187001836940478
 21
-0.2580346625573209
 31
0.0
  0
LINE
  5
3EF0D9A1ECE5619
330
3EF0D9A1ECE566F
100
AcDbEntity
  8
TEXT
100
AcDbLine
 10
0.8855088962604128
 20
-0.1900231848185103
 30
0.0
 11
0.8187001836940478
 21
-0.1900231848185103
 31
0.0
  0
LWPOLYLINE
  5
3EF0D9A1ECE561A
330
3EF0D9A1ECE566F
100
AcDbEntity
  8
TEXT
100
AcDbPolyline
 90
        3
 70
     0
 43
0.0
 10
1.205920655858415
 20
-0.2580346625573173
 10
1.08762049704237
 20
-0.2580346625573173
 10
1.08762049704237
 20
-0.2852021593182132
 42
-1.960274751411753
  0
LINE
  5
3EF0D9A1ECE561F
330
3EF0D9A1ECE566F
100
AcDbEntity
  8
TEXT
100
AcDbLine
 10
1.051838806329209
 20
-0.2580346625573209
 30
0.0
 11
0.9178207503980729
 21
-0.2580346625573209
 31
0.0
  0
LWPOLYLINE
  5
3EF0D9A1ECE5620
330
3EF0D9A1ECE566F
100
AcDbEntity
  8
TEXT
100
AcDbPolyline
 90
        2
 70
     0
 43
0.0
 10
1.051838806329209
 20
-0.2580346625573173
 42
-0.3328679258950098
 10
1.08762049704237
 20
-0.2852021593182132
 42
6.772930709997214
  0
LINE
  5
3EF0D9A1ECE5624
330
3EF0D9A1ECE566F
100
AcDbEntity
  8
TEXT
100
AcDbLine
 10
1.241702346571581
 20
-0.2580346625573209
 30
0.0
 11
1.241702346571581
 21
-0.2863572083269648
 31
0.0
  0
LWPOLYLINE
  5
3EF0D9A1ECE5625
330
3EF0D9A1ECE566F
100
AcDbEntity
  8
TEXT
100
AcDbPolyline
 90
        2
 70
     0
 43
0.0
 10
1.205920655858415
 20
-0.2580346625573173
 42
-0.3277054968067132
 10
1.241702346571579
 20
-0.2863572083269612
 42
6.667889725900311
  0
LINE
  5
3EF0D9A1ECE5629
330
3EF0D9A1ECE566F
100
AcDbEntity
  8
TEXT
100
AcDbLine
 10
1.455494194663681
 20
-0.3632466411107482
 30
0.0
 11
1.41174342348178
 21
-0.280996365114603
 31
0.0
  0
LINE
  5
3EF0D9A1ECE562A
330
3EF0D9A1ECE566F
100
AcDbEntity
  8
TEXT
100
AcDbLine
 10
1.455494194663681
 20
-0.2580346625573209
 30
0.0
 11
1.455494194663681
 21
-0.3632466411107482
 31
0.0
  0
LINE
  5
3EF0D9A1ECE562B
330
3EF0D9A1ECE566F
100
AcDbEntity
  8
TEXT
100
AcDbLine
 10
1.68317793360205
 20
-0.333899988968859
 30
0.0
 11
1.68317793360205
 21
-0.1925704567897202
 31
0.0
  0
LINE
  5
3EF0D9A1ECE562C
330
3EF0D9A1ECE566F
100
AcDbEntity
  8
TEXT
100
AcDbLine
 10
1.730276092158035
 20
-0.2580346625573209
 30
0.0
 11
1.68317793360205
 21
-0.333899988968859
 31
0.0
  0
LINE
  5
3EF0D9A1ECE562D
330
3EF0D9A1ECE566F
100
AcDbEntity
  8
TEXT
100
AcDbLine
 10
1.740710808921958
 20
-0.3679279054982945
 30
0.0
 11
1.805267924887663
 21
-0.2580346625573209
 31
0.0
  0
LINE
  5
3EF0D9A1ECE562E
330
3EF0D9A1ECE566F
100
AcDbEntity
  8
TEXT
100
AcDbLine
 10
1.619342942379277
 20
-0.5245076955458319
 30
0.0
 11
1.683721126697898
 21
-0.5245076955458319
 31
0.0
  0
LWPOLYLINE
  5
3EF0D9A1ECE562F
330
3EF0D9A1ECE566F
100
AcDbEntity
  8
TEXT
100
AcDbPolyline
 90
        2
 70
     0
 43
0.0
 10
1.459433871968719
 20
-0.4810167505953938
 42
-0.2901071551932486
 10
1.416357939101075
 20
-0.5245076955458319
 42
-5.328517124445184
  0
ARC
  5
3EF0D9A1ECE5633
330
3EF0D9A1ECE566F
100
AcDbEntity
  8
TEXT
100
AcDbCircle
 10
1.34750335744416
 20
-0.3506707322140836
 30
0.0
 40
0.028359375
100
AcDbArc
 50
25.78218179591245
 51
90.0
  0
LINE
  5
3EF0D9A1ECE5634
330
3EF0D9A1ECE566F
100
AcDbEntity
  8
TEXT
100
AcDbLine
 10
1.383304432748283
 20
-0.3595863306762186
 30
0.0
 11
1.373039672334719
 21
-0.3383357911035243
 31
0.0
  0
LINE
  5
3EF0D9A1ECE5635
330
3EF0D9A1ECE566F
100
AcDbEntity
  8
TEXT
100
AcDbLine
 10
1.3010164429649
 20
-0.3595863306762186
 30
0.0
 11
1.383304432748283
 21
-0.3595863306762186
 31
0.0
  0
LWPOLYLINE
  5
3EF0D9A1ECE5636
330
3EF0D9A1ECE566F
100
AcDbEntity
  8
TEXT
100
AcDbPolyline
 90
        4
 70
     1
 43
0.0
 10
1.396235474031182
 20
-0.4215437175618067
 10
1.307575155371324
 20
-0.4215437175618067
 42
0.9999999999999998
 10
1.307575155371324
 20
-0.4639422580656674
 10
1.396235474031182
 20
-0.4639422580656674
 42
1.0
  0
LWPOLYLINE
  5
3EF0D9A1ECE563C
330
3EF0D9A1ECE566F
100
AcDbEntity
  8
TEXT
100
AcDbPolyline
 90
        2
 70
     0
 43
0.0
 10
1.282340521469698
 20
-0.5245076955458319
 10
1.416357939101075
 20
-0.5245076955458319
 42
0.9999999999999998
  0
LINE
  5
3EF0D9A1ECE5640
330
3EF0D9A1ECE566F
100
AcDbEntity
  8
TEXT
100
AcDbLine
 10
1.542694961086714
 20
-0.3223113572140863
 30
0.0
 11
1.619342942379272
 21
-0.3223113572140863
 31
0.0
  0
LINE
  5
3EF0D9A1ECE5641
330
3EF0D9A1ECE566F
100
AcDbEntity
  8
TEXT
100
AcDbLine
 10
1.619342942379272
 20
-0.3223113572140863
 30
0.0
 11
1.619342942379277
 21
-0.5245076955458319
 31
0.0
  0
ARC
  5
3EF0D9A1ECE5642
330
3EF0D9A1ECE566F
100
AcDbEntity
  8
TEXT
100
AcDbCircle
 10
1.542694961086712
 20
-0.3472172324967491
 30
0.0
 40
0.0249058752826653
100
AcDbArc
 50
89.99971217465335
 51
179.9999999999985
  0
LINE
  5
3EF0D9A1ECE5643
330
3EF0D9A1ECE566F
100
AcDbEntity
  8
TEXT
100
AcDbLine
 10
1.517789085804055
 20
-0.5245076955458319
 30
0.0
 11
1.51778908580405
 21
-0.3472171901143635
 31
0.0
  0
LWPOLYLINE
  5
3EF0D9A1ECE5644
330
3EF0D9A1ECE566F
100
AcDbEntity
  8
TEXT
100
AcDbPolyline
 90
        2
 70
     0
 43
0.0
 10
1.459433871968719
 20
-0.5245076955458319
 10
1.517789085804053
 20
-0.5245076955458319
  0
LWPOLYLINE
  5
3EF0D9A1ECE5648
330
3EF0D9A1ECE566F
100
AcDbEntity
  8
TEXT
100
AcDbPolyline
 90
        2
 70
     0
 43
0.0
 10
1.459433871968719
 20
-0.4810167505953938
 10
1.459433871968719
 20
-0.5245076955458319
  0
LINE
  5
3EF0D9A1ECE564C
330
3EF0D9A1ECE566F
100
AcDbEntity
  8
TEXT
100
AcDbLine
 10
1.836203032285568
 20
-0.5245076955458319
 30
0.0
 11
1.740710808921958
 21
-0.3679279054982945
 31
0.0
  0
LINE
  5
3EF0D9A1ECE564D
330
3EF0D9A1ECE566F
100
AcDbEntity
  8
TEXT
100
AcDbLine
 10
1.759624659909362
 20
-0.5245076955458319
 30
0.0
 11
1.836203032285568
 21
-0.5245076955458319
 31
0.0
  0
LINE
  5
3EF0D9A1ECE564E
330
3EF0D9A1ECE566F
100
AcDbEntity
  8
TEXT
100
AcDbLine
 10
1.683721126697898
 20
-0.3929281270696516
 30
0.0
 11
1.759624659909362
 21
-0.5245076955458319
 31
0.0
  0
LINE
  5
3EF0D9A1ECE564F
330
3EF0D9A1ECE566F
100
AcDbEntity
  8
TEXT
100
AcDbLine
 10
1.683721126697898
 20
-0.5245076955458319
 30
0.0
 11
1.683721126697898
 21
-0.3929281270696516
 31
0.0
  0
LINE
  5
3EF0D9A1ECE5650
330
3EF0D9A1ECE566F
100
AcDbEntity
  8
TEXT
100
AcDbLine
 10
1.68317793360205
 20
-0.1925704567897202
 30
0.0
 11
1.614863055052777
 21
-0.1925704567897202
 31
0.0
  0
ARC
  5
3EF0D9A1ECE5651
330
3EF0D9A1ECE566F
100
AcDbEntity
  8
TEXT
100
AcDbCircle
 10
1.374507316011571
 20
-0.2996182296782233
 30
0.0
 40
0.0416329381542859
100
AcDbArc
 50
26.56974201007528
 51
87.20939649401342
  0
LINE
  5
3EF0D9A1ECE5652
330
3EF0D9A1ECE566F
100
AcDbEntity
  8
TEXT
100
AcDbLine
 10
1.519391100963182
 20
-0.2580346625573209
 30
0.0
 11
1.455494194663681
 21
-0.2580346625573209
 31
0.0
  0
LINE
  5
3EF0D9A1ECE5653
330
3EF0D9A1ECE566F
100
AcDbEntity
  8
TEXT
100
AcDbLine
 10
1.519391100963182
 20
-0.2855823124181955
 30
0.0
 11
1.519391100963182
 21
-0.2580346625573209
 31
0.0
  0
ARC
  5
3EF0D9A1ECE5654
330
3EF0D9A1ECE566F
100
AcDbEntity
  8
TEXT
100
AcDbCircle
 10
1.55058391802629
 20
-0.2892803898395857
 30
0.0
 40
0.0314112657011332
100
AcDbArc
 50
95.88484768694724
 51
173.2388340632136
  0
LINE
  5
3EF0D9A1ECE5655
330
3EF0D9A1ECE566F
100
AcDbEntity
  8
TEXT
100
AcDbLine
 10
1.614863055052772
 20
-0.2580346625573209
 30
0.0
 11
1.547363337403255
 21
-0.2580346625573209
 31
0.0
  0
LINE
  5
3EF0D9A1ECE5656
330
3EF0D9A1ECE566F
100
AcDbEntity
  8
TEXT
100
AcDbLine
 10
1.614863055052777
 20
-0.1925704567897202
 30
0.0
 11
1.614863055052772
 21
-0.2580346625573209
 31
0.0
  0
LINE
  5
3EF0D9A1ECE5657
330
3EF0D9A1ECE566F
100
AcDbEntity
  8
TEXT
100
AcDbLine
 10
1.805267924887663
 20
-0.2580346625573209
 30
0.0
 11
1.730276092158037
 21
-0.2580346625573209
 31
0.0
  0
ENDSEC
  0
SECTION
  2
OBJECTS
  0
DICTIONARY
  5
3EF0D9A1ECE5663
330
0
100
AcDbDictionary
  3
ACAD_GROUP
350
3EF0D9A1ECE5664
  3
ACAD_LAYOUT
350
3EF0D9A1ECE5689
  3
ACAD_MLINESTYLE
350
3EF0D9A1ECE5665
  3
ACAD_PLOTSETTINGS
350
3EF0D9A1ECE568A
  3
ACAD_PLOTSTYLENAME
350
3EF0D9A1ECE5687
  3
ACDBHEADERROUNDTRIPXREC
350
3EF0D9A1ECE5694
  3
ACDBVARIABLEDICTIONARY
350
3EF0D9A1ECE5691
  0
DICTIONARY
  5
3EF0D9A1ECE56B6
330
3EF0D9A1ECE566F
100
AcDbDictionary
280
     1
  3
ACAD_LAYOUTSELFREF
360
3EF0D9A1ECE56B7
  0
DICTIONARY
  5
3EF0D9A1ECE56B4
330
3EF0D9A1ECE566C
100
AcDbDictionary
280
     1
  3
ACAD_LAYOUTSELFREF
360
3EF0D9A1ECE56B5
  0
DICTIONARY
  5
3EF0D9A1ECE5664
102
{ACAD_REACTORS
330
3EF0D9A1ECE5663
102
}
330
3EF0D9A1ECE5663
100
AcDbDictionary
  0
DICTIONARY
  5
3EF0D9A1ECE5689
102
{ACAD_REACTORS
330
3EF0D9A1ECE5663
102
}
330
3EF0D9A1ECE5663
100
AcDbDictionary
  0
DICTIONARY
  5
3EF0D9A1ECE5665
102
{ACAD_REACTORS
330
3EF0D9A1ECE5663
102
}
330
3EF0D9A1ECE5663
100
AcDbDictionary
  3
STANDARD
350
3EF0D9A1ECE5672
  0
DICTIONARY
  5
3EF0D9A1ECE568A
102
{ACAD_REACTORS
330
3EF0D9A1ECE5663
102
}
330
3EF0D9A1ECE5663
100
AcDbDictionary
  0
ACDBDICTIONARYWDFLT
  5
3EF0D9A1ECE5687
102
{ACAD_REACTORS
330
3EF0D9A1ECE5663
102
}
330
3EF0D9A1ECE5663
100
AcDbDictionary
281
     1
  3
Normal
350
3EF0D9A1ECE5688
100
AcDbDictionaryWithDefault
340
3EF0D9A1ECE5688
  0
DICTIONARY
  5
3EF0D9A1ECE5694
102
{ACAD_REACTORS
330
3EF0D9A1ECE5663
102
}
330
3EF0D9A1ECE5663
100
AcDbDictionary
  3
CEPSNTYPE
350
3EF0D9A1ECE569E
  3
FINGERPRINTGUID
350
3EF0D9A1ECE569F
  3
HYPERLINKBASE
350
3EF0D9A1ECE5697
  3
INSUNITS
350
3EF0D9A1ECE569D
  3
LAYOUTDICT
350
3EF0D9A1ECE5699
  3
LWETCUNION
350
3EF0D9A1ECE569C
  3
PLOTSETDICT
350
3EF0D9A1ECE569A
  3
PLOTSTYLNAMDICT
350
3EF0D9A1ECE569B
  3
PSVPSCALE
350
3EF0D9A1ECE56A1
  3
PUCSBASE
350
3EF0D9A1ECE56A4
  3
PUCSORGBACK
350
3EF0D9A1ECE56AA
  3
PUCSORGBOTTOM
350
3EF0D9A1ECE56A6
  3
PUCSORGFRONT
350
3EF0D9A1ECE56A9
  3
PUCSORGLEFT
350
3EF0D9A1ECE56A7
  3
PUCSORGRIGHT
350
3EF0D9A1ECE56A8
  3
PUCSORGTOP
350
3EF0D9A1ECE56A5
  3
PUCSORTHOREF
350
3EF0D9A1ECE56A2
  3
PUCSORTHOVIEW
350
3EF0D9A1ECE56A3
  3
STYLESHEET
350
3EF0D9A1ECE5698
  3
TSTACKALIGN
350
3EF0D9A1ECE5695
  3
TSTACKSIZE
350
3EF0D9A1ECE5696
  3
UCSBASE
350
3EF0D9A1ECE56AD
  3
UCSORGBACK
350
3EF0D9A1ECE56B3
  3
UCSORGBOTTOM
350
3EF0D9A1ECE56AF
  3
UCSORGFRONT
350
3EF0D9A1ECE56B2
  3
UCSORGLEFT
350
3EF0D9A1ECE56B0
  3
UCSORGRIGHT
350
3EF0D9A1ECE56B1
  3
UCSORGTOP
350
3EF0D9A1ECE56AE
  3
UCSORTHOREF
350
3EF0D9A1ECE56AB
  3
UCSORTHOVIEW
350
3EF0D9A1ECE56AC
  3
VERSIONGUID
350
3EF0D9A1ECE56A0
  0
DICTIONARY
  5
3EF0D9A1ECE5691
102
{ACAD_REACTORS
330
3EF0D9A1ECE5663
102
}
330
3EF0D9A1ECE5663
100
AcDbDictionary
  3
DIMASSOC
350
3EF0D9A1ECE5692
  0
XRECORD
  5
3EF0D9A1ECE56B7
102
{ACAD_REACTORS
330
3EF0D9A1ECE56B6
102
}
330
3EF0D9A1ECE56B6
100
AcDbXrecord
340
3EF0D9A1ECE566F
  0
XRECORD
  5
3EF0D9A1ECE56B5
102
{ACAD_REACTORS
330
3EF0D9A1ECE56B4
102
}
330
3EF0D9A1ECE56B4
100
AcDbXrecord
340
3EF0D9A1ECE566C
  0
MLINESTYLE
  5
3EF0D9A1ECE5672
102
{ACAD_REACTORS
330
3EF0D9A1ECE5665
102
}
330
3EF0D9A1ECE5665
100
AcDbMlineStyle
  2
STANDARD
 70
     0
  3

 62
     0
 51
90.0
 52
90.0
 71
     2
 49
0.5
 62
   256
  6
BYLAYER
 49
-0.5
 62
   256
  6
BYLAYER
  0
ACDBPLACEHOLDER
  5
3EF0D9A1ECE5688
102
{ACAD_REACTORS
330
3EF0D9A1ECE5687
102
}
330
3EF0D9A1ECE5687
100
AcDbPlaceHolder
280
     0
  0
XRECORD
  5
3EF0D9A1ECE569E
102
{ACAD_REACTORS
330
3EF0D9A1ECE5694
102
}
330
3EF0D9A1ECE5694
100
AcDbXrecord
 90
        0
  0
XRECORD
  5
3EF0D9A1ECE569F
102
{ACAD_REACTORS
330
3EF0D9A1ECE5694
102
}
330
3EF0D9A1ECE5694
100
AcDbXrecord
  1
{FCF3CFC0-8DB3-11D6-88E6-0090279574E7}
  0
XRECORD
  5
3EF0D9A1ECE5697
102
{ACAD_REACTORS
330
3EF0D9A1ECE5694
102
}
330
3EF0D9A1ECE5694
100
AcDbXrecord
  1

  0
XRECORD
  5
3EF0D9A1ECE569D
102
{ACAD_REACTORS
330
3EF0D9A1ECE5694
102
}
330
3EF0D9A1ECE5694
100
AcDbXrecord
 90
        0
  0
XRECORD
  5
3EF0D9A1ECE5699
102
{ACAD_REACTORS
330
3EF0D9A1ECE5694
102
}
330
3EF0D9A1ECE5694
100
AcDbXrecord
340
3EF0D9A1ECE5689
  0
XRECORD
  5
3EF0D9A1ECE569C
102
{ACAD_REACTORS
330
3EF0D9A1ECE5694
102
}
330
3EF0D9A1ECE5694
100
AcDbXrecord
 90
    14877
  0
XRECORD
  5
3EF0D9A1ECE569A
102
{ACAD_REACTORS
330
3EF0D9A1ECE5694
102
}
330
3EF0D9A1ECE5694
100
AcDbXrecord
340
3EF0D9A1ECE568A
  0
XRECORD
  5
3EF0D9A1ECE569B
102
{ACAD_REACTORS
330
3EF0D9A1ECE5694
102
}
330
3EF0D9A1ECE5694
100
AcDbXrecord
340
3EF0D9A1ECE5687
  0
XRECORD
  5
3EF0D9A1ECE56A1
102
{ACAD_REACTORS
330
3EF0D9A1ECE5694
102
}
330
3EF0D9A1ECE5694
100
AcDbXrecord
 40
0.0
  0
XRECORD
  5
3EF0D9A1ECE56A4
102
{ACAD_REACTORS
330
3EF0D9A1ECE5694
102
}
330
3EF0D9A1ECE5694
100
AcDbXrecord
340
0
  0
XRECORD
  5
3EF0D9A1ECE56AA
102
{ACAD_REACTORS
330
3EF0D9A1ECE5694
102
}
330
3EF0D9A1ECE5694
100
AcDbXrecord
 10
0.0
 20
0.0
 30
0.0
  0
XRECORD
  5
3EF0D9A1ECE56A6
102
{ACAD_REACTORS
330
3EF0D9A1ECE5694
102
}
330
3EF0D9A1ECE5694
100
AcDbXrecord
 10
0.0
 20
0.0
 30
0.0
  0
XRECORD
  5
3EF0D9A1ECE56A9
102
{ACAD_REACTORS
330
3EF0D9A1ECE5694
102
}
330
3EF0D9A1ECE5694
100
AcDbXrecord
 10
0.0
 20
0.0
 30
0.0
  0
XRECORD
  5
3EF0D9A1ECE56A7
102
{ACAD_REACTORS
330
3EF0D9A1ECE5694
102
}
330
3EF0D9A1ECE5694
100
AcDbXrecord
 10
0.0
 20
0.0
 30
0.0
  0
XRECORD
  5
3EF0D9A1ECE56A8
102
{ACAD_REACTORS
330
3EF0D9A1ECE5694
102
}
330
3EF0D9A1ECE5694
100
AcDbXrecord
 10
0.0
 20
0.0
 30
0.0
  0
XRECORD
  5
3EF0D9A1ECE56A5
102
{ACAD_REACTORS
330
3EF0D9A1ECE5694
102
}
330
3EF0D9A1ECE5694
100
AcDbXrecord
 10
0.0
 20
0.0
 30
0.0
  0
XRECORD
  5
3EF0D9A1ECE56A2
102
{ACAD_REACTORS
330
3EF0D9A1ECE5694
102
}
330
3EF0D9A1ECE5694
100
AcDbXrecord
340
0
  0
XRECORD
  5
3EF0D9A1ECE56A3
102
{ACAD_REACTORS
330
3EF0D9A1ECE5694
102
}
330
3EF0D9A1ECE5694
100
AcDbXrecord
 70
     0
  0
XRECORD
  5
3EF0D9A1ECE5698
102
{ACAD_REACTORS
330
3EF0D9A1ECE5694
102
}
330
3EF0D9A1ECE5694
100
AcDbXrecord
  1

  0
XRECORD
  5
3EF0D9A1ECE5695
102
{ACAD_REACTORS
330
3EF0D9A1ECE5694
102
}
330
3EF0D9A1ECE5694
100
AcDbXrecord
 90
        1
  0
XRECORD
  5
3EF0D9A1ECE5696
102
{ACAD_REACTORS
330
3EF0D9A1ECE5694
102
}
330
3EF0D9A1ECE5694
100
AcDbXrecord
 90
       70
  0
XRECORD
  5
3EF0D9A1ECE56AD
102
{ACAD_REACTORS
330
3EF0D9A1ECE5694
102
}
330
3EF0D9A1ECE5694
100
AcDbXrecord
340
0
  0
XRECORD
  5
3EF0D9A1ECE56B3
102
{ACAD_REACTORS
330
3EF0D9A1ECE5694
102
}
330
3EF0D9A1ECE5694
100
AcDbXrecord
 10
0.0
 20
0.0
 30
0.0
  0
XRECORD
  5
3EF0D9A1ECE56AF
102
{ACAD_REACTORS
330
3EF0D9A1ECE5694
102
}
330
3EF0D9A1ECE5694
100
AcDbXrecord
 10
0.0
 20
0.0
 30
0.0
  0
XRECORD
  5
3EF0D9A1ECE56B2
102
{ACAD_REACTORS
330
3EF0D9A1ECE5694
102
}
330
3EF0D9A1ECE5694
100
AcDbXrecord
 10
0.0
 20
0.0
 30
0.0
  0
XRECORD
  5
3EF0D9A1ECE56B0
102
{ACAD_REACTORS
330
3EF0D9A1ECE5694
102
}
330
3EF0D9A1ECE5694
100
AcDbXrecord
 10
0.0
 20
0.0
 30
0.0
  0
XRECORD
  5
3EF0D9A1ECE56B1
102
{ACAD_REACTORS
330
3EF0D9A1ECE5694
102
}
330
3EF0D9A1ECE5694
100
AcDbXrecord
 10
0.0
 20
0.0
 30
0.0
  0
XRECORD
  5
3EF0D9A1ECE56AE
102
{ACAD_REACTORS
330
3EF0D9A1ECE5694
102
}
330
3EF0D9A1ECE5694
100
AcDbXrecord
 10
0.0
 20
0.0
 30
0.0
  0
XRECORD
  5
3EF0D9A1ECE56AB
102
{ACAD_REACTORS
330
3EF0D9A1ECE5694
102
}
330
3EF0D9A1ECE5694
100
AcDbXrecord
340
0
  0
XRECORD
  5
3EF0D9A1ECE56AC
102
{ACAD_REACTORS
330
3EF0D9A1ECE5694
102
}
330
3EF0D9A1ECE5694
100
AcDbXrecord
 70
     0
  0
XRECORD
  5
3EF0D9A1ECE56A0
102
{ACAD_REACTORS
330
3EF0D9A1ECE5694
102
}
330
3EF0D9A1ECE5694
100
AcDbXrecord
  1
{FCF3CFC2-8DB3-11D6-88E6-0090279574E7}
  0
DICTIONARYVAR
  5
3EF0D9A1ECE5692
102
{ACAD_REACTORS
330
3EF0D9A1ECE5691
102
}
330
3EF0D9A1ECE5691
100
DictionaryVariables
280
     0
  1
1
  0
ENDSEC
  0
EOF
