  0
SECTION
  2
HEADER
  9
$ACADVER
  1
AC1014
  9
$ACADMAINTVER
 70
     9
  9
$DWGCODEPAGE
  3
ANSI_1252
  9
$INSBASE
 10
2.661001296517614
 20
1.594035811494448
 30
0.0
  9
$EXTMIN
 10
0.8702697172904711
 20
0.8551422074118669
 30
0.0
  9
$EXTMAX
 10
4.3554890390376
 20
2.350456121711231
 30
0.0
  9
$LIMMIN
 10
0.0
 20
0.0
  9
$LIMMAX
 10
18.0
 20
12.0
  9
$ORTHOMODE
 70
     1
  9
$REGENMODE
 70
     1
  9
$FILLMODE
 70
     1
  9
$QTEXTMODE
 70
     0
  9
$MIRRTEXT
 70
     0
  9
$DRAGMODE
 70
     2
  9
$LTSCALE
 40
1.0
  9
$OSMODE
 70
    39
  9
$ATTMODE
 70
     1
  9
$TEXTSIZE
 40
0.125
  9
$TRACEWID
 40
0.05
  9
$TEXTSTYLE
  7
ROMANS
  9
$CLAYER
  8
0
  9
$CELTYPE
  6
BYLAYER
  9
$CECOLOR
 62
   256
  9
$CELTSCALE
 40
1.0
  9
$DELOBJ
 70
     1
  9
$DISPSILH
 70
     1
  9
$DIMSCALE
 40
1.0
  9
$DIMASZ
 40
0.125
  9
$DIMEXO
 40
0.125
  9
$DIMDLI
 40
0.375
  9
$DIMRND
 40
0.0
  9
$DIMDLE
 40
0.0
  9
$DIMEXE
 40
0.125
  9
$DIMTP
 40
0.0
  9
$DIMTM
 40
0.0
  9
$DIMTXT
 40
0.125
  9
$DIMCEN
 40
-0.125
  9
$DIMTSZ
 40
0.0
  9
$DIMTOL
 70
     0
  9
$DIMLIM
 70
     0
  9
$DIMTIH
 70
     1
  9
$DIMTOH
 70
     1
  9
$DIMSE1
 70
     0
  9
$DIMSE2
 70
     0
  9
$DIMTAD
 70
     0
  9
$DIMZIN
 70
     4
  9
$DIMBLK
  1

  9
$DIMASO
 70
     1
  9
$DIMSHO
 70
     1
  9
$DIMPOST
  1

  9
$DIMAPOST
  1

  9
$DIMALT
 70
     0
  9
$DIMALTD
 70
     2
  9
$DIMALTF
 40
25.4
  9
$DIMLFAC
 40
1.0
  9
$DIMTOFL
 70
     0
  9
$DIMTVP
 40
0.0
  9
$DIMTIX
 70
     1
  9
$DIMSOXD
 70
     0
  9
$DIMSAH
 70
     0
  9
$DIMBLK1
  1

  9
$DIMBLK2
  1

  9
$DIMSTYLE
  2
STANDARD
  9
$DIMCLRD
 70
     0
  9
$DIMCLRE
 70
     0
  9
$DIMCLRT
 70
     0
  9
$DIMTFAC
 40
1.0
  9
$DIMGAP
 40
0.09
  9
$DIMJUST
 70
     0
  9
$DIMSD1
 70
     0
  9
$DIMSD2
 70
     0
  9
$DIMTOLJ
 70
     1
  9
$DIMTZIN
 70
     4
  9
$DIMALTZ
 70
     0
  9
$DIMALTTZ
 70
     0
  9
$DIMFIT
 70
     3
  9
$DIMUPT
 70
     0
  9
$DIMUNIT
 70
     2
  9
$DIMDEC
 70
     3
  9
$DIMTDEC
 70
     3
  9
$DIMALTU
 70
     2
  9
$DIMALTTD
 70
     2
  9
$DIMTXSTY
  7
ROMANS
  9
$DIMAUNIT
 70
     0
  9
$LUNITS
 70
     2
  9
$LUPREC
 70
     3
  9
$SKETCHINC
 40
0.1
  9
$FILLETRAD
 40
0.03125
  9
$AUNITS
 70
     0
  9
$AUPREC
 70
     0
  9
$MENU
  1
ACAD
  9
$ELEVATION
 40
0.0
  9
$PELEVATION
 40
0.0
  9
$THICKNESS
 40
0.0
  9
$LIMCHECK
 70
     0
  9
$BLIPMODE
 70
     0
  9
$CHAMFERA
 40
0.0
  9
$CHAMFERB
 40
0.0
  9
$CHAMFERC
 40
0.0
  9
$CHAMFERD
 40
0.0
  9
$SKPOLY
 70
     0
  9
$TDCREATE
 40
2448994.290380324
  9
$TDUPDATE
 40
2452458.295361481
  9
$TDINDWG
 40
0.0007977778
  9
$TDUSRTIMER
 40
0.0007977778
  9
$USRTIMER
 70
     1
  9
$ANGBASE
 50
0.0
  9
$ANGDIR
 70
     0
  9
$PDMODE
 70
     0
  9
$PDSIZE
 40
0.0
  9
$PLINEWID
 40
0.0
  9
$COORDS
 70
     2
  9
$SPLFRAME
 70
     0
  9
$SPLINETYPE
 70
     6
  9
$SPLINESEGS
 70
     8
  9
$ATTDIA
 70
     0
  9
$ATTREQ
 70
     1
  9
$HANDLING
 70
 22529
  9
$HANDSEED
  5
1F786CD0F673217
  9
$SURFTAB1
 70
     6
  9
$SURFTAB2
 70
     6
  9
$SURFTYPE
 70
     6
  9
$SURFU
 70
     6
  9
$SURFV
 70
     6
  9
$UCSNAME
  2

  9
$UCSORG
 10
0.0
 20
0.0
 30
0.0
  9
$UCSXDIR
 10
1.0
 20
0.0
 30
0.0
  9
$UCSYDIR
 10
0.0
 20
1.0
 30
0.0
  9
$PUCSNAME
  2

  9
$PUCSORG
 10
0.0
 20
0.0
 30
0.0
  9
$PUCSXDIR
 10
1.0
 20
0.0
 30
0.0
  9
$PUCSYDIR
 10
0.0
 20
1.0
 30
0.0
  9
$USERI1
 70
     0
  9
$USERI2
 70
     0
  9
$USERI3
 70
     0
  9
$USERI4
 70
     0
  9
$USERI5
 70
     0
  9
$USERR1
 40
0.0
  9
$USERR2
 40
0.0
  9
$USERR3
 40
0.0
  9
$USERR4
 40
0.0
  9
$USERR5
 40
0.0
  9
$WORLDVIEW
 70
     1
  9
$SHADEDGE
 70
     3
  9
$SHADEDIF
 70
    70
  9
$TILEMODE
 70
     1
  9
$MAXACTVP
 70
    16
  9
$PINSBASE
 10
1.063306735615487
 20
50.00000000000001
 30
1.173780483273198
  9
$PLIMCHECK
 70
     0
  9
$PEXTMIN
 10
1.000000000000000E+20
 20
1.000000000000000E+20
 30
1.000000000000000E+20
  9
$PEXTMAX
 10
-1.000000000000000E+20
 20
-1.000000000000000E+20
 30
-1.000000000000000E+20
  9
$PLIMMIN
 10
0.0
 20
0.0
  9
$PLIMMAX
 10
12.0
 20
9.0
  9
$UNITMODE
 70
     0
  9
$VISRETAIN
 70
     0
  9
$PLINEGEN
 70
     1
  9
$PSLTSCALE
 70
     0
  9
$TREEDEPTH
 70
  3020
  9
$PICKSTYLE
 70
     1
  9
$CMLSTYLE
  2
STANDARD
  9
$CMLJUST
 70
     0
  9
$CMLSCALE
 40
1.0
  9
$PROXYGRAPHICS
 70
     1
  9
$MEASUREMENT
 70
     0
  0
ENDSEC
  0
SECTION
  2
CLASSES
  0
CLASS
  1
LWPOLYLINE
  2
AcDbPolyline
  3
AutoCAD 2000
 90
        0
280
     0
281
     1
  0
CLASS
  1
ACDBDICTIONARYWDFLT
  2
AcDbDictionaryWithDefault
  3
AutoCAD 2000
 90
        0
280
     0
281
     0
  0
CLASS
  1
ACDBPLACEHOLDER
  2
AcDbPlaceHolder
  3
AutoCAD 2000
 90
        0
280
     0
281
     0
  0
CLASS
  1
LAYOUT
  2
AcDbLayout
  3
AutoCAD 2000
 90
        0
280
     0
281
     0
  0
CLASS
  1
DICTIONARYVAR
  2
AcDbDictionaryVar
  3
AutoCAD 2000
 90
        0
280
     0
281
     0
  0
CLASS
  1
LONG_TRANSACTION
  2
AcDbLongTransaction
  3
AutoCAD 2000
 90
        0
280
     0
281
     0
  0
CLASS
  1
LWPOLYLINE
  2
AcDbPolyline
  3
AutoCAD 2000
 90
        0
280
     0
281
     1
  0
CLASS
  1
HATCH
  2
AcDbHatch
  3
AutoCAD 2000
 90
        0
280
     0
281
     1
  0
CLASS
  1
XRECORD
  2
AcDbXrecord
  3
AutoCAD 2000
 90
        0
280
     0
281
     0
  0
ENDSEC
  0
SECTION
  2
TABLES
  0
TABLE
  2
VPORT
  5
1F786CD0F6731BE
330
0
100
AcDbSymbolTable
 70
     2
  0
VPORT
  5
1F786CD0F6731F2
330
1F786CD0F6731BE
100
AcDbSymbolTableRecord
100
AcDbViewportTableRecord
  2
*ACTIVE
 70
     0
 10
0.0
 20
0.0
 11
1.0
 21
1.0
 12
5.587987562378238
 22
1.602722190789322
 13
0.0
 23
0.0
 14
0.015625
 24
0.015625
 15
0.0
 25
0.0
 16
0.0
 26
0.0
 36
1.0
 17
0.0
 27
0.0
 37
0.0
 40
2.281748181188984
 41
4.320930232558139
 42
50.0
 43
0.0
 44
0.0
 50
0.0
 51
0.0
 71
     0
 72
  2000
 73
     1
 74
     0
 75
     1
 76
     0
 77
     0
 78
     0
  0
ENDTAB
  0
TABLE
  2
LTYPE
  5
1F786CD0F6731BB
330
0
100
AcDbSymbolTable
 70
     1
  0
LTYPE
  5
1F786CD0F6731C8
330
1F786CD0F6731BB
100
AcDbSymbolTableRecord
100
AcDbLinetypeTableRecord
  2
BYBLOCK
 70
     0
  3

 72
    65
 73
     0
 40
0.0
  0
LTYPE
  5
1F786CD0F6731C9
330
1F786CD0F6731BB
100
AcDbSymbolTableRecord
100
AcDbLinetypeTableRecord
  2
BYLAYER
 70
     0
  3

 72
    65
 73
     0
 40
0.0
  0
LTYPE
  5
1F786CD0F6731CA
330
1F786CD0F6731BB
100
AcDbSymbolTableRecord
100
AcDbLinetypeTableRecord
  2
CONTINUOUS
 70
     0
  3
Solid line
 72
    65
 73
     0
 40
0.0
  0
ENDTAB
  0
TABLE
  2
LAYER
  5
1F786CD0F6731B8
330
0
100
AcDbSymbolTable
 70
     2
  0
LAYER
  5
1F786CD0F6731C5
330
1F786CD0F6731B8
100
AcDbSymbolTableRecord
100
AcDbLayerTableRecord
  2
0
 70
     0
 62
     7
  6
CONTINUOUS
  0
LAYER
  5
1F786CD0F6731D5
330
1F786CD0F6731B8
100
AcDbSymbolTableRecord
100
AcDbLayerTableRecord
  2
TEXT
 70
     0
 62
     3
  6
CONTINUOUS
  0
ENDTAB
  0
TABLE
  2
STYLE
  5
1F786CD0F6731B9
330
0
100
AcDbSymbolTable
 70
     3
  0
STYLE
  5
1F786CD0F6731C6
330
1F786CD0F6731B9
100
AcDbSymbolTableRecord
100
AcDbTextStyleTableRecord
  2
STANDARD
 70
     0
 40
0.0
 41
1.0
 50
0.0
 71
     0
 42
0.3125
  3
txt
  4

  0
STYLE
  5
1F786CD0F6731D2
330
1F786CD0F6731B9
100
AcDbSymbolTableRecord
100
AcDbTextStyleTableRecord
  2
ITALICC
 70
     0
 40
0.0
 41
1.0
 50
0.0
 71
     0
 42
0.125
  3
italicc
  4

  0
STYLE
  5
1F786CD0F6731E2
330
1F786CD0F6731B9
100
AcDbSymbolTableRecord
100
AcDbTextStyleTableRecord
  2
ROMANS
 70
     0
 40
0.0
 41
1.0
 50
0.0
 71
     0
 42
0.125
  3
romans.shx
  4

  0
ENDTAB
  0
TABLE
  2
VIEW
  5
1F786CD0F6731BC
330
0
100
AcDbSymbolTable
 70
     0
  0
ENDTAB
  0
TABLE
  2
UCS
  5
1F786CD0F6731BD
330
0
100
AcDbSymbolTable
 70
     0
  0
ENDTAB
  0
TABLE
  2
APPID
  5
1F786CD0F6731BF
330
0
100
AcDbSymbolTable
 70
     1
  0
APPID
  5
1F786CD0F6731C7
330
1F786CD0F6731BF
100
AcDbSymbolTableRecord
100
AcDbRegAppTableRecord
  2
ACAD
 70
     0
  0
ENDTAB
  0
TABLE
  2
DIMSTYLE
  5
1F786CD0F6731C0
330
0
100
AcDbSymbolTable
 70
     1
  0
DIMSTYLE
105
1F786CD0F6731DA
330
1F786CD0F6731C0
100
AcDbSymbolTableRecord
100
AcDbDimStyleTableRecord
  2
STANDARD
 70
     0
  3

  4

  5

  6

  7

 40
1.0
 41
0.125
 42
0.125
 43
0.375
 44
0.125
 45
0.0
 46
0.0
 47
0.0
 48
0.0
140
0.125
141
-0.125
142
0.0
143
25.4
144
1.0
145
0.0
146
1.0
147
0.09
 71
     0
 72
     0
 73
     1
 74
     1
 75
     0
 76
     0
 77
     0
 78
     4
170
     0
171
     2
172
     0
173
     0
174
     1
175
     0
176
     0
177
     0
178
     0
270
     2
271
     3
272
     3
273
     2
274
     2
340
1F786CD0F6731E2
275
     0
280
     0
281
     0
282
     0
283
     1
284
     4
285
     0
286
     0
287
     3
288
     0
  0
ENDTAB
  0
TABLE
  2
BLOCK_RECORD
  5
1F786CD0F6731B7
330
0
100
AcDbSymbolTable
 70
     0
  0
BLOCK_RECORD
  5
1F786CD0F6731CE
102
{ACAD_XDICTIONARY
360
1F786CD0F673215
102
}
330
1F786CD0F6731B7
100
AcDbSymbolTableRecord
100
AcDbBlockTableRecord
  2
*MODEL_SPACE
  0
BLOCK_RECORD
  5
1F786CD0F6731CB
102
{ACAD_XDICTIONARY
360
1F786CD0F673213
102
}
330
1F786CD0F6731B7
100
AcDbSymbolTableRecord
100
AcDbBlockTableRecord
  2
*PAPER_SPACE
  0
ENDTAB
  0
ENDSEC
  0
SECTION
  2
BLOCKS
  0
BLOCK
  5
1F786CD0F6731D8
330
1F786CD0F6731CE
100
AcDbEntity
  8
0
100
AcDbBlockBegin
  2
*MODEL_SPACE
 70
     0
 10
0.0
 20
0.0
 30
0.0
  3
*MODEL_SPACE
  1

  0
ENDBLK
  5
1F786CD0F6731D9
330
1F786CD0F6731CE
100
AcDbEntity
  8
0
100
AcDbBlockEnd
  0
BLOCK
  5
1F786CD0F6731D6
330
1F786CD0F6731CB
100
AcDbEntity
 67
     1
  8
0
100
AcDbBlockBegin
  2
*PAPER_SPACE
 70
     0
 10
0.0
 20
0.0
 30
0.0
  3
*PAPER_SPACE
  1

  0
ENDBLK
  5
1F786CD0F6731D7
330
1F786CD0F6731CB
100
AcDbEntity
 67
     1
  8
0
100
AcDbBlockEnd
  0
ENDSEC
  0
SECTION
  2
ENTITIES
  0
LWPOLYLINE
  5
1F786CD0F671DC9
330
1F786CD0F6731CE
100
AcDbEntity
  8
0
100
AcDbPolyline
 90
       22
 70
     1
 43
0.0
 10
2.598501296517614
 20
1.859535811494448
 10
2.598501296517614
 20
2.047535811494448
 10
2.207501296517614
 20
2.047535811494448
 10
2.207501296517613
 20
1.625035811494448
 42
-0.4142135623730954
 10
2.176501296517614
 20
1.594035811494448
 10
2.145001296517614
 20
1.594035811494448
 10
2.145001296517614
 20
2.313035811494448
 42
-0.4142135623730951
 10
2.176001296517614
 20
2.344035811494448
 10
2.176501296517614
 20
2.344035811494448
 42
-0.4142135623730951
 10
2.207501296517614
 20
2.313035811494448
 10
2.207501296517614
 20
2.110035811494448
 10
3.081501296517614
 20
2.110035811494448
 42
-0.4142135623730951
 10
3.097501296517614
 20
2.094035811494448
 10
3.097501296517614
 20
1.985035811494448
 10
2.857501296517614
 20
1.985035811494448
 10
2.847501296517614
 20
1.995035811494448
 10
2.837501296517614
 20
1.985035811494448
 10
2.661001296517614
 20
1.985035811494448
 10
2.661001296517614
 20
1.594035811494448
 10
2.489274064673206
 20
1.594035811494448
 42
-0.5205670505517466
 10
2.474238982740631
 20
1.615508133787659
 10
2.563057793763009
 20
1.859535811494448
  0
TEXT
  5
1F786CD0F673079
330
1F786CD0F6731CE
100
AcDbEntity
  8
TEXT
100
AcDbText
 10
1.857298915565233
 20
1.313160811494448
 30
0.0
 40
0.125
  1
PART #110107
  7
ITALICC
 72
     1
 11
2.613251296517614
 21
1.313160811494448
 31
0.0
100
AcDbText
  0
TEXT
  5
1F786CD0F67307A
330
1F786CD0F6731CE
100
AcDbEntity
  8
TEXT
100
AcDbText
 10
3.026556454767935
 20
0.8662381688220733
 30
0.0
 40
0.0522247191011236
  1
Phone  1-800-328-2495
 41
1.272321428571429
 72
     5
 11
4.355489039037598
 21
0.8662381688220733
 31
0.0
100
AcDbText
  0
TEXT
  5
1F786CD0F67307B
330
1F786CD0F6731CE
100
AcDbEntity
  8
TEXT
100
AcDbText
 10
3.026556454767935
 20
1.146013449720949
 30
0.0
 40
0.0522247191011236
  1
Stylmark  Incorporated
 41
1.221428571428572
 72
     5
 11
4.355489039037598
 21
1.146013449720949
 31
0.0
100
AcDbText
  0
TEXT
  5
1F786CD0F67307C
330
1F786CD0F6731CE
100
AcDbEntity
  8
TEXT
100
AcDbText
 10
3.026556454767935
 20
1.052755022754657
 30
0.0
 40
0.0522247191011236
  1
6536 Main St. N.E. * P.O. Box 32008
 41
0.8388932496075362
 72
     5
 11
4.355489039037598
 21
1.052755022754657
 31
0.0
100
AcDbText
  0
TEXT
  5
1F786CD0F67307D
330
1F786CD0F6731CE
100
AcDbEntity
  8
TEXT
100
AcDbText
 10
3.026556454767935
 20
0.9594965957883655
 30
0.0
 40
0.0522247191011236
  1
Minneapolis, MN 55432-0008
 41
1.11444212721585
 72
     5
 11
4.355489039037598
 21
0.9594965957883655
 31
0.0
100
AcDbText
  0
LWPOLYLINE
  5
1F786CD0F67307E
330
1F786CD0F6731CE
100
AcDbEntity
  8
TEXT
100
AcDbPolyline
 90
        3
 70
     0
 43
0.0006660908203125
 10
0.8706027627006275
 20
0.9798829314595081
 10
0.8706027627006275
 20
0.8666474920063805
 10
0.9838382021537498
 20
0.8666474920063805
  0
LWPOLYLINE
  5
1F786CD0F673083
330
1F786CD0F6731CE
100
AcDbEntity
  8
TEXT
100
AcDbPolyline
 90
        3
 70
     0
 43
0.0006660908203125
 10
0.8972463955131249
 20
0.9798829314595081
 10
0.8972463955131249
 20
0.8932911248188815
 10
0.9838382021537498
 20
0.8932911248188815
  0
LWPOLYLINE
  5
1F786CD0F673088
330
1F786CD0F6731CE
100
AcDbEntity
  8
TEXT
100
AcDbPolyline
 90
        2
 70
     0
 43
0.0001332181640625
 10
0.9438727529350018
 20
0.9898742937641934
 10
0.8706027627006275
 20
0.9798829314595081
  0
LWPOLYLINE
  5
1F786CD0F67308C
330
1F786CD0F6731CE
100
AcDbEntity
  8
TEXT
100
AcDbPolyline
 90
        2
 70
     0
 43
0.0001332181640625
 10
0.8972463955131249
 20
0.9798829314595081
 10
0.9571945693412523
 20
0.9898742937641934
  0
LWPOLYLINE
  5
1F786CD0F673090
330
1F786CD0F6731CE
100
AcDbEntity
  8
TEXT
100
AcDbPolyline
 90
        2
 70
     0
 43
0.0001332181640625
 10
0.8972463955131249
 20
0.8932911248188815
 10
0.9571945693412523
 20
0.9532392986470071
  0
LWPOLYLINE
  5
1F786CD0F673094
330
1F786CD0F6731CE
100
AcDbEntity
  8
TEXT
100
AcDbPolyline
 90
        3
 70
     0
 43
0.0006660908203125
 10
0.9838382021537498
 20
1.133083820131383
 10
0.8706027627006275
 20
1.133083820131383
 10
0.8706027627006275
 20
1.019848380678256
  0
LWPOLYLINE
  5
1F786CD0F673099
330
1F786CD0F6731CE
100
AcDbEntity
  8
TEXT
100
AcDbPolyline
 90
        3
 70
     0
 43
0.0006660908203125
 10
0.9838382021537498
 20
1.106440187318882
 10
0.8972463955131249
 20
1.106440187318882
 10
0.8972463955131249
 20
1.019848380678256
  0
LWPOLYLINE
  5
1F786CD0F67309E
330
1F786CD0F6731CE
100
AcDbEntity
  8
TEXT
100
AcDbPolyline
 90
        2
 70
     0
 43
0.0001332181640625
 10
0.8972463955131249
 20
1.106440187318882
 10
0.9571945693412505
 20
1.046492013490757
  0
LWPOLYLINE
  5
1F786CD0F6730A2
330
1F786CD0F6731CE
100
AcDbEntity
  8
TEXT
100
AcDbPolyline
 90
        2
 70
     0
 43
0.0001332181640625
 10
0.8972463955131249
 20
1.019848380678256
 10
0.9571945693412505
 20
1.009857018373567
  0
LWPOLYLINE
  5
1F786CD0F6730A6
330
1F786CD0F6731CE
100
AcDbEntity
  8
TEXT
100
AcDbPolyline
 90
        2
 70
     0
 43
0.0001332181640625
 10
0.8706027627006275
 20
1.019848380678256
 10
0.9438727529350018
 20
1.009857018373567
  0
LWPOLYLINE
  5
1F786CD0F6730AA
330
1F786CD0F6731CE
100
AcDbEntity
  8
TEXT
100
AcDbPolyline
 90
        2
 70
     0
 43
0.0006660908203125
 10
0.8972463955131249
 20
0.9798829314595081
 10
0.8706027627006275
 20
0.9798829314595081
  0
LWPOLYLINE
  5
1F786CD0F6730AE
330
1F786CD0F6731CE
100
AcDbEntity
  8
TEXT
100
AcDbPolyline
 90
        2
 70
     0
 43
0.0006660908203125
 10
0.8972463955131249
 20
1.019848380678256
 10
0.8706027627006275
 20
1.019848380678256
  0
LINE
  5
1F786CD0F6730B2
330
1F786CD0F6731CE
100
AcDbEntity
  8
TEXT
100
AcDbLine
 10
2.385793191827124
 20
1.068807125474614
 30
0.0
 11
2.278586918439835
 21
1.068807125474614
 31
0.0
  0
LINE
  5
1F786CD0F6730B3
330
1F786CD0F6731CE
100
AcDbEntity
  8
TEXT
100
AcDbLine
 10
2.414824090171603
 20
1.13308382013138
 30
0.0
 11
2.279992180954544
 21
1.13308382013138
 31
0.0
  0
ARC
  5
1F786CD0F6730B4
330
1F786CD0F6731CE
100
AcDbEntity
  8
TEXT
100
AcDbCircle
 10
2.339306277347861
 20
0.9638465708683639
 30
0.0
 40
0.0676855811441166
100
AcDbArc
 50
90.0
 51
153.7768192527749
  0
LWPOLYLINE
  5
1F786CD0F6730B5
330
1F786CD0F6731CE
100
AcDbEntity
  8
TEXT
100
AcDbPolyline
 90
        2
 70
     0
 43
0.0
 10
2.277554422985025
 20
0.9101017320933074
 42
0.2901071551932823
 10
2.320630355852661
 20
0.8666107871428692
 42
5.328517124445801
  0
ARC
  5
1F786CD0F6730B9
330
1F786CD0F6731CE
100
AcDbEntity
  8
TEXT
100
AcDbCircle
 10
1.634174899676375
 20
0.9264031784809191
 30
0.0
 40
0.0601160179737537
100
AcDbArc
 50
180.0000000000003
 51
264.0521544866073
  0
LINE
  5
1F786CD0F6730BA
330
1F786CD0F6731CE
100
AcDbEntity
  8
TEXT
100
AcDbLine
 10
1.637690255301923
 20
1.167471737725518
 30
0.0
 11
1.577647650457916
 21
1.167471737725518
 31
0.0
  0
ARC
  5
1F786CD0F6730BB
330
1F786CD0F6731CE
100
AcDbEntity
  8
TEXT
100
AcDbCircle
 10
1.401915897559404
 20
1.050996360684878
 30
0.0
 40
0.0820874594465043
100
AcDbArc
 50
90.0
 51
270.0
  0
LWPOLYLINE
  5
1F786CD0F6730BC
330
1F786CD0F6731CE
100
AcDbEntity
  8
TEXT
100
AcDbPolyline
 90
        2
 70
     0
 43
0.0001332181640625
 10
0.9938295644584403
 20
1.059813829897004
 10
0.9838382021537498
 20
1.133083820131383
  0
LWPOLYLINE
  5
1F786CD0F6730C0
330
1F786CD0F6731CE
100
AcDbEntity
  8
TEXT
100
AcDbPolyline
 90
        2
 70
     0
 43
0.0001332181640625
 10
0.9838382021537498
 20
1.106440187318882
 10
0.9938295644584403
 20
1.046492013490757
  0
LWPOLYLINE
  5
1F786CD0F6730C4
330
1F786CD0F6731CE
100
AcDbEntity
  8
TEXT
100
AcDbPolyline
 90
        3
 70
     0
 43
0.0006660908203125
 10
1.137039090825627
 20
1.019848380678256
 10
1.137039090825627
 20
1.133083820131383
 10
1.023803651372501
 20
1.133083820131383
  0
LWPOLYLINE
  5
1F786CD0F6730C9
330
1F786CD0F6731CE
100
AcDbEntity
  8
TEXT
100
AcDbPolyline
 90
        3
 70
     0
 43
0.0006660908203125
 10
1.110395458013126
 20
1.019848380678256
 10
1.110395458013126
 20
1.106440187318882
 10
1.023803651372501
 20
1.106440187318882
  0
LWPOLYLINE
  5
1F786CD0F6730CE
330
1F786CD0F6731CE
100
AcDbEntity
  8
TEXT
100
AcDbPolyline
 90
        2
 70
     0
 43
0.0001332181640625
 10
1.110395458013126
 20
1.106440187318882
 10
1.050447284185002
 20
1.046492013490757
  0
LWPOLYLINE
  5
1F786CD0F6730D2
330
1F786CD0F6731CE
100
AcDbEntity
  8
TEXT
100
AcDbPolyline
 90
        2
 70
     0
 43
0.0001332181640625
 10
1.023803651372501
 20
1.106440187318882
 10
1.013812289067812
 20
1.046492013490757
  0
LWPOLYLINE
  5
1F786CD0F6730D6
330
1F786CD0F6731CE
100
AcDbEntity
  8
TEXT
100
AcDbPolyline
 90
        2
 70
     0
 43
0.0001332181640625
 10
1.023803651372501
 20
1.133083820131383
 10
1.013812289067812
 20
1.059813829897004
  0
LWPOLYLINE
  5
1F786CD0F6730DA
330
1F786CD0F6731CE
100
AcDbEntity
  8
TEXT
100
AcDbPolyline
 90
        2
 70
     0
 43
0.0001332181640625
 10
1.063769100591251
 20
1.009857018373567
 10
1.137039090825627
 20
1.019848380678256
  0
LWPOLYLINE
  5
1F786CD0F6730DE
330
1F786CD0F6731CE
100
AcDbEntity
  8
TEXT
100
AcDbPolyline
 90
        2
 70
     0
 43
0.0001332181640625
 10
1.110395458013126
 20
1.019848380678256
 10
1.050447284185002
 20
1.009857018373567
  0
LWPOLYLINE
  5
1F786CD0F6730E2
330
1F786CD0F6731CE
100
AcDbEntity
  8
TEXT
100
AcDbPolyline
 90
        2
 70
     0
 43
0.0001332181640625
 10
1.137039090825627
 20
0.9798829314595081
 10
1.063769100591251
 20
0.9898742937641934
  0
LWPOLYLINE
  5
1F786CD0F6730E6
330
1F786CD0F6731CE
100
AcDbEntity
  8
TEXT
100
AcDbPolyline
 90
        2
 70
     0
 43
0.0001332181640625
 10
1.110395458013126
 20
0.9798829314595081
 10
1.050447284185002
 20
0.9898742937641934
  0
LWPOLYLINE
  5
1F786CD0F6730EA
330
1F786CD0F6731CE
100
AcDbEntity
  8
TEXT
100
AcDbPolyline
 90
        2
 70
     0
 43
0.0001332181640625
 10
1.110395458013126
 20
0.8932911248188815
 10
1.050447284185002
 20
0.9532392986470071
  0
LWPOLYLINE
  5
1F786CD0F6730EE
330
1F786CD0F6731CE
100
AcDbEntity
  8
TEXT
100
AcDbPolyline
 90
        3
 70
     0
 43
0.0006660908203125
 10
1.023803651372501
 20
0.8932911248188815
 10
1.110395458013126
 20
0.8932911248188815
 10
1.110395458013126
 20
0.9798829314595081
  0
LWPOLYLINE
  5
1F786CD0F6730F3
330
1F786CD0F6731CE
100
AcDbEntity
  8
TEXT
100
AcDbPolyline
 90
        3
 70
     0
 43
0.0006660908203125
 10
1.023803651372501
 20
0.8666474920063805
 10
1.137039090825627
 20
0.8666474920063805
 10
1.137039090825627
 20
0.9798829314595081
  0
LWPOLYLINE
  5
1F786CD0F6730F8
330
1F786CD0F6731CE
100
AcDbEntity
  8
TEXT
100
AcDbPolyline
 90
        5
 70
     0
 43
0.0001332181640625
 10
0.9938295644584403
 20
0.9399174822407566
 10
0.9938295644584403
 20
0.9532392986470071
 10
0.9571945693412523
 20
0.9532392986470071
 10
0.9571945693412523
 20
0.9898742937641934
 10
0.9438727529350018
 20
0.9898742937641934
  0
LWPOLYLINE
  5
1F786CD0F6730FF
330
1F786CD0F6731CE
100
AcDbEntity
  8
TEXT
100
AcDbPolyline
 90
        2
 70
     0
 43
0.0006660908203125
 10
0.9838382021537498
 20
0.8932911248188815
 10
0.9838382021537498
 20
0.8666474920063805
  0
LWPOLYLINE
  5
1F786CD0F673103
330
1F786CD0F6731CE
100
AcDbEntity
  8
TEXT
100
AcDbPolyline
 90
        2
 70
     0
 43
0.0001332181640625
 10
0.9838382021537498
 20
0.8932911248188815
 10
0.9938295644584403
 20
0.9532392986470071
  0
LWPOLYLINE
  5
1F786CD0F673107
330
1F786CD0F6731CE
100
AcDbEntity
  8
TEXT
100
AcDbPolyline
 90
        2
 70
     0
 43
0.0001332181640625
 10
0.9838382021537498
 20
0.8666474920063805
 10
0.9938295644584403
 20
0.9399174822407566
  0
LWPOLYLINE
  5
1F786CD0F67310B
330
1F786CD0F6731CE
100
AcDbEntity
  8
TEXT
100
AcDbPolyline
 90
        5
 70
     0
 43
0.0001332181640625
 10
0.9438727529350018
 20
1.009857018373567
 10
0.9571945693412505
 20
1.009857018373567
 10
0.9571945693412505
 20
1.046492013490757
 10
0.9938295644584403
 20
1.046492013490757
 10
0.9938295644584403
 20
1.059813829897004
  0
LWPOLYLINE
  5
1F786CD0F673112
330
1F786CD0F6731CE
100
AcDbEntity
  8
TEXT
100
AcDbPolyline
 90
        5
 70
     0
 43
0.0001332181640625
 10
1.013812289067812
 20
1.059813829897004
 10
1.013812289067812
 20
1.046492013490757
 10
1.050447284185002
 20
1.046492013490757
 10
1.050447284185002
 20
1.009857018373567
 10
1.063769100591251
 20
1.009857018373567
  0
LWPOLYLINE
  5
1F786CD0F673119
330
1F786CD0F6731CE
100
AcDbEntity
  8
TEXT
100
AcDbPolyline
 90
        2
 70
     0
 43
0.0001332181640625
 10
1.023803651372501
 20
0.8932911248188815
 10
1.013812289067812
 20
0.9532392986470071
  0
LWPOLYLINE
  5
1F786CD0F67311D
330
1F786CD0F6731CE
100
AcDbEntity
  8
TEXT
100
AcDbPolyline
 90
        2
 70
     0
 43
0.0001332181640625
 10
1.013812289067812
 20
0.9399174822407566
 10
1.023803651372501
 20
0.8666474920063805
  0
LWPOLYLINE
  5
1F786CD0F673121
330
1F786CD0F6731CE
100
AcDbEntity
  8
TEXT
100
AcDbPolyline
 90
        2
 70
     0
 43
0.0006660908203125
 10
1.023803651372501
 20
0.8932911248188815
 10
1.023803651372501
 20
0.8666474920063805
  0
LWPOLYLINE
  5
1F786CD0F673125
330
1F786CD0F6731CE
100
AcDbEntity
  8
TEXT
100
AcDbPolyline
 90
        5
 70
     0
 43
0.0001332181640625
 10
1.063769100591251
 20
0.9898742937641934
 10
1.050447284185002
 20
0.9898742937641934
 10
1.050447284185002
 20
0.9532392986470071
 10
1.013812289067812
 20
0.9532392986470071
 10
1.013812289067812
 20
0.9399174822407566
  0
LWPOLYLINE
  5
1F786CD0F67312C
330
1F786CD0F6731CE
100
AcDbEntity
  8
TEXT
100
AcDbPolyline
 90
        2
 70
     0
 43
0.0006660908203125
 10
1.110395458013126
 20
1.019848380678256
 10
1.137039090825627
 20
1.019848380678256
  0
LWPOLYLINE
  5
1F786CD0F673130
330
1F786CD0F6731CE
100
AcDbEntity
  8
TEXT
100
AcDbPolyline
 90
        2
 70
     0
 43
0.0006660908203125
 10
1.110395458013126
 20
0.9798829314595081
 10
1.137039090825627
 20
0.9798829314595081
  0
LINE
  5
1F786CD0F673134
330
1F786CD0F6731CE
100
AcDbEntity
  8
TEXT
100
AcDbLine
 10
1.407153227673652
 20
1.068807125474614
 30
0.0
 11
1.574058881702623
 21
1.068807125474614
 31
0.0
  0
LINE
  5
1F786CD0F673135
330
1F786CD0F6731CE
100
AcDbEntity
  8
TEXT
100
AcDbLine
 10
1.472753363917953
 20
1.033002403863986
 30
0.0
 11
1.407153227673652
 21
1.033002403863986
 31
0.0
  0
LINE
  5
1F786CD0F673136
330
1F786CD0F6731CE
100
AcDbEntity
  8
TEXT
100
AcDbLine
 10
1.3198284381129
 20
0.8666107871428692
 30
0.0
 11
1.472753363917953
 21
0.8666107871428692
 31
0.0
  0
LINE
  5
1F786CD0F673137
330
1F786CD0F6731CE
100
AcDbEntity
  8
TEXT
100
AcDbLine
 10
1.477693737824232
 20
0.9349677934763086
 30
0.0
 11
1.319828438112898
 21
0.9349677934763086
 31
0.0
  0
LINE
  5
1F786CD0F673138
330
1F786CD0F6731CE
100
AcDbEntity
  8
TEXT
100
AcDbLine
 10
1.401915897559403
 20
0.9689089012383732
 30
0.0
 11
1.477693737824232
 21
0.9689089012383732
 31
0.0
  0
ARC
  5
1F786CD0F673139
330
1F786CD0F6731CE
100
AcDbEntity
  8
TEXT
100
AcDbCircle
 10
1.407153227673652
 20
1.050904764669302
 30
0.0
 40
0.017902360805315
100
AcDbArc
 50
90.0
 51
270.0
  0
LINE
  5
1F786CD0F67313A
330
1F786CD0F6731CE
100
AcDbEntity
  8
TEXT
100
AcDbLine
 10
1.319828438112898
 20
0.9349677934763086
 30
0.0
 11
1.3198284381129
 21
0.8666107871428692
 31
0.0
  0
LINE
  5
1F786CD0F67313B
330
1F786CD0F6731CE
100
AcDbEntity
  8
TEXT
100
AcDbLine
 10
1.574058881702623
 20
1.068807125474614
 30
0.0
 11
1.574058881702623
 21
0.9264031784809191
 31
0.0
  0
ARC
  5
1F786CD0F67313C
330
1F786CD0F6731CE
100
AcDbEntity
  8
TEXT
100
AcDbCircle
 10
1.472753363917953
 20
0.9498065955034263
 30
0.0
 40
0.0831958083605586
100
AcDbArc
 50
270.0
 51
90.0
  0
ARC
  5
1F786CD0F67313D
330
1F786CD0F6731CE
100
AcDbEntity
  8
TEXT
100
AcDbCircle
 10
1.477693737824233
 20
0.9519383473573427
 30
0.0
 40
0.0169705538810321
100
AcDbArc
 50
270.0
 51
90.0
  0
LWPOLYLINE
  5
1F786CD0F67313E
330
1F786CD0F6731CE
100
AcDbEntity
  8
TEXT
100
AcDbPolyline
 90
        2
 70
     0
 43
0.0006660908203125
 10
0.9838382021537498
 20
1.106440187318882
 10
0.9838382021537498
 20
1.133083820131383
  0
LWPOLYLINE
  5
1F786CD0F673142
330
1F786CD0F6731CE
100
AcDbEntity
  8
TEXT
100
AcDbPolyline
 90
        2
 70
     0
 43
0.0006660908203125
 10
1.023803651372501
 20
1.106440187318882
 10
1.023803651372501
 20
1.133083820131383
  0
LINE
  5
1F786CD0F673146
330
1F786CD0F6731CE
100
AcDbEntity
  8
TEXT
100
AcDbLine
 10
1.577647650457916
 20
1.13308382013138
 30
0.0
 11
1.401915897559403
 21
1.13308382013138
 31
0.0
  0
LINE
  5
1F786CD0F673147
330
1F786CD0F6731CE
100
AcDbEntity
  8
TEXT
100
AcDbLine
 10
1.577647650457916
 20
1.167471737725518
 30
0.0
 11
1.577647650457916
 21
1.13308382013138
 31
0.0
  0
LINE
  5
1F786CD0F673148
330
1F786CD0F6731CE
100
AcDbEntity
  8
TEXT
100
AcDbLine
 10
1.768119542477768
 20
1.032211824018259
 30
0.0
 11
1.70948922144583
 21
1.13308382013138
 31
0.0
  0
LINE
  5
1F786CD0F673149
330
1F786CD0F6731CE
100
AcDbEntity
  8
TEXT
100
AcDbLine
 10
1.826868105283633
 20
1.13308382013138
 30
0.0
 11
1.768119542477768
 21
1.032211824018259
 31
0.0
  0
LINE
  5
1F786CD0F67314A
330
1F786CD0F6731CE
100
AcDbEntity
  8
TEXT
100
AcDbLine
 10
1.923798730643375
 20
0.9489986252458685
 30
0.0
 11
1.923798730643375
 21
1.20109529787019
 31
0.0
  0
LINE
  5
1F786CD0F67314B
330
1F786CD0F6731CE
100
AcDbEntity
  8
TEXT
100
AcDbLine
 10
1.956110584781035
 20
1.13308382013138
 30
0.0
 11
1.956110584781035
 21
0.932219613398972
 31
0.0
  0
LINE
  5
1F786CD0F67314C
330
1F786CD0F6731CE
100
AcDbEntity
  8
TEXT
100
AcDbLine
 10
1.956110584781035
 20
0.932219613398972
 30
0.0
 11
1.939116947896433
 21
0.932219613398972
 31
0.0
  0
LINE
  5
1F786CD0F67314D
330
1F786CD0F6731CE
100
AcDbEntity
  8
TEXT
100
AcDbLine
 10
1.924938304139569
 20
0.8666107871428692
 30
0.0
 11
2.022941637839004
 21
0.8666107871428692
 31
0.0
  0
LINE
  5
1F786CD0F67314E
330
1F786CD0F6731CE
100
AcDbEntity
  8
TEXT
100
AcDbLine
 10
1.758519305480814
 20
0.8865692932478822
 30
0.0
 11
1.855819011574258
 21
1.05091950418315
 31
0.0
  0
ARC
  5
1F786CD0F67314F
330
1F786CD0F6731CE
100
AcDbEntity
  8
TEXT
100
AcDbCircle
 10
1.7244757455686
 20
0.906158509416565
 30
0.0
 40
0.0392772371940762
100
AcDbArc
 50
270.1604552698595
 51
330.0831797321295
  0
LINE
  5
1F786CD0F673150
330
1F786CD0F6731CE
100
AcDbEntity
  8
TEXT
100
AcDbLine
 10
1.627945489182728
 20
0.8666107871428692
 30
0.0
 11
1.724585740257723
 21
0.8668814262411515
 31
0.0
  0
LWPOLYLINE
  5
1F786CD0F673151
330
1F786CD0F6731CE
100
AcDbEntity
  8
TEXT
100
AcDbPolyline
 90
        6
 70
     1
 43
0.0
 10
1.670469292757878
 20
1.068807125474614
 10
1.64015269853767
 20
1.068807125474614
 10
1.64015269853767
 20
0.9456961274197205
 42
0.407328721240804
 10
1.651696349699146
 20
0.9338772127433344
 10
1.712318048743877
 20
0.9338772127433344
 10
1.729783389151195
 20
0.9666894417868135
  0
LINE
  5
1F786CD0F673159
330
1F786CD0F6731CE
100
AcDbEntity
  8
TEXT
100
AcDbLine
 10
1.855819011574258
 20
1.05091950418315
 30
0.0
 11
1.855819011574258
 21
0.918162129357794
 31
0.0
  0
ARC
  5
1F786CD0F67315A
330
1F786CD0F6731CE
100
AcDbEntity
  8
TEXT
100
AcDbCircle
 10
1.939116947896432
 20
0.9476014196423975
 30
0.0
 40
0.0153818062434269
100
AcDbArc
 50
174.7883570302258
 51
270.0
  0
LWPOLYLINE
  5
1F786CD0F67315B
330
1F786CD0F6731CE
100
AcDbEntity
  8
TEXT
100
AcDbPolyline
 90
        2
 70
     0
 43
0.0
 10
1.855819011574256
 20
0.9181621293577975
 42
0.3318488747599744
 10
1.924938304139569
 20
0.8666107871428692
 42
-6.868794160588311
  0
LINE
  5
1F786CD0F67315F
330
1F786CD0F6731CE
100
AcDbEntity
  8
TEXT
100
AcDbLine
 10
2.080330706828265
 20
0.8666107871428692
 30
0.0
 11
2.147388753610105
 21
0.8666107871428692
 31
0.0
  0
LINE
  5
1F786CD0F673160
330
1F786CD0F6731CE
100
AcDbEntity
  8
TEXT
100
AcDbLine
 10
2.080330706828265
 20
1.061253336308504
 30
0.0
 11
2.080330706828265
 21
0.8666107871428692
 31
0.0
  0
LINE
  5
1F786CD0F673161
330
1F786CD0F6731CE
100
AcDbEntity
  8
TEXT
100
AcDbLine
 10
2.022941637839004
 20
1.068807125474614
 30
0.0
 11
2.072776917662152
 21
1.068807125474614
 31
0.0
  0
LINE
  5
1F786CD0F673162
330
1F786CD0F6731CE
100
AcDbEntity
  8
TEXT
100
AcDbLine
 10
2.022941637839004
 20
0.8666107871428692
 30
0.0
 11
2.022941637839004
 21
1.068807125474614
 31
0.0
  0
LWPOLYLINE
  5
1F786CD0F673163
330
1F786CD0F6731CE
100
AcDbEntity
  8
TEXT
100
AcDbPolyline
 90
        2
 70
     0
 43
0.0
 10
2.07277691766215
 20
1.068807125474614
 42
-0.4142135623731017
 10
2.080330706828263
 20
1.061253336308504
 42
-0.9999999999999998
  0
LINE
  5
1F786CD0F673167
330
1F786CD0F6731CE
100
AcDbEntity
  8
TEXT
100
AcDbLine
 10
2.278586918439835
 20
1.068807125474614
 30
0.0
 11
2.278586918439835
 21
0.9937547194004082
 31
0.0
  0
LINE
  5
1F786CD0F673168
330
1F786CD0F6731CE
100
AcDbEntity
  8
TEXT
100
AcDbLine
 10
2.147388753610105
 20
1.068807125474614
 30
0.0
 11
2.201522350531055
 21
1.068807125474614
 31
0.0
  0
LINE
  5
1F786CD0F673169
330
1F786CD0F6731CE
100
AcDbEntity
  8
TEXT
100
AcDbLine
 10
2.147388753610105
 20
0.8666107871428692
 30
0.0
 11
2.147388753610105
 21
1.068807125474614
 31
0.0
  0
LWPOLYLINE
  5
1F786CD0F67316A
330
1F786CD0F6731CE
100
AcDbEntity
  8
TEXT
100
AcDbPolyline
 90
        2
 70
     0
 43
0.0
 10
2.201522350531054
 20
1.068807125474614
 42
-0.4142135623731017
 10
2.209076139697167
 20
1.061253336308504
 42
-0.9999999999999998
  0
LWPOLYLINE
  5
1F786CD0F67316E
330
1F786CD0F6731CE
100
AcDbEntity
  8
TEXT
100
AcDbPolyline
 90
        4
 70
     0
 43
0.0
 10
2.209076139697167
 20
1.061253336308504
 10
2.209076139697167
 20
0.8666107871428692
 10
2.277554422985025
 20
0.8666107871428692
 10
2.277554422985025
 20
0.9101017320933074
 42
-1.714843617202739
  0
LINE
  5
1F786CD0F673174
330
1F786CD0F6731CE
100
AcDbEntity
  8
TEXT
100
AcDbLine
 10
1.637690255301923
 20
1.13308382013138
 30
0.0
 11
1.637690255301923
 21
1.167471737725518
 31
0.0
  0
LINE
  5
1F786CD0F673175
330
1F786CD0F6731CE
100
AcDbEntity
  8
TEXT
100
AcDbLine
 10
1.70948922144583
 20
1.13308382013138
 30
0.0
 11
1.637690255301923
 21
1.13308382013138
 31
0.0
  0
LINE
  5
1F786CD0F673176
330
1F786CD0F6731CE
100
AcDbEntity
  8
TEXT
100
AcDbLine
 10
1.85699001807701
 20
1.13308382013138
 30
0.0
 11
1.826868105283633
 21
1.13308382013138
 31
0.0
  0
LINE
  5
1F786CD0F673177
330
1F786CD0F6731CE
100
AcDbEntity
  8
TEXT
100
AcDbLine
 10
1.85699001807701
 20
1.20109529787019
 30
0.0
 11
1.85699001807701
 21
1.13308382013138
 31
0.0
  0
LINE
  5
1F786CD0F673178
330
1F786CD0F6731CE
100
AcDbEntity
  8
TEXT
100
AcDbLine
 10
1.923798730643375
 20
1.20109529787019
 30
0.0
 11
1.85699001807701
 21
1.20109529787019
 31
0.0
  0
LWPOLYLINE
  5
1F786CD0F673179
330
1F786CD0F6731CE
100
AcDbEntity
  8
TEXT
100
AcDbPolyline
 90
        3
 70
     0
 43
0.0
 10
2.244210490241377
 20
1.133083820131383
 10
2.125910331425333
 20
1.133083820131383
 10
2.125910331425333
 20
1.105916323370487
 42
-1.960274751411753
  0
LINE
  5
1F786CD0F67317E
330
1F786CD0F6731CE
100
AcDbEntity
  8
TEXT
100
AcDbLine
 10
2.090128640712171
 20
1.13308382013138
 30
0.0
 11
1.956110584781035
 21
1.13308382013138
 31
0.0
  0
LWPOLYLINE
  5
1F786CD0F67317F
330
1F786CD0F6731CE
100
AcDbEntity
  8
TEXT
100
AcDbPolyline
 90
        2
 70
     0
 43
0.0
 10
2.090128640712171
 20
1.133083820131383
 42
-0.3328679258950098
 10
2.125910331425333
 20
1.105916323370487
 42
6.772930709997214
  0
LINE
  5
1F786CD0F673183
330
1F786CD0F6731CE
100
AcDbEntity
  8
TEXT
100
AcDbLine
 10
2.279992180954544
 20
1.13308382013138
 30
0.0
 11
2.279992180954544
 21
1.104761274361736
 31
0.0
  0
LWPOLYLINE
  5
1F786CD0F673184
330
1F786CD0F6731CE
100
AcDbEntity
  8
TEXT
100
AcDbPolyline
 90
        2
 70
     0
 43
0.0
 10
2.244210490241377
 20
1.133083820131383
 42
-0.3277054968067132
 10
2.279992180954542
 20
1.104761274361739
 42
6.667889725900311
  0
LINE
  5
1F786CD0F673188
330
1F786CD0F6731CE
100
AcDbEntity
  8
TEXT
100
AcDbLine
 10
2.493784029046644
 20
1.027871841577952
 30
0.0
 11
2.450033257864742
 21
1.110122117574098
 31
0.0
  0
LINE
  5
1F786CD0F673189
330
1F786CD0F6731CE
100
AcDbEntity
  8
TEXT
100
AcDbLine
 10
2.493784029046644
 20
1.13308382013138
 30
0.0
 11
2.493784029046644
 21
1.027871841577952
 31
0.0
  0
LINE
  5
1F786CD0F67318A
330
1F786CD0F6731CE
100
AcDbEntity
  8
TEXT
100
AcDbLine
 10
2.721467767985013
 20
1.057218493719842
 30
0.0
 11
2.721467767985013
 21
1.19854802589898
 31
0.0
  0
LINE
  5
1F786CD0F67318B
330
1F786CD0F6731CE
100
AcDbEntity
  8
TEXT
100
AcDbLine
 10
2.768565926540997
 20
1.13308382013138
 30
0.0
 11
2.721467767985013
 21
1.057218493719842
 31
0.0
  0
LINE
  5
1F786CD0F67318C
330
1F786CD0F6731CE
100
AcDbEntity
  8
TEXT
100
AcDbLine
 10
2.77900064330492
 20
1.023190577190406
 30
0.0
 11
2.843557759270625
 21
1.13308382013138
 31
0.0
  0
LINE
  5
1F786CD0F67318D
330
1F786CD0F6731CE
100
AcDbEntity
  8
TEXT
100
AcDbLine
 10
2.65763277676224
 20
0.8666107871428692
 30
0.0
 11
2.72201096108086
 21
0.8666107871428692
 31
0.0
  0
LWPOLYLINE
  5
1F786CD0F67318E
330
1F786CD0F6731CE
100
AcDbEntity
  8
TEXT
100
AcDbPolyline
 90
        2
 70
     0
 43
0.0
 10
2.497723706351682
 20
0.9101017320933074
 42
-0.2901071551932486
 10
2.454647773484037
 20
0.8666107871428692
 42
-5.328517124445184
  0
ARC
  5
1F786CD0F673192
330
1F786CD0F6731CE
100
AcDbEntity
  8
TEXT
100
AcDbCircle
 10
2.385793191827123
 20
1.040447750474617
 30
0.0
 40
0.028359375
100
AcDbArc
 50
25.78218179591245
 51
90.0
  0
LINE
  5
1F786CD0F673193
330
1F786CD0F6731CE
100
AcDbEntity
  8
TEXT
100
AcDbLine
 10
2.421594267131246
 20
1.031532152012482
 30
0.0
 11
2.411329506717681
 21
1.052782691585176
 31
0.0
  0
LINE
  5
1F786CD0F673194
330
1F786CD0F6731CE
100
AcDbEntity
  8
TEXT
100
AcDbLine
 10
2.339306277347863
 20
1.031532152012482
 30
0.0
 11
2.421594267131246
 21
1.031532152012482
 31
0.0
  0
LWPOLYLINE
  5
1F786CD0F673195
330
1F786CD0F6731CE
100
AcDbEntity
  8
TEXT
100
AcDbPolyline
 90
        4
 70
     1
 43
0.0
 10
2.434525308414145
 20
0.9695747651268945
 10
2.345864989754286
 20
0.9695747651268945
 42
0.9999999999999998
 10
2.345864989754286
 20
0.9271762246230338
 10
2.434525308414145
 20
0.9271762246230338
 42
1.0
  0
LWPOLYLINE
  5
1F786CD0F67319B
330
1F786CD0F6731CE
100
AcDbEntity
  8
TEXT
100
AcDbPolyline
 90
        2
 70
     0
 43
0.0
 10
2.320630355852661
 20
0.8666107871428692
 10
2.454647773484037
 20
0.8666107871428692
 42
0.9999999999999998
  0
LINE
  5
1F786CD0F67319F
330
1F786CD0F6731CE
100
AcDbEntity
  8
TEXT
100
AcDbLine
 10
2.580984795469677
 20
1.068807125474614
 30
0.0
 11
2.657632776762234
 21
1.068807125474614
 31
0.0
  0
LINE
  5
1F786CD0F6731A0
330
1F786CD0F6731CE
100
AcDbEntity
  8
TEXT
100
AcDbLine
 10
2.657632776762234
 20
1.068807125474614
 30
0.0
 11
2.65763277676224
 21
0.8666107871428692
 31
0.0
  0
ARC
  5
1F786CD0F6731A1
330
1F786CD0F6731CE
100
AcDbEntity
  8
TEXT
100
AcDbCircle
 10
2.580984795469675
 20
1.043901250191952
 30
0.0
 40
0.0249058752826653
100
AcDbArc
 50
89.99971217465335
 51
179.9999999999985
  0
LINE
  5
1F786CD0F6731A2
330
1F786CD0F6731CE
100
AcDbEntity
  8
TEXT
100
AcDbLine
 10
2.556078920187017
 20
0.8666107871428692
 30
0.0
 11
2.556078920187012
 21
1.043901292574337
 31
0.0
  0
LWPOLYLINE
  5
1F786CD0F6731A3
330
1F786CD0F6731CE
100
AcDbEntity
  8
TEXT
100
AcDbPolyline
 90
        2
 70
     0
 43
0.0
 10
2.497723706351682
 20
0.8666107871428692
 10
2.556078920187016
 20
0.8666107871428692
  0
LWPOLYLINE
  5
1F786CD0F6731A7
330
1F786CD0F6731CE
100
AcDbEntity
  8
TEXT
100
AcDbPolyline
 90
        2
 70
     0
 43
0.0
 10
2.497723706351682
 20
0.9101017320933074
 10
2.497723706351682
 20
0.8666107871428692
  0
LINE
  5
1F786CD0F6731AB
330
1F786CD0F6731CE
100
AcDbEntity
  8
TEXT
100
AcDbLine
 10
2.874492866668531
 20
0.8666107871428692
 30
0.0
 11
2.77900064330492
 21
1.023190577190406
 31
0.0
  0
LINE
  5
1F786CD0F6731AC
330
1F786CD0F6731CE
100
AcDbEntity
  8
TEXT
100
AcDbLine
 10
2.797914494292325
 20
0.8666107871428692
 30
0.0
 11
2.874492866668531
 21
0.8666107871428692
 31
0.0
  0
LINE
  5
1F786CD0F6731AD
330
1F786CD0F6731CE
100
AcDbEntity
  8
TEXT
100
AcDbLine
 10
2.72201096108086
 20
0.9981903556190495
 30
0.0
 11
2.797914494292325
 21
0.8666107871428692
 31
0.0
  0
LINE
  5
1F786CD0F6731AE
330
1F786CD0F6731CE
100
AcDbEntity
  8
TEXT
100
AcDbLine
 10
2.72201096108086
 20
0.8666107871428692
 30
0.0
 11
2.72201096108086
 21
0.9981903556190495
 31
0.0
  0
LINE
  5
1F786CD0F6731AF
330
1F786CD0F6731CE
100
AcDbEntity
  8
TEXT
100
AcDbLine
 10
2.721467767985013
 20
1.19854802589898
 30
0.0
 11
2.65315288943574
 21
1.19854802589898
 31
0.0
  0
ARC
  5
1F786CD0F6731B0
330
1F786CD0F6731CE
100
AcDbEntity
  8
TEXT
100
AcDbCircle
 10
2.412797150394534
 20
1.091500253010477
 30
0.0
 40
0.0416329381542859
100
AcDbArc
 50
26.56974201007528
 51
87.20939649401342
  0
LINE
  5
1F786CD0F6731B1
330
1F786CD0F6731CE
100
AcDbEntity
  8
TEXT
100
AcDbLine
 10
2.557680935346145
 20
1.13308382013138
 30
0.0
 11
2.493784029046644
 21
1.13308382013138
 31
0.0
  0
LINE
  5
1F786CD0F6731B2
330
1F786CD0F6731CE
100
AcDbEntity
  8
TEXT
100
AcDbLine
 10
2.557680935346145
 20
1.105536170270505
 30
0.0
 11
2.557680935346145
 21
1.13308382013138
 31
0.0
  0
ARC
  5
1F786CD0F6731B3
330
1F786CD0F6731CE
100
AcDbEntity
  8
TEXT
100
AcDbCircle
 10
2.588873752409253
 20
1.101838092849115
 30
0.0
 40
0.0314112657011332
100
AcDbArc
 50
95.88484768694724
 51
173.2388340632136
  0
LINE
  5
1F786CD0F6731B4
330
1F786CD0F6731CE
100
AcDbEntity
  8
TEXT
100
AcDbLine
 10
2.653152889435734
 20
1.13308382013138
 30
0.0
 11
2.585653171786218
 21
1.13308382013138
 31
0.0
  0
LINE
  5
1F786CD0F6731B5
330
1F786CD0F6731CE
100
AcDbEntity
  8
TEXT
100
AcDbLine
 10
2.65315288943574
 20
1.19854802589898
 30
0.0
 11
2.653152889435734
 21
1.13308382013138
 31
0.0
  0
LINE
  5
1F786CD0F6731B6
330
1F786CD0F6731CE
100
AcDbEntity
  8
TEXT
100
AcDbLine
 10
2.843557759270625
 20
1.13308382013138
 30
0.0
 11
2.768565926540999
 21
1.13308382013138
 31
0.0
  0
ENDSEC
  0
SECTION
  2
OBJECTS
  0
DICTIONARY
  5
1F786CD0F6731C2
330
0
100
AcDbDictionary
  3
ACAD_GROUP
350
1F786CD0F6731C3
  3
ACAD_LAYOUT
350
1F786CD0F6731E8
  3
ACAD_MLINESTYLE
350
1F786CD0F6731C4
  3
ACAD_PLOTSETTINGS
350
1F786CD0F6731E9
  3
ACAD_PLOTSTYLENAME
350
1F786CD0F6731E6
  3
ACDBHEADERROUNDTRIPXREC
350
1F786CD0F6731F3
  3
ACDBVARIABLEDICTIONARY
350
1F786CD0F6731F0
  0
DICTIONARY
  5
1F786CD0F673215
330
1F786CD0F6731CE
100
AcDbDictionary
280
     1
  3
ACAD_LAYOUTSELFREF
360
1F786CD0F673216
  0
DICTIONARY
  5
1F786CD0F673213
330
1F786CD0F6731CB
100
AcDbDictionary
280
     1
  3
ACAD_LAYOUTSELFREF
360
1F786CD0F673214
  0
DICTIONARY
  5
1F786CD0F6731C3
102
{ACAD_REACTORS
330
1F786CD0F6731C2
102
}
330
1F786CD0F6731C2
100
AcDbDictionary
  0
DICTIONARY
  5
1F786CD0F6731E8
102
{ACAD_REACTORS
330
1F786CD0F6731C2
102
}
330
1F786CD0F6731C2
100
AcDbDictionary
  0
DICTIONARY
  5
1F786CD0F6731C4
102
{ACAD_REACTORS
330
1F786CD0F6731C2
102
}
330
1F786CD0F6731C2
100
AcDbDictionary
  3
STANDARD
350
1F786CD0F6731D1
  0
DICTIONARY
  5
1F786CD0F6731E9
102
{ACAD_REACTORS
330
1F786CD0F6731C2
102
}
330
1F786CD0F6731C2
100
AcDbDictionary
  0
ACDBDICTIONARYWDFLT
  5
1F786CD0F6731E6
102
{ACAD_REACTORS
330
1F786CD0F6731C2
102
}
330
1F786CD0F6731C2
100
AcDbDictionary
281
     1
  3
Normal
350
1F786CD0F6731E7
100
AcDbDictionaryWithDefault
340
1F786CD0F6731E7
  0
DICTIONARY
  5
1F786CD0F6731F3
102
{ACAD_REACTORS
330
1F786CD0F6731C2
102
}
330
1F786CD0F6731C2
100
AcDbDictionary
  3
CEPSNTYPE
350
1F786CD0F6731FD
  3
FINGERPRINTGUID
350
1F786CD0F6731FE
  3
HYPERLINKBASE
350
1F786CD0F6731F6
  3
INSUNITS
350
1F786CD0F6731FC
  3
LAYOUTDICT
350
1F786CD0F6731F8
  3
LWETCUNION
350
1F786CD0F6731FB
  3
PLOTSETDICT
350
1F786CD0F6731F9
  3
PLOTSTYLNAMDICT
350
1F786CD0F6731FA
  3
PSVPSCALE
350
1F786CD0F673200
  3
PUCSBASE
350
1F786CD0F673203
  3
PUCSORGBACK
350
1F786CD0F673209
  3
PUCSORGBOTTOM
350
1F786CD0F673205
  3
PUCSORGFRONT
350
1F786CD0F673208
  3
PUCSORGLEFT
350
1F786CD0F673206
  3
PUCSORGRIGHT
350
1F786CD0F673207
  3
PUCSORGTOP
350
1F786CD0F673204
  3
PUCSORTHOREF
350
1F786CD0F673201
  3
PUCSORTHOVIEW
350
1F786CD0F673202
  3
STYLESHEET
350
1F786CD0F6731F7
  3
TSTACKALIGN
350
1F786CD0F6731F4
  3
TSTACKSIZE
350
1F786CD0F6731F5
  3
UCSBASE
350
1F786CD0F67320C
  3
UCSORGBACK
350
1F786CD0F673212
  3
UCSORGBOTTOM
350
1F786CD0F67320E
  3
UCSORGFRONT
350
1F786CD0F673211
  3
UCSORGLEFT
350
1F786CD0F67320F
  3
UCSORGRIGHT
350
1F786CD0F673210
  3
UCSORGTOP
350
1F786CD0F67320D
  3
UCSORTHOREF
350
1F786CD0F67320A
  3
UCSORTHOVIEW
350
1F786CD0F67320B
  3
VERSIONGUID
350
1F786CD0F6731FF
  0
DICTIONARY
  5
1F786CD0F6731F0
102
{ACAD_REACTORS
330
1F786CD0F6731C2
102
}
330
1F786CD0F6731C2
100
AcDbDictionary
  3
DIMASSOC
350
1F786CD0F6731F1
  0
XRECORD
  5
1F786CD0F673216
102
{ACAD_REACTORS
330
1F786CD0F673215
102
}
330
1F786CD0F673215
100
AcDbXrecord
340
1F786CD0F6731CE
  0
XRECORD
  5
1F786CD0F673214
102
{ACAD_REACTORS
330
1F786CD0F673213
102
}
330
1F786CD0F673213
100
AcDbXrecord
340
1F786CD0F6731CB
  0
MLINESTYLE
  5
1F786CD0F6731D1
102
{ACAD_REACTORS
330
1F786CD0F6731C4
102
}
330
1F786CD0F6731C4
100
AcDbMlineStyle
  2
STANDARD
 70
     0
  3

 62
     0
 51
90.0
 52
90.0
 71
     2
 49
0.5
 62
   256
  6
BYLAYER
 49
-0.5
 62
   256
  6
BYLAYER
  0
ACDBPLACEHOLDER
  5
1F786CD0F6731E7
102
{ACAD_REACTORS
330
1F786CD0F6731E6
102
}
330
1F786CD0F6731E6
100
AcDbPlaceHolder
280
     0
  0
XRECORD
  5
1F786CD0F6731FD
102
{ACAD_REACTORS
330
1F786CD0F6731F3
102
}
330
1F786CD0F6731F3
100
AcDbXrecord
 90
        0
  0
XRECORD
  5
1F786CD0F6731FE
102
{ACAD_REACTORS
330
1F786CD0F6731F3
102
}
330
1F786CD0F6731F3
100
AcDbXrecord
  1
{F8CF53A0-8DB3-11D6-88E6-0090279574E7}
  0
XRECORD
  5
1F786CD0F6731F6
102
{ACAD_REACTORS
330
1F786CD0F6731F3
102
}
330
1F786CD0F6731F3
100
AcDbXrecord
  1

  0
XRECORD
  5
1F786CD0F6731FC
102
{ACAD_REACTORS
330
1F786CD0F6731F3
102
}
330
1F786CD0F6731F3
100
AcDbXrecord
 90
        0
  0
XRECORD
  5
1F786CD0F6731F8
102
{ACAD_REACTORS
330
1F786CD0F6731F3
102
}
330
1F786CD0F6731F3
100
AcDbXrecord
340
1F786CD0F6731E8
  0
XRECORD
  5
1F786CD0F6731FB
102
{ACAD_REACTORS
330
1F786CD0F6731F3
102
}
330
1F786CD0F6731F3
100
AcDbXrecord
 90
    14877
  0
XRECORD
  5
1F786CD0F6731F9
102
{ACAD_REACTORS
330
1F786CD0F6731F3
102
}
330
1F786CD0F6731F3
100
AcDbXrecord
340
1F786CD0F6731E9
  0
XRECORD
  5
1F786CD0F6731FA
102
{ACAD_REACTORS
330
1F786CD0F6731F3
102
}
330
1F786CD0F6731F3
100
AcDbXrecord
340
1F786CD0F6731E6
  0
XRECORD
  5
1F786CD0F673200
102
{ACAD_REACTORS
330
1F786CD0F6731F3
102
}
330
1F786CD0F6731F3
100
AcDbXrecord
 40
0.0
  0
XRECORD
  5
1F786CD0F673203
102
{ACAD_REACTORS
330
1F786CD0F6731F3
102
}
330
1F786CD0F6731F3
100
AcDbXrecord
340
0
  0
XRECORD
  5
1F786CD0F673209
102
{ACAD_REACTORS
330
1F786CD0F6731F3
102
}
330
1F786CD0F6731F3
100
AcDbXrecord
 10
0.0
 20
0.0
 30
0.0
  0
XRECORD
  5
1F786CD0F673205
102
{ACAD_REACTORS
330
1F786CD0F6731F3
102
}
330
1F786CD0F6731F3
100
AcDbXrecord
 10
0.0
 20
0.0
 30
0.0
  0
XRECORD
  5
1F786CD0F673208
102
{ACAD_REACTORS
330
1F786CD0F6731F3
102
}
330
1F786CD0F6731F3
100
AcDbXrecord
 10
0.0
 20
0.0
 30
0.0
  0
XRECORD
  5
1F786CD0F673206
102
{ACAD_REACTORS
330
1F786CD0F6731F3
102
}
330
1F786CD0F6731F3
100
AcDbXrecord
 10
0.0
 20
0.0
 30
0.0
  0
XRECORD
  5
1F786CD0F673207
102
{ACAD_REACTORS
330
1F786CD0F6731F3
102
}
330
1F786CD0F6731F3
100
AcDbXrecord
 10
0.0
 20
0.0
 30
0.0
  0
XRECORD
  5
1F786CD0F673204
102
{ACAD_REACTORS
330
1F786CD0F6731F3
102
}
330
1F786CD0F6731F3
100
AcDbXrecord
 10
0.0
 20
0.0
 30
0.0
  0
XRECORD
  5
1F786CD0F673201
102
{ACAD_REACTORS
330
1F786CD0F6731F3
102
}
330
1F786CD0F6731F3
100
AcDbXrecord
340
0
  0
XRECORD
  5
1F786CD0F673202
102
{ACAD_REACTORS
330
1F786CD0F6731F3
102
}
330
1F786CD0F6731F3
100
AcDbXrecord
 70
     0
  0
XRECORD
  5
1F786CD0F6731F7
102
{ACAD_REACTORS
330
1F786CD0F6731F3
102
}
330
1F786CD0F6731F3
100
AcDbXrecord
  1

  0
XRECORD
  5
1F786CD0F6731F4
102
{ACAD_REACTORS
330
1F786CD0F6731F3
102
}
330
1F786CD0F6731F3
100
AcDbXrecord
 90
        1
  0
XRECORD
  5
1F786CD0F6731F5
102
{ACAD_REACTORS
330
1F786CD0F6731F3
102
}
330
1F786CD0F6731F3
100
AcDbXrecord
 90
       70
  0
XRECORD
  5
1F786CD0F67320C
102
{ACAD_REACTORS
330
1F786CD0F6731F3
102
}
330
1F786CD0F6731F3
100
AcDbXrecord
340
0
  0
XRECORD
  5
1F786CD0F673212
102
{ACAD_REACTORS
330
1F786CD0F6731F3
102
}
330
1F786CD0F6731F3
100
AcDbXrecord
 10
0.0
 20
0.0
 30
0.0
  0
XRECORD
  5
1F786CD0F67320E
102
{ACAD_REACTORS
330
1F786CD0F6731F3
102
}
330
1F786CD0F6731F3
100
AcDbXrecord
 10
0.0
 20
0.0
 30
0.0
  0
XRECORD
  5
1F786CD0F673211
102
{ACAD_REACTORS
330
1F786CD0F6731F3
102
}
330
1F786CD0F6731F3
100
AcDbXrecord
 10
0.0
 20
0.0
 30
0.0
  0
XRECORD
  5
1F786CD0F67320F
102
{ACAD_REACTORS
330
1F786CD0F6731F3
102
}
330
1F786CD0F6731F3
100
AcDbXrecord
 10
0.0
 20
0.0
 30
0.0
  0
XRECORD
  5
1F786CD0F673210
102
{ACAD_REACTORS
330
1F786CD0F6731F3
102
}
330
1F786CD0F6731F3
100
AcDbXrecord
 10
0.0
 20
0.0
 30
0.0
  0
XRECORD
  5
1F786CD0F67320D
102
{ACAD_REACTORS
330
1F786CD0F6731F3
102
}
330
1F786CD0F6731F3
100
AcDbXrecord
 10
0.0
 20
0.0
 30
0.0
  0
XRECORD
  5
1F786CD0F67320A
102
{ACAD_REACTORS
330
1F786CD0F6731F3
102
}
330
1F786CD0F6731F3
100
AcDbXrecord
340
0
  0
XRECORD
  5
1F786CD0F67320B
102
{ACAD_REACTORS
330
1F786CD0F6731F3
102
}
330
1F786CD0F6731F3
100
AcDbXrecord
 70
     0
  0
XRECORD
  5
1F786CD0F6731FF
102
{ACAD_REACTORS
330
1F786CD0F6731F3
102
}
330
1F786CD0F6731F3
100
AcDbXrecord
  1
{F8CF53A2-8DB3-11D6-88E6-0090279574E7}
  0
DICTIONARYVAR
  5
1F786CD0F6731F1
102
{ACAD_REACTORS
330
1F786CD0F6731F0
102
}
330
1F786CD0F6731F0
100
DictionaryVariables
280
     0
  1
1
  0
ENDSEC
  0
EOF
