  0
SECTION
  2
HEADER
  9
$ACADVER
  1
AC1014
  9
$ACADMAINTVER
 70
     9
  9
$DWGCODEPAGE
  3
ANSI_1252
  9
$INSBASE
 10
2.595120106174435
 20
1.438068708750724
 30
0.0
  9
$EXTMIN
 10
0.8521385269472922
 20
0.6831751046681431
 30
0.0
  9
$EXTMAX
 10
4.337357848694421
 20
2.776068708750724
 30
0.0
  9
$LIMMIN
 10
0.0
 20
0.0
  9
$LIMMAX
 10
18.0
 20
12.0
  9
$ORTHOMODE
 70
     1
  9
$REGENMODE
 70
     1
  9
$FILLMODE
 70
     1
  9
$QTEXTMODE
 70
     0
  9
$MIRRTEXT
 70
     0
  9
$DRAGMODE
 70
     2
  9
$LTSCALE
 40
1.0
  9
$OSMODE
 70
    39
  9
$ATTMODE
 70
     1
  9
$TEXTSIZE
 40
0.125
  9
$TRACEWID
 40
0.05
  9
$TEXTSTYLE
  7
ROMANS
  9
$CLAYER
  8
0
  9
$CELTYPE
  6
BYLAYER
  9
$CECOLOR
 62
   256
  9
$CELTSCALE
 40
1.0
  9
$DELOBJ
 70
     1
  9
$DISPSILH
 70
     1
  9
$DIMSCALE
 40
1.0
  9
$DIMASZ
 40
0.125
  9
$DIMEXO
 40
0.125
  9
$DIMDLI
 40
0.375
  9
$DIMRND
 40
0.0
  9
$DIMDLE
 40
0.0
  9
$DIMEXE
 40
0.125
  9
$DIMTP
 40
0.0
  9
$DIMTM
 40
0.0
  9
$DIMTXT
 40
0.125
  9
$DIMCEN
 40
-0.125
  9
$DIMTSZ
 40
0.0
  9
$DIMTOL
 70
     0
  9
$DIMLIM
 70
     0
  9
$DIMTIH
 70
     1
  9
$DIMTOH
 70
     1
  9
$DIMSE1
 70
     0
  9
$DIMSE2
 70
     0
  9
$DIMTAD
 70
     0
  9
$DIMZIN
 70
     4
  9
$DIMBLK
  1

  9
$DIMASO
 70
     1
  9
$DIMSHO
 70
     1
  9
$DIMPOST
  1

  9
$DIMAPOST
  1

  9
$DIMALT
 70
     0
  9
$DIMALTD
 70
     2
  9
$DIMALTF
 40
25.4
  9
$DIMLFAC
 40
1.0
  9
$DIMTOFL
 70
     0
  9
$DIMTVP
 40
0.0
  9
$DIMTIX
 70
     1
  9
$DIMSOXD
 70
     0
  9
$DIMSAH
 70
     0
  9
$DIMBLK1
  1

  9
$DIMBLK2
  1

  9
$DIMSTYLE
  2
STANDARD
  9
$DIMCLRD
 70
     0
  9
$DIMCLRE
 70
     0
  9
$DIMCLRT
 70
     0
  9
$DIMTFAC
 40
1.0
  9
$DIMGAP
 40
0.09
  9
$DIMJUST
 70
     0
  9
$DIMSD1
 70
     0
  9
$DIMSD2
 70
     0
  9
$DIMTOLJ
 70
     1
  9
$DIMTZIN
 70
     4
  9
$DIMALTZ
 70
     0
  9
$DIMALTTZ
 70
     0
  9
$DIMFIT
 70
     3
  9
$DIMUPT
 70
     0
  9
$DIMUNIT
 70
     2
  9
$DIMDEC
 70
     3
  9
$DIMTDEC
 70
     3
  9
$DIMALTU
 70
     2
  9
$DIMALTTD
 70
     2
  9
$DIMTXSTY
  7
ROMANS
  9
$DIMAUNIT
 70
     0
  9
$LUNITS
 70
     2
  9
$LUPREC
 70
     3
  9
$SKETCHINC
 40
0.1
  9
$FILLETRAD
 40
0.03125
  9
$AUNITS
 70
     0
  9
$AUPREC
 70
     0
  9
$MENU
  1
ACAD
  9
$ELEVATION
 40
0.0
  9
$PELEVATION
 40
0.0
  9
$THICKNESS
 40
0.0
  9
$LIMCHECK
 70
     0
  9
$BLIPMODE
 70
     0
  9
$CHAMFERA
 40
0.0
  9
$CHAMFERB
 40
0.0
  9
$CHAMFERC
 40
0.0
  9
$CHAMFERD
 40
0.0
  9
$SKPOLY
 70
     0
  9
$TDCREATE
 40
2448993.561149652
  9
$TDUPDATE
 40
2452458.295273044
  9
$TDINDWG
 40
0.0008040394
  9
$TDUSRTIMER
 40
0.0008040394
  9
$USRTIMER
 70
     1
  9
$ANGBASE
 50
0.0
  9
$ANGDIR
 70
     0
  9
$PDMODE
 70
     0
  9
$PDSIZE
 40
0.0
  9
$PLINEWID
 40
0.0
  9
$COORDS
 70
     2
  9
$SPLFRAME
 70
     0
  9
$SPLINETYPE
 70
     6
  9
$SPLINESEGS
 70
     8
  9
$ATTDIA
 70
     0
  9
$ATTREQ
 70
     1
  9
$HANDLING
 70
 22529
  9
$HANDSEED
  5
FBC36687B3A0B1
  9
$SURFTAB1
 70
     6
  9
$SURFTAB2
 70
     6
  9
$SURFTYPE
 70
     6
  9
$SURFU
 70
     6
  9
$SURFV
 70
     6
  9
$UCSNAME
  2

  9
$UCSORG
 10
0.0
 20
0.0
 30
0.0
  9
$UCSXDIR
 10
1.0
 20
0.0
 30
0.0
  9
$UCSYDIR
 10
0.0
 20
1.0
 30
0.0
  9
$PUCSNAME
  2

  9
$PUCSORG
 10
0.0
 20
0.0
 30
0.0
  9
$PUCSXDIR
 10
1.0
 20
0.0
 30
0.0
  9
$PUCSYDIR
 10
0.0
 20
1.0
 30
0.0
  9
$USERI1
 70
     0
  9
$USERI2
 70
     0
  9
$USERI3
 70
     0
  9
$USERI4
 70
     0
  9
$USERI5
 70
     0
  9
$USERR1
 40
0.0
  9
$USERR2
 40
0.0
  9
$USERR3
 40
0.0
  9
$USERR4
 40
0.0
  9
$USERR5
 40
0.0
  9
$WORLDVIEW
 70
     1
  9
$SHADEDGE
 70
     3
  9
$SHADEDIF
 70
    70
  9
$TILEMODE
 70
     1
  9
$MAXACTVP
 70
    16
  9
$PINSBASE
 10
1.191269157216377
 20
50.00000000000001
 30
2.64329270064154
  9
$PLIMCHECK
 70
     0
  9
$PEXTMIN
 10
1.000000000000000E+20
 20
1.000000000000000E+20
 30
1.000000000000000E+20
  9
$PEXTMAX
 10
-1.000000000000000E+20
 20
-1.000000000000000E+20
 30
-1.000000000000000E+20
  9
$PLIMMIN
 10
0.0
 20
0.0
  9
$PLIMMAX
 10
12.0
 20
9.0
  9
$UNITMODE
 70
     0
  9
$VISRETAIN
 70
     0
  9
$PLINEGEN
 70
     1
  9
$PSLTSCALE
 70
     0
  9
$TREEDEPTH
 70
  3020
  9
$PICKSTYLE
 70
     1
  9
$CMLSTYLE
  2
STANDARD
  9
$CMLJUST
 70
     0
  9
$CMLSCALE
 40
1.0
  9
$PROXYGRAPHICS
 70
     1
  9
$MEASUREMENT
 70
     0
  0
ENDSEC
  0
SECTION
  2
CLASSES
  0
CLASS
  1
LWPOLYLINE
  2
AcDbPolyline
  3
AutoCAD 2000
 90
        0
280
     0
281
     1
  0
CLASS
  1
ACDBDICTIONARYWDFLT
  2
AcDbDictionaryWithDefault
  3
AutoCAD 2000
 90
        0
280
     0
281
     0
  0
CLASS
  1
ACDBPLACEHOLDER
  2
AcDbPlaceHolder
  3
AutoCAD 2000
 90
        0
280
     0
281
     0
  0
CLASS
  1
LAYOUT
  2
AcDbLayout
  3
AutoCAD 2000
 90
        0
280
     0
281
     0
  0
CLASS
  1
DICTIONARYVAR
  2
AcDbDictionaryVar
  3
AutoCAD 2000
 90
        0
280
     0
281
     0
  0
CLASS
  1
LONG_TRANSACTION
  2
AcDbLongTransaction
  3
AutoCAD 2000
 90
        0
280
     0
281
     0
  0
CLASS
  1
LWPOLYLINE
  2
AcDbPolyline
  3
AutoCAD 2000
 90
        0
280
     0
281
     1
  0
CLASS
  1
HATCH
  2
AcDbHatch
  3
AutoCAD 2000
 90
        0
280
     0
281
     1
  0
CLASS
  1
XRECORD
  2
AcDbXrecord
  3
AutoCAD 2000
 90
        0
280
     0
281
     0
  0
ENDSEC
  0
SECTION
  2
TABLES
  0
TABLE
  2
VPORT
  5
FBC36687B3A058
330
0
100
AcDbSymbolTable
 70
     2
  0
VPORT
  5
FBC36687B3A08C
330
FBC36687B3A058
100
AcDbSymbolTableRecord
100
AcDbViewportTableRecord
  2
*ACTIVE
 70
     0
 10
0.0
 20
0.0
 11
1.0
 21
1.0
 12
5.676408539715359
 22
1.729522728046312
 13
0.0
 23
0.0
 14
0.015625
 24
0.015625
 15
0.0
 25
0.0
 16
0.0
 26
0.0
 36
1.0
 17
0.0
 27
0.0
 37
0.0
 40
2.363779527561179
 41
4.320930232558139
 42
50.0
 43
0.0
 44
0.0
 50
0.0
 51
0.0
 71
     0
 72
  2000
 73
     1
 74
     0
 75
     1
 76
     0
 77
     0
 78
     0
  0
ENDTAB
  0
TABLE
  2
LTYPE
  5
FBC36687B3A055
330
0
100
AcDbSymbolTable
 70
     1
  0
LTYPE
  5
FBC36687B3A062
330
FBC36687B3A055
100
AcDbSymbolTableRecord
100
AcDbLinetypeTableRecord
  2
BYBLOCK
 70
     0
  3

 72
    65
 73
     0
 40
0.0
  0
LTYPE
  5
FBC36687B3A063
330
FBC36687B3A055
100
AcDbSymbolTableRecord
100
AcDbLinetypeTableRecord
  2
BYLAYER
 70
     0
  3

 72
    65
 73
     0
 40
0.0
  0
LTYPE
  5
FBC36687B3A064
330
FBC36687B3A055
100
AcDbSymbolTableRecord
100
AcDbLinetypeTableRecord
  2
CONTINUOUS
 70
     0
  3
Solid line
 72
    65
 73
     0
 40
0.0
  0
ENDTAB
  0
TABLE
  2
LAYER
  5
FBC36687B3A052
330
0
100
AcDbSymbolTable
 70
     2
  0
LAYER
  5
FBC36687B3A05F
330
FBC36687B3A052
100
AcDbSymbolTableRecord
100
AcDbLayerTableRecord
  2
0
 70
     0
 62
     7
  6
CONTINUOUS
  0
LAYER
  5
FBC36687B3A06F
330
FBC36687B3A052
100
AcDbSymbolTableRecord
100
AcDbLayerTableRecord
  2
TEXT
 70
     0
 62
     3
  6
CONTINUOUS
  0
ENDTAB
  0
TABLE
  2
STYLE
  5
FBC36687B3A053
330
0
100
AcDbSymbolTable
 70
     3
  0
STYLE
  5
FBC36687B3A060
330
FBC36687B3A053
100
AcDbSymbolTableRecord
100
AcDbTextStyleTableRecord
  2
STANDARD
 70
     0
 40
0.0
 41
1.0
 50
0.0
 71
     0
 42
0.3125
  3
txt
  4

  0
STYLE
  5
FBC36687B3A06C
330
FBC36687B3A053
100
AcDbSymbolTableRecord
100
AcDbTextStyleTableRecord
  2
ITALICC
 70
     0
 40
0.0
 41
1.0
 50
0.0
 71
     0
 42
0.125
  3
italicc
  4

  0
STYLE
  5
FBC36687B3A07C
330
FBC36687B3A053
100
AcDbSymbolTableRecord
100
AcDbTextStyleTableRecord
  2
ROMANS
 70
     0
 40
0.0
 41
1.0
 50
0.0
 71
     0
 42
0.125
  3
romans.shx
  4

  0
ENDTAB
  0
TABLE
  2
VIEW
  5
FBC36687B3A056
330
0
100
AcDbSymbolTable
 70
     0
  0
ENDTAB
  0
TABLE
  2
UCS
  5
FBC36687B3A057
330
0
100
AcDbSymbolTable
 70
     0
  0
ENDTAB
  0
TABLE
  2
APPID
  5
FBC36687B3A059
330
0
100
AcDbSymbolTable
 70
     1
  0
APPID
  5
FBC36687B3A061
330
FBC36687B3A059
100
AcDbSymbolTableRecord
100
AcDbRegAppTableRecord
  2
ACAD
 70
     0
  0
ENDTAB
  0
TABLE
  2
DIMSTYLE
  5
FBC36687B3A05A
330
0
100
AcDbSymbolTable
 70
     1
  0
DIMSTYLE
105
FBC36687B3A074
330
FBC36687B3A05A
100
AcDbSymbolTableRecord
100
AcDbDimStyleTableRecord
  2
STANDARD
 70
     0
  3

  4

  5

  6

  7

 40
1.0
 41
0.125
 42
0.125
 43
0.375
 44
0.125
 45
0.0
 46
0.0
 47
0.0
 48
0.0
140
0.125
141
-0.125
142
0.0
143
25.4
144
1.0
145
0.0
146
1.0
147
0.09
 71
     0
 72
     0
 73
     1
 74
     1
 75
     0
 76
     0
 77
     0
 78
     4
170
     0
171
     2
172
     0
173
     0
174
     1
175
     0
176
     0
177
     0
178
     0
270
     2
271
     3
272
     3
273
     2
274
     2
340
FBC36687B3A07C
275
     0
280
     0
281
     0
282
     0
283
     1
284
     4
285
     0
286
     0
287
     3
288
     0
  0
ENDTAB
  0
TABLE
  2
BLOCK_RECORD
  5
FBC36687B3A051
330
0
100
AcDbSymbolTable
 70
     0
  0
BLOCK_RECORD
  5
FBC36687B3A068
102
{ACAD_XDICTIONARY
360
FBC36687B3A0AF
102
}
330
FBC36687B3A051
100
AcDbSymbolTableRecord
100
AcDbBlockTableRecord
  2
*MODEL_SPACE
  0
BLOCK_RECORD
  5
FBC36687B3A065
102
{ACAD_XDICTIONARY
360
FBC36687B3A0AD
102
}
330
FBC36687B3A051
100
AcDbSymbolTableRecord
100
AcDbBlockTableRecord
  2
*PAPER_SPACE
  0
ENDTAB
  0
ENDSEC
  0
SECTION
  2
BLOCKS
  0
BLOCK
  5
FBC36687B3A072
330
FBC36687B3A068
100
AcDbEntity
  8
0
100
AcDbBlockBegin
  2
*MODEL_SPACE
 70
     0
 10
0.0
 20
0.0
 30
0.0
  3
*MODEL_SPACE
  1

  0
ENDBLK
  5
FBC36687B3A073
330
FBC36687B3A068
100
AcDbEntity
  8
0
100
AcDbBlockEnd
  0
BLOCK
  5
FBC36687B3A070
330
FBC36687B3A065
100
AcDbEntity
 67
     1
  8
0
100
AcDbBlockBegin
  2
*PAPER_SPACE
 70
     0
 10
0.0
 20
0.0
 30
0.0
  3
*PAPER_SPACE
  1

  0
ENDBLK
  5
FBC36687B3A071
330
FBC36687B3A065
100
AcDbEntity
 67
     1
  8
0
100
AcDbBlockEnd
  0
ENDSEC
  0
SECTION
  2
ENTITIES
  0
LWPOLYLINE
  5
FBC36687B38A93
330
FBC36687B3A068
100
AcDbEntity
  8
0
100
AcDbPolyline
 90
       12
 70
     1
 43
0.0
 10
3.095120106174435
 20
2.704068708750724
 10
2.795120106174435
 20
2.704068708750724
 10
2.795120106174435
 20
1.504068708750724
 10
3.095120106174435
 20
1.504068708750724
 10
3.095120106174435
 20
1.438068708750724
 10
2.095120106174435
 20
1.438068708750724
 10
2.095120106174435
 20
1.504068708750724
 10
2.395120106174435
 20
1.504068708750724
 10
2.395120106174435
 20
2.704068708750724
 10
2.095120106174435
 20
2.704068708750724
 10
2.095120106174435
 20
2.776068708750724
 10
3.095120106174435
 20
2.776068708750724
  0
LWPOLYLINE
  5
FBC36687B38A86
330
FBC36687B3A068
100
AcDbEntity
  8
0
100
AcDbPolyline
 90
       11
 70
     1
 43
0.0
 10
2.632370106174437
 20
2.46154981616878
 42
3.732050807568683
 10
2.557870106174433
 20
2.461549816168781
 10
2.457120106174435
 20
2.287045697306219
 10
2.457120106174435
 20
2.117068708750724
 10
2.447120106174435
 20
2.107068708750724
 10
2.457120106174435
 20
2.097068708750724
 10
2.457120106174435
 20
1.927091720195229
 10
2.557870106174435
 20
1.752587601332665
 42
3.732050807568867
 10
2.632370106174435
 20
1.752587601332665
 10
2.733120106174435
 20
1.927091720195229
 10
2.733120106174435
 20
2.287045697306219
  0
TEXT
  5
FBC36687B39F13
330
FBC36687B3A068
100
AcDbEntity
  8
TEXT
100
AcDbText
 10
1.842143915698244
 20
1.141193708750724
 30
0.0
 40
0.125
  1
PART #110106
  7
ITALICC
 72
     1
 11
2.595120106174435
 21
1.141193708750724
 31
0.0
100
AcDbText
  0
TEXT
  5
FBC36687B39F14
330
FBC36687B3A068
100
AcDbEntity
  8
TEXT
100
AcDbText
 10
3.008425264424756
 20
0.6942710660783496
 30
0.0
 40
0.0522247191011236
  1
Phone  1-800-328-2495
 41
1.27232142857143
 72
     5
 11
4.33735784869442
 21
0.6942710660783496
 31
0.0
100
AcDbText
  0
TEXT
  5
FBC36687B39F15
330
FBC36687B3A068
100
AcDbEntity
  8
TEXT
100
AcDbText
 10
3.008425264424756
 20
0.974046346977226
 30
0.0
 40
0.0522247191011236
  1
Stylmark  Incorporated
 41
1.221428571428573
 72
     5
 11
4.33735784869442
 21
0.974046346977226
 31
0.0
100
AcDbText
  0
TEXT
  5
FBC36687B39F16
330
FBC36687B3A068
100
AcDbEntity
  8
TEXT
100
AcDbText
 10
3.008425264424756
 20
0.8807879200109338
 30
0.0
 40
0.0522247191011236
  1
6536 Main St. N.E. * P.O. Box 32008
 41
0.8388932496075367
 72
     5
 11
4.33735784869442
 21
0.8807879200109338
 31
0.0
100
AcDbText
  0
TEXT
  5
FBC36687B39F17
330
FBC36687B3A068
100
AcDbEntity
  8
TEXT
100
AcDbText
 10
3.008425264424756
 20
0.7875294930446417
 30
0.0
 40
0.0522247191011236
  1
Minneapolis, MN 55432-0008
 41
1.11444212721585
 72
     5
 11
4.33735784869442
 21
0.7875294930446417
 31
0.0
100
AcDbText
  0
LWPOLYLINE
  5
FBC36687B39F18
330
FBC36687B3A068
100
AcDbEntity
  8
TEXT
100
AcDbPolyline
 90
        3
 70
     0
 43
0.0006660908203125
 10
0.8524715723574484
 20
0.8079158287157843
 10
0.8524715723574484
 20
0.6946803892626568
 10
0.9657070118105707
 20
0.6946803892626568
  0
LWPOLYLINE
  5
FBC36687B39F1D
330
FBC36687B3A068
100
AcDbEntity
  8
TEXT
100
AcDbPolyline
 90
        3
 70
     0
 43
0.0006660908203125
 10
0.8791152051699459
 20
0.8079158287157843
 10
0.8791152051699459
 20
0.7213240220751578
 10
0.9657070118105707
 20
0.7213240220751578
  0
LWPOLYLINE
  5
FBC36687B39F22
330
FBC36687B3A068
100
AcDbEntity
  8
TEXT
100
AcDbPolyline
 90
        2
 70
     0
 43
0.0001332181640625
 10
0.9257415625918227
 20
0.8179071910204696
 10
0.8524715723574484
 20
0.8079158287157843
  0
LWPOLYLINE
  5
FBC36687B39F26
330
FBC36687B3A068
100
AcDbEntity
  8
TEXT
100
AcDbPolyline
 90
        2
 70
     0
 43
0.0001332181640625
 10
0.8791152051699459
 20
0.8079158287157843
 10
0.9390633789980732
 20
0.8179071910204696
  0
LWPOLYLINE
  5
FBC36687B39F2A
330
FBC36687B3A068
100
AcDbEntity
  8
TEXT
100
AcDbPolyline
 90
        2
 70
     0
 43
0.0001332181640625
 10
0.8791152051699459
 20
0.7213240220751578
 10
0.9390633789980732
 20
0.7812721959032834
  0
LWPOLYLINE
  5
FBC36687B39F2E
330
FBC36687B3A068
100
AcDbEntity
  8
TEXT
100
AcDbPolyline
 90
        3
 70
     0
 43
0.0006660908203125
 10
0.9657070118105707
 20
0.96111671738766
 10
0.8524715723574484
 20
0.96111671738766
 10
0.8524715723574484
 20
0.8478812779345323
  0
LWPOLYLINE
  5
FBC36687B39F33
330
FBC36687B3A068
100
AcDbEntity
  8
TEXT
100
AcDbPolyline
 90
        3
 70
     0
 43
0.0006660908203125
 10
0.9657070118105707
 20
0.9344730845751589
 10
0.8791152051699459
 20
0.9344730845751589
 10
0.8791152051699459
 20
0.8478812779345323
  0
LWPOLYLINE
  5
FBC36687B39F38
330
FBC36687B3A068
100
AcDbEntity
  8
TEXT
100
AcDbPolyline
 90
        2
 70
     0
 43
0.0001332181640625
 10
0.8791152051699459
 20
0.9344730845751589
 10
0.9390633789980714
 20
0.8745249107470334
  0
LWPOLYLINE
  5
FBC36687B39F3C
330
FBC36687B3A068
100
AcDbEntity
  8
TEXT
100
AcDbPolyline
 90
        2
 70
     0
 43
0.0001332181640625
 10
0.8791152051699459
 20
0.8478812779345323
 10
0.9390633789980714
 20
0.8378899156298436
  0
LWPOLYLINE
  5
FBC36687B39F40
330
FBC36687B3A068
100
AcDbEntity
  8
TEXT
100
AcDbPolyline
 90
        2
 70
     0
 43
0.0001332181640625
 10
0.8524715723574484
 20
0.8478812779345323
 10
0.9257415625918227
 20
0.8378899156298436
  0
LWPOLYLINE
  5
FBC36687B39F44
330
FBC36687B3A068
100
AcDbEntity
  8
TEXT
100
AcDbPolyline
 90
        2
 70
     0
 43
0.0006660908203125
 10
0.8791152051699459
 20
0.8079158287157843
 10
0.8524715723574484
 20
0.8079158287157843
  0
LWPOLYLINE
  5
FBC36687B39F48
330
FBC36687B3A068
100
AcDbEntity
  8
TEXT
100
AcDbPolyline
 90
        2
 70
     0
 43
0.0006660908203125
 10
0.8791152051699459
 20
0.8478812779345323
 10
0.8524715723574484
 20
0.8478812779345323
  0
LINE
  5
FBC36687B39F4C
330
FBC36687B3A068
100
AcDbEntity
  8
TEXT
100
AcDbLine
 10
2.367662001483946
 20
0.896840022730891
 30
0.0
 11
2.260455728096656
 21
0.896840022730891
 31
0.0
  0
LINE
  5
FBC36687B39F4D
330
FBC36687B3A068
100
AcDbEntity
  8
TEXT
100
AcDbLine
 10
2.396692899828424
 20
0.9611167173876564
 30
0.0
 11
2.261860990611365
 21
0.9611167173876564
 31
0.0
  0
ARC
  5
FBC36687B39F4E
330
FBC36687B3A068
100
AcDbEntity
  8
TEXT
100
AcDbCircle
 10
2.321175087004682
 20
0.7918794681246402
 30
0.0
 40
0.0676855811441166
100
AcDbArc
 50
90.0
 51
153.7768192527749
  0
LWPOLYLINE
  5
FBC36687B39F4F
330
FBC36687B3A068
100
AcDbEntity
  8
TEXT
100
AcDbPolyline
 90
        2
 70
     0
 43
0.0
 10
2.259423232641846
 20
0.7381346293495837
 42
0.2901071551932823
 10
2.302499165509482
 20
0.6946436843991455
 42
5.328517124445801
  0
ARC
  5
FBC36687B39F53
330
FBC36687B3A068
100
AcDbEntity
  8
TEXT
100
AcDbCircle
 10
1.616043709333196
 20
0.7544360757371953
 30
0.0
 40
0.0601160179737537
100
AcDbArc
 50
180.0000000000003
 51
264.0521544866073
  0
LINE
  5
FBC36687B39F54
330
FBC36687B3A068
100
AcDbEntity
  8
TEXT
100
AcDbLine
 10
1.619559064958744
 20
0.9955046349817946
 30
0.0
 11
1.559516460114737
 21
0.9955046349817946
 31
0.0
  0
ARC
  5
FBC36687B39F55
330
FBC36687B3A068
100
AcDbEntity
  8
TEXT
100
AcDbCircle
 10
1.383784707216225
 20
0.8790292579411547
 30
0.0
 40
0.0820874594465043
100
AcDbArc
 50
90.0
 51
270.0
  0
LWPOLYLINE
  5
FBC36687B39F56
330
FBC36687B3A068
100
AcDbEntity
  8
TEXT
100
AcDbPolyline
 90
        2
 70
     0
 43
0.0001332181640625
 10
0.9756983741152613
 20
0.8878467271532803
 10
0.9657070118105707
 20
0.96111671738766
  0
LWPOLYLINE
  5
FBC36687B39F5A
330
FBC36687B3A068
100
AcDbEntity
  8
TEXT
100
AcDbPolyline
 90
        2
 70
     0
 43
0.0001332181640625
 10
0.9657070118105707
 20
0.9344730845751589
 10
0.9756983741152613
 20
0.8745249107470334
  0
LWPOLYLINE
  5
FBC36687B39F5E
330
FBC36687B3A068
100
AcDbEntity
  8
TEXT
100
AcDbPolyline
 90
        3
 70
     0
 43
0.0006660908203125
 10
1.118907900482448
 20
0.8478812779345323
 10
1.118907900482448
 20
0.96111671738766
 10
1.005672461029322
 20
0.96111671738766
  0
LWPOLYLINE
  5
FBC36687B39F63
330
FBC36687B3A068
100
AcDbEntity
  8
TEXT
100
AcDbPolyline
 90
        3
 70
     0
 43
0.0006660908203125
 10
1.092264267669947
 20
0.8478812779345323
 10
1.092264267669947
 20
0.9344730845751589
 10
1.005672461029322
 20
0.9344730845751589
  0
LWPOLYLINE
  5
FBC36687B39F68
330
FBC36687B3A068
100
AcDbEntity
  8
TEXT
100
AcDbPolyline
 90
        2
 70
     0
 43
0.0001332181640625
 10
1.092264267669947
 20
0.9344730845751589
 10
1.032316093841823
 20
0.8745249107470334
  0
LWPOLYLINE
  5
FBC36687B39F6C
330
FBC36687B3A068
100
AcDbEntity
  8
TEXT
100
AcDbPolyline
 90
        2
 70
     0
 43
0.0001332181640625
 10
1.005672461029322
 20
0.9344730845751589
 10
0.9956810987246335
 20
0.8745249107470334
  0
LWPOLYLINE
  5
FBC36687B39F70
330
FBC36687B3A068
100
AcDbEntity
  8
TEXT
100
AcDbPolyline
 90
        2
 70
     0
 43
0.0001332181640625
 10
1.005672461029322
 20
0.96111671738766
 10
0.9956810987246335
 20
0.8878467271532803
  0
LWPOLYLINE
  5
FBC36687B39F74
330
FBC36687B3A068
100
AcDbEntity
  8
TEXT
100
AcDbPolyline
 90
        2
 70
     0
 43
0.0001332181640625
 10
1.045637910248072
 20
0.8378899156298436
 10
1.118907900482448
 20
0.8478812779345323
  0
LWPOLYLINE
  5
FBC36687B39F78
330
FBC36687B3A068
100
AcDbEntity
  8
TEXT
100
AcDbPolyline
 90
        2
 70
     0
 43
0.0001332181640625
 10
1.092264267669947
 20
0.8478812779345323
 10
1.032316093841823
 20
0.8378899156298436
  0
LWPOLYLINE
  5
FBC36687B39F7C
330
FBC36687B3A068
100
AcDbEntity
  8
TEXT
100
AcDbPolyline
 90
        2
 70
     0
 43
0.0001332181640625
 10
1.118907900482448
 20
0.8079158287157843
 10
1.045637910248072
 20
0.8179071910204696
  0
LWPOLYLINE
  5
FBC36687B39F80
330
FBC36687B3A068
100
AcDbEntity
  8
TEXT
100
AcDbPolyline
 90
        2
 70
     0
 43
0.0001332181640625
 10
1.092264267669947
 20
0.8079158287157843
 10
1.032316093841823
 20
0.8179071910204696
  0
LWPOLYLINE
  5
FBC36687B39F84
330
FBC36687B3A068
100
AcDbEntity
  8
TEXT
100
AcDbPolyline
 90
        2
 70
     0
 43
0.0001332181640625
 10
1.092264267669947
 20
0.7213240220751578
 10
1.032316093841823
 20
0.7812721959032834
  0
LWPOLYLINE
  5
FBC36687B39F88
330
FBC36687B3A068
100
AcDbEntity
  8
TEXT
100
AcDbPolyline
 90
        3
 70
     0
 43
0.0006660908203125
 10
1.005672461029322
 20
0.7213240220751578
 10
1.092264267669947
 20
0.7213240220751578
 10
1.092264267669947
 20
0.8079158287157843
  0
LWPOLYLINE
  5
FBC36687B39F8D
330
FBC36687B3A068
100
AcDbEntity
  8
TEXT
100
AcDbPolyline
 90
        3
 70
     0
 43
0.0006660908203125
 10
1.005672461029322
 20
0.6946803892626568
 10
1.118907900482448
 20
0.6946803892626568
 10
1.118907900482448
 20
0.8079158287157843
  0
LWPOLYLINE
  5
FBC36687B39F92
330
FBC36687B3A068
100
AcDbEntity
  8
TEXT
100
AcDbPolyline
 90
        5
 70
     0
 43
0.0001332181640625
 10
0.9756983741152613
 20
0.7679503794970329
 10
0.9756983741152613
 20
0.7812721959032834
 10
0.9390633789980732
 20
0.7812721959032834
 10
0.9390633789980732
 20
0.8179071910204696
 10
0.9257415625918227
 20
0.8179071910204696
  0
LWPOLYLINE
  5
FBC36687B39F99
330
FBC36687B3A068
100
AcDbEntity
  8
TEXT
100
AcDbPolyline
 90
        2
 70
     0
 43
0.0006660908203125
 10
0.9657070118105707
 20
0.7213240220751578
 10
0.9657070118105707
 20
0.6946803892626568
  0
LWPOLYLINE
  5
FBC36687B39F9D
330
FBC36687B3A068
100
AcDbEntity
  8
TEXT
100
AcDbPolyline
 90
        2
 70
     0
 43
0.0001332181640625
 10
0.9657070118105707
 20
0.7213240220751578
 10
0.9756983741152613
 20
0.7812721959032834
  0
LWPOLYLINE
  5
FBC36687B39FA1
330
FBC36687B3A068
100
AcDbEntity
  8
TEXT
100
AcDbPolyline
 90
        2
 70
     0
 43
0.0001332181640625
 10
0.9657070118105707
 20
0.6946803892626568
 10
0.9756983741152613
 20
0.7679503794970329
  0
LWPOLYLINE
  5
FBC36687B39FA5
330
FBC36687B3A068
100
AcDbEntity
  8
TEXT
100
AcDbPolyline
 90
        5
 70
     0
 43
0.0001332181640625
 10
0.9257415625918227
 20
0.8378899156298436
 10
0.9390633789980714
 20
0.8378899156298436
 10
0.9390633789980714
 20
0.8745249107470334
 10
0.9756983741152613
 20
0.8745249107470334
 10
0.9756983741152613
 20
0.8878467271532803
  0
LWPOLYLINE
  5
FBC36687B39FAC
330
FBC36687B3A068
100
AcDbEntity
  8
TEXT
100
AcDbPolyline
 90
        5
 70
     0
 43
0.0001332181640625
 10
0.9956810987246335
 20
0.8878467271532803
 10
0.9956810987246335
 20
0.8745249107470334
 10
1.032316093841823
 20
0.8745249107470334
 10
1.032316093841823
 20
0.8378899156298436
 10
1.045637910248072
 20
0.8378899156298436
  0
LWPOLYLINE
  5
FBC36687B39FB3
330
FBC36687B3A068
100
AcDbEntity
  8
TEXT
100
AcDbPolyline
 90
        2
 70
     0
 43
0.0001332181640625
 10
1.005672461029322
 20
0.7213240220751578
 10
0.9956810987246335
 20
0.7812721959032834
  0
LWPOLYLINE
  5
FBC36687B39FB7
330
FBC36687B3A068
100
AcDbEntity
  8
TEXT
100
AcDbPolyline
 90
        2
 70
     0
 43
0.0001332181640625
 10
0.9956810987246335
 20
0.7679503794970329
 10
1.005672461029322
 20
0.6946803892626568
  0
LWPOLYLINE
  5
FBC36687B39FBB
330
FBC36687B3A068
100
AcDbEntity
  8
TEXT
100
AcDbPolyline
 90
        2
 70
     0
 43
0.0006660908203125
 10
1.005672461029322
 20
0.7213240220751578
 10
1.005672461029322
 20
0.6946803892626568
  0
LWPOLYLINE
  5
FBC36687B39FBF
330
FBC36687B3A068
100
AcDbEntity
  8
TEXT
100
AcDbPolyline
 90
        5
 70
     0
 43
0.0001332181640625
 10
1.045637910248072
 20
0.8179071910204696
 10
1.032316093841823
 20
0.8179071910204696
 10
1.032316093841823
 20
0.7812721959032834
 10
0.9956810987246335
 20
0.7812721959032834
 10
0.9956810987246335
 20
0.7679503794970329
  0
LWPOLYLINE
  5
FBC36687B39FC6
330
FBC36687B3A068
100
AcDbEntity
  8
TEXT
100
AcDbPolyline
 90
        2
 70
     0
 43
0.0006660908203125
 10
1.092264267669947
 20
0.8478812779345323
 10
1.118907900482448
 20
0.8478812779345323
  0
LWPOLYLINE
  5
FBC36687B39FCA
330
FBC36687B3A068
100
AcDbEntity
  8
TEXT
100
AcDbPolyline
 90
        2
 70
     0
 43
0.0006660908203125
 10
1.092264267669947
 20
0.8079158287157843
 10
1.118907900482448
 20
0.8079158287157843
  0
LINE
  5
FBC36687B39FCE
330
FBC36687B3A068
100
AcDbEntity
  8
TEXT
100
AcDbLine
 10
1.389022037330473
 20
0.896840022730891
 30
0.0
 11
1.555927691359444
 21
0.896840022730891
 31
0.0
  0
LINE
  5
FBC36687B39FCF
330
FBC36687B3A068
100
AcDbEntity
  8
TEXT
100
AcDbLine
 10
1.454622173574774
 20
0.8610353011202631
 30
0.0
 11
1.389022037330473
 21
0.8610353011202631
 31
0.0
  0
LINE
  5
FBC36687B39FD0
330
FBC36687B3A068
100
AcDbEntity
  8
TEXT
100
AcDbLine
 10
1.301697247769721
 20
0.6946436843991455
 30
0.0
 11
1.454622173574774
 21
0.6946436843991455
 31
0.0
  0
LINE
  5
FBC36687B39FD1
330
FBC36687B3A068
100
AcDbEntity
  8
TEXT
100
AcDbLine
 10
1.459562547481053
 20
0.7630006907325848
 30
0.0
 11
1.301697247769719
 21
0.7630006907325848
 31
0.0
  0
LINE
  5
FBC36687B39FD2
330
FBC36687B3A068
100
AcDbEntity
  8
TEXT
100
AcDbLine
 10
1.383784707216225
 20
0.7969417984946495
 30
0.0
 11
1.459562547481053
 21
0.7969417984946495
 31
0.0
  0
ARC
  5
FBC36687B39FD3
330
FBC36687B3A068
100
AcDbEntity
  8
TEXT
100
AcDbCircle
 10
1.389022037330474
 20
0.8789376619255788
 30
0.0
 40
0.017902360805315
100
AcDbArc
 50
90.0
 51
270.0
  0
LINE
  5
FBC36687B39FD4
330
FBC36687B3A068
100
AcDbEntity
  8
TEXT
100
AcDbLine
 10
1.301697247769719
 20
0.7630006907325848
 30
0.0
 11
1.301697247769721
 21
0.6946436843991455
 31
0.0
  0
LINE
  5
FBC36687B39FD5
330
FBC36687B3A068
100
AcDbEntity
  8
TEXT
100
AcDbLine
 10
1.555927691359444
 20
0.896840022730891
 30
0.0
 11
1.555927691359444
 21
0.7544360757371953
 31
0.0
  0
ARC
  5
FBC36687B39FD6
330
FBC36687B3A068
100
AcDbEntity
  8
TEXT
100
AcDbCircle
 10
1.454622173574775
 20
0.7778394927597026
 30
0.0
 40
0.0831958083605586
100
AcDbArc
 50
270.0
 51
90.0
  0
ARC
  5
FBC36687B39FD7
330
FBC36687B3A068
100
AcDbEntity
  8
TEXT
100
AcDbCircle
 10
1.459562547481054
 20
0.7799712446136189
 30
0.0
 40
0.0169705538810321
100
AcDbArc
 50
270.0
 51
90.0
  0
LWPOLYLINE
  5
FBC36687B39FD8
330
FBC36687B3A068
100
AcDbEntity
  8
TEXT
100
AcDbPolyline
 90
        2
 70
     0
 43
0.0006660908203125
 10
0.9657070118105707
 20
0.9344730845751589
 10
0.9657070118105707
 20
0.96111671738766
  0
LWPOLYLINE
  5
FBC36687B39FDC
330
FBC36687B3A068
100
AcDbEntity
  8
TEXT
100
AcDbPolyline
 90
        2
 70
     0
 43
0.0006660908203125
 10
1.005672461029322
 20
0.9344730845751589
 10
1.005672461029322
 20
0.96111671738766
  0
LINE
  5
FBC36687B39FE0
330
FBC36687B3A068
100
AcDbEntity
  8
TEXT
100
AcDbLine
 10
1.559516460114737
 20
0.9611167173876564
 30
0.0
 11
1.383784707216225
 21
0.9611167173876564
 31
0.0
  0
LINE
  5
FBC36687B39FE1
330
FBC36687B3A068
100
AcDbEntity
  8
TEXT
100
AcDbLine
 10
1.559516460114737
 20
0.9955046349817946
 30
0.0
 11
1.559516460114737
 21
0.9611167173876564
 31
0.0
  0
LINE
  5
FBC36687B39FE2
330
FBC36687B3A068
100
AcDbEntity
  8
TEXT
100
AcDbLine
 10
1.749988352134589
 20
0.8602447212745358
 30
0.0
 11
1.691358031102651
 21
0.9611167173876564
 31
0.0
  0
LINE
  5
FBC36687B39FE3
330
FBC36687B3A068
100
AcDbEntity
  8
TEXT
100
AcDbLine
 10
1.808736914940455
 20
0.9611167173876564
 30
0.0
 11
1.749988352134589
 21
0.8602447212745358
 31
0.0
  0
LINE
  5
FBC36687B39FE4
330
FBC36687B3A068
100
AcDbEntity
  8
TEXT
100
AcDbLine
 10
1.905667540300196
 20
0.7770315225021447
 30
0.0
 11
1.905667540300196
 21
1.029128195126467
 31
0.0
  0
LINE
  5
FBC36687B39FE5
330
FBC36687B3A068
100
AcDbEntity
  8
TEXT
100
AcDbLine
 10
1.937979394437856
 20
0.9611167173876564
 30
0.0
 11
1.937979394437856
 21
0.7602525106552483
 31
0.0
  0
LINE
  5
FBC36687B39FE6
330
FBC36687B3A068
100
AcDbEntity
  8
TEXT
100
AcDbLine
 10
1.937979394437856
 20
0.7602525106552483
 30
0.0
 11
1.920985757553255
 21
0.7602525106552483
 31
0.0
  0
LINE
  5
FBC36687B39FE7
330
FBC36687B3A068
100
AcDbEntity
  8
TEXT
100
AcDbLine
 10
1.906807113796391
 20
0.6946436843991455
 30
0.0
 11
2.004810447495825
 21
0.6946436843991455
 31
0.0
  0
LINE
  5
FBC36687B39FE8
330
FBC36687B3A068
100
AcDbEntity
  8
TEXT
100
AcDbLine
 10
1.740388115137635
 20
0.7146021905041584
 30
0.0
 11
1.837687821231079
 21
0.8789524014394265
 31
0.0
  0
ARC
  5
FBC36687B39FE9
330
FBC36687B3A068
100
AcDbEntity
  8
TEXT
100
AcDbCircle
 10
1.706344555225421
 20
0.7341914066728413
 30
0.0
 40
0.0392772371940762
100
AcDbArc
 50
270.1604552698595
 51
330.0831797321295
  0
LINE
  5
FBC36687B39FEA
330
FBC36687B3A068
100
AcDbEntity
  8
TEXT
100
AcDbLine
 10
1.60981429883955
 20
0.6946436843991455
 30
0.0
 11
1.706454549914544
 21
0.6949143234974278
 31
0.0
  0
LWPOLYLINE
  5
FBC36687B39FEB
330
FBC36687B3A068
100
AcDbEntity
  8
TEXT
100
AcDbPolyline
 90
        6
 70
     1
 43
0.0
 10
1.652338102414699
 20
0.896840022730891
 10
1.622021508194491
 20
0.896840022730891
 10
1.622021508194491
 20
0.7737290246759967
 42
0.407328721240804
 10
1.633565159355967
 20
0.7619101099996107
 10
1.694186858400698
 20
0.7619101099996107
 10
1.711652198808016
 20
0.7947223390430898
  0
LINE
  5
FBC36687B39FF3
330
FBC36687B3A068
100
AcDbEntity
  8
TEXT
100
AcDbLine
 10
1.837687821231079
 20
0.8789524014394265
 30
0.0
 11
1.837687821231079
 21
0.7461950266140703
 31
0.0
  0
ARC
  5
FBC36687B39FF4
330
FBC36687B3A068
100
AcDbEntity
  8
TEXT
100
AcDbCircle
 10
1.920985757553253
 20
0.7756343168986737
 30
0.0
 40
0.0153818062434269
100
AcDbArc
 50
174.7883570302258
 51
270.0
  0
LWPOLYLINE
  5
FBC36687B39FF5
330
FBC36687B3A068
100
AcDbEntity
  8
TEXT
100
AcDbPolyline
 90
        2
 70
     0
 43
0.0
 10
1.837687821231078
 20
0.7461950266140738
 42
0.3318488747599744
 10
1.906807113796391
 20
0.6946436843991455
 42
-6.868794160588311
  0
LINE
  5
FBC36687B39FF9
330
FBC36687B3A068
100
AcDbEntity
  8
TEXT
100
AcDbLine
 10
2.062199516485086
 20
0.6946436843991455
 30
0.0
 11
2.129257563266926
 21
0.6946436843991455
 31
0.0
  0
LINE
  5
FBC36687B39FFA
330
FBC36687B3A068
100
AcDbEntity
  8
TEXT
100
AcDbLine
 10
2.062199516485086
 20
0.889286233564781
 30
0.0
 11
2.062199516485086
 21
0.6946436843991455
 31
0.0
  0
LINE
  5
FBC36687B39FFB
330
FBC36687B3A068
100
AcDbEntity
  8
TEXT
100
AcDbLine
 10
2.004810447495825
 20
0.896840022730891
 30
0.0
 11
2.054645727318973
 21
0.896840022730891
 31
0.0
  0
LINE
  5
FBC36687B39FFC
330
FBC36687B3A068
100
AcDbEntity
  8
TEXT
100
AcDbLine
 10
2.004810447495825
 20
0.6946436843991455
 30
0.0
 11
2.004810447495825
 21
0.896840022730891
 31
0.0
  0
LWPOLYLINE
  5
FBC36687B39FFD
330
FBC36687B3A068
100
AcDbEntity
  8
TEXT
100
AcDbPolyline
 90
        2
 70
     0
 43
0.0
 10
2.054645727318971
 20
0.896840022730891
 42
-0.4142135623731017
 10
2.062199516485085
 20
0.889286233564781
 42
-0.9999999999999998
  0
LINE
  5
FBC36687B3A001
330
FBC36687B3A068
100
AcDbEntity
  8
TEXT
100
AcDbLine
 10
2.260455728096656
 20
0.896840022730891
 30
0.0
 11
2.260455728096656
 21
0.8217876166566844
 31
0.0
  0
LINE
  5
FBC36687B3A002
330
FBC36687B3A068
100
AcDbEntity
  8
TEXT
100
AcDbLine
 10
2.129257563266926
 20
0.896840022730891
 30
0.0
 11
2.183391160187877
 21
0.896840022730891
 31
0.0
  0
LINE
  5
FBC36687B3A003
330
FBC36687B3A068
100
AcDbEntity
  8
TEXT
100
AcDbLine
 10
2.129257563266926
 20
0.6946436843991455
 30
0.0
 11
2.129257563266926
 21
0.896840022730891
 31
0.0
  0
LWPOLYLINE
  5
FBC36687B3A004
330
FBC36687B3A068
100
AcDbEntity
  8
TEXT
100
AcDbPolyline
 90
        2
 70
     0
 43
0.0
 10
2.183391160187875
 20
0.896840022730891
 42
-0.4142135623731017
 10
2.190944949353988
 20
0.889286233564781
 42
-0.9999999999999998
  0
LWPOLYLINE
  5
FBC36687B3A008
330
FBC36687B3A068
100
AcDbEntity
  8
TEXT
100
AcDbPolyline
 90
        4
 70
     0
 43
0.0
 10
2.190944949353988
 20
0.889286233564781
 10
2.190944949353988
 20
0.6946436843991455
 10
2.259423232641846
 20
0.6946436843991455
 10
2.259423232641846
 20
0.7381346293495837
 42
-1.714843617202739
  0
LINE
  5
FBC36687B3A00E
330
FBC36687B3A068
100
AcDbEntity
  8
TEXT
100
AcDbLine
 10
1.619559064958744
 20
0.9611167173876564
 30
0.0
 11
1.619559064958744
 21
0.9955046349817946
 31
0.0
  0
LINE
  5
FBC36687B3A00F
330
FBC36687B3A068
100
AcDbEntity
  8
TEXT
100
AcDbLine
 10
1.691358031102651
 20
0.9611167173876564
 30
0.0
 11
1.619559064958744
 21
0.9611167173876564
 31
0.0
  0
LINE
  5
FBC36687B3A010
330
FBC36687B3A068
100
AcDbEntity
  8
TEXT
100
AcDbLine
 10
1.838858827733831
 20
0.9611167173876564
 30
0.0
 11
1.808736914940455
 21
0.9611167173876564
 31
0.0
  0
LINE
  5
FBC36687B3A011
330
FBC36687B3A068
100
AcDbEntity
  8
TEXT
100
AcDbLine
 10
1.838858827733831
 20
1.029128195126467
 30
0.0
 11
1.838858827733831
 21
0.9611167173876564
 31
0.0
  0
LINE
  5
FBC36687B3A012
330
FBC36687B3A068
100
AcDbEntity
  8
TEXT
100
AcDbLine
 10
1.905667540300196
 20
1.029128195126467
 30
0.0
 11
1.838858827733831
 21
1.029128195126467
 31
0.0
  0
LWPOLYLINE
  5
FBC36687B3A013
330
FBC36687B3A068
100
AcDbEntity
  8
TEXT
100
AcDbPolyline
 90
        3
 70
     0
 43
0.0
 10
2.226079299898198
 20
0.96111671738766
 10
2.107779141082154
 20
0.96111671738766
 10
2.107779141082154
 20
0.9339492206267641
 42
-1.960274751411753
  0
LINE
  5
FBC36687B3A018
330
FBC36687B3A068
100
AcDbEntity
  8
TEXT
100
AcDbLine
 10
2.071997450368992
 20
0.9611167173876564
 30
0.0
 11
1.937979394437856
 21
0.9611167173876564
 31
0.0
  0
LWPOLYLINE
  5
FBC36687B3A019
330
FBC36687B3A068
100
AcDbEntity
  8
TEXT
100
AcDbPolyline
 90
        2
 70
     0
 43
0.0
 10
2.071997450368992
 20
0.96111671738766
 42
-0.3328679258950098
 10
2.107779141082154
 20
0.9339492206267641
 42
6.772930709997214
  0
LINE
  5
FBC36687B3A01D
330
FBC36687B3A068
100
AcDbEntity
  8
TEXT
100
AcDbLine
 10
2.261860990611365
 20
0.9611167173876564
 30
0.0
 11
2.261860990611365
 21
0.9327941716180125
 31
0.0
  0
LWPOLYLINE
  5
FBC36687B3A01E
330
FBC36687B3A068
100
AcDbEntity
  8
TEXT
100
AcDbPolyline
 90
        2
 70
     0
 43
0.0
 10
2.226079299898198
 20
0.96111671738766
 42
-0.3277054968067132
 10
2.261860990611363
 20
0.9327941716180161
 42
6.667889725900311
  0
LINE
  5
FBC36687B3A022
330
FBC36687B3A068
100
AcDbEntity
  8
TEXT
100
AcDbLine
 10
2.475652838703465
 20
0.8559047388342291
 30
0.0
 11
2.431902067521563
 21
0.9381550148303743
 31
0.0
  0
LINE
  5
FBC36687B3A023
330
FBC36687B3A068
100
AcDbEntity
  8
TEXT
100
AcDbLine
 10
2.475652838703465
 20
0.9611167173876564
 30
0.0
 11
2.475652838703465
 21
0.8559047388342291
 31
0.0
  0
LINE
  5
FBC36687B3A024
330
FBC36687B3A068
100
AcDbEntity
  8
TEXT
100
AcDbLine
 10
2.703336577641834
 20
0.8852513909761183
 30
0.0
 11
2.703336577641834
 21
1.026580923155257
 31
0.0
  0
LINE
  5
FBC36687B3A025
330
FBC36687B3A068
100
AcDbEntity
  8
TEXT
100
AcDbLine
 10
2.750434736197818
 20
0.9611167173876564
 30
0.0
 11
2.703336577641834
 21
0.8852513909761183
 31
0.0
  0
LINE
  5
FBC36687B3A026
330
FBC36687B3A068
100
AcDbEntity
  8
TEXT
100
AcDbLine
 10
2.760869452961741
 20
0.8512234744466828
 30
0.0
 11
2.825426568927447
 21
0.9611167173876564
 31
0.0
  0
LINE
  5
FBC36687B3A027
330
FBC36687B3A068
100
AcDbEntity
  8
TEXT
100
AcDbLine
 10
2.639501586419061
 20
0.6946436843991455
 30
0.0
 11
2.703879770737681
 21
0.6946436843991455
 31
0.0
  0
LWPOLYLINE
  5
FBC36687B3A028
330
FBC36687B3A068
100
AcDbEntity
  8
TEXT
100
AcDbPolyline
 90
        2
 70
     0
 43
0.0
 10
2.479592516008503
 20
0.7381346293495837
 42
-0.2901071551932486
 10
2.436516583140858
 20
0.6946436843991455
 42
-5.328517124445184
  0
ARC
  5
FBC36687B3A02C
330
FBC36687B3A068
100
AcDbEntity
  8
TEXT
100
AcDbCircle
 10
2.367662001483944
 20
0.8684806477308937
 30
0.0
 40
0.028359375
100
AcDbArc
 50
25.78218179591245
 51
90.0
  0
LINE
  5
FBC36687B3A02D
330
FBC36687B3A068
100
AcDbEntity
  8
TEXT
100
AcDbLine
 10
2.403463076788067
 20
0.8595650492687587
 30
0.0
 11
2.393198316374502
 21
0.880815588841453
 31
0.0
  0
LINE
  5
FBC36687B3A02E
330
FBC36687B3A068
100
AcDbEntity
  8
TEXT
100
AcDbLine
 10
2.321175087004684
 20
0.8595650492687587
 30
0.0
 11
2.403463076788067
 21
0.8595650492687587
 31
0.0
  0
LWPOLYLINE
  5
FBC36687B3A02F
330
FBC36687B3A068
100
AcDbEntity
  8
TEXT
100
AcDbPolyline
 90
        4
 70
     1
 43
0.0
 10
2.416394118070966
 20
0.7976076623831708
 10
2.327733799411107
 20
0.7976076623831708
 42
0.9999999999999998
 10
2.327733799411107
 20
0.75520912187931
 10
2.416394118070966
 20
0.75520912187931
 42
1.0
  0
LWPOLYLINE
  5
FBC36687B3A035
330
FBC36687B3A068
100
AcDbEntity
  8
TEXT
100
AcDbPolyline
 90
        2
 70
     0
 43
0.0
 10
2.302499165509482
 20
0.6946436843991455
 10
2.436516583140858
 20
0.6946436843991455
 42
0.9999999999999998
  0
LINE
  5
FBC36687B3A039
330
FBC36687B3A068
100
AcDbEntity
  8
TEXT
100
AcDbLine
 10
2.562853605126498
 20
0.896840022730891
 30
0.0
 11
2.639501586419056
 21
0.896840022730891
 31
0.0
  0
LINE
  5
FBC36687B3A03A
330
FBC36687B3A068
100
AcDbEntity
  8
TEXT
100
AcDbLine
 10
2.639501586419056
 20
0.896840022730891
 30
0.0
 11
2.639501586419061
 21
0.6946436843991455
 31
0.0
  0
ARC
  5
FBC36687B3A03B
330
FBC36687B3A068
100
AcDbEntity
  8
TEXT
100
AcDbCircle
 10
2.562853605126496
 20
0.8719341474482282
 30
0.0
 40
0.0249058752826653
100
AcDbArc
 50
89.99971217465335
 51
179.9999999999985
  0
LINE
  5
FBC36687B3A03C
330
FBC36687B3A068
100
AcDbEntity
  8
TEXT
100
AcDbLine
 10
2.537947729843839
 20
0.6946436843991455
 30
0.0
 11
2.537947729843833
 21
0.8719341898306138
 31
0.0
  0
LWPOLYLINE
  5
FBC36687B3A03D
330
FBC36687B3A068
100
AcDbEntity
  8
TEXT
100
AcDbPolyline
 90
        2
 70
     0
 43
0.0
 10
2.479592516008503
 20
0.6946436843991455
 10
2.537947729843837
 20
0.6946436843991455
  0
LWPOLYLINE
  5
FBC36687B3A041
330
FBC36687B3A068
100
AcDbEntity
  8
TEXT
100
AcDbPolyline
 90
        2
 70
     0
 43
0.0
 10
2.479592516008503
 20
0.7381346293495837
 10
2.479592516008503
 20
0.6946436843991455
  0
LINE
  5
FBC36687B3A045
330
FBC36687B3A068
100
AcDbEntity
  8
TEXT
100
AcDbLine
 10
2.856361676325352
 20
0.6946436843991455
 30
0.0
 11
2.760869452961741
 21
0.8512234744466828
 31
0.0
  0
LINE
  5
FBC36687B3A046
330
FBC36687B3A068
100
AcDbEntity
  8
TEXT
100
AcDbLine
 10
2.779783303949146
 20
0.6946436843991455
 30
0.0
 11
2.856361676325352
 21
0.6946436843991455
 31
0.0
  0
LINE
  5
FBC36687B3A047
330
FBC36687B3A068
100
AcDbEntity
  8
TEXT
100
AcDbLine
 10
2.703879770737681
 20
0.8262232528753257
 30
0.0
 11
2.779783303949146
 21
0.6946436843991455
 31
0.0
  0
LINE
  5
FBC36687B3A048
330
FBC36687B3A068
100
AcDbEntity
  8
TEXT
100
AcDbLine
 10
2.703879770737681
 20
0.6946436843991455
 30
0.0
 11
2.703879770737681
 21
0.8262232528753257
 31
0.0
  0
LINE
  5
FBC36687B3A049
330
FBC36687B3A068
100
AcDbEntity
  8
TEXT
100
AcDbLine
 10
2.703336577641834
 20
1.026580923155257
 30
0.0
 11
2.635021699092561
 21
1.026580923155257
 31
0.0
  0
ARC
  5
FBC36687B3A04A
330
FBC36687B3A068
100
AcDbEntity
  8
TEXT
100
AcDbCircle
 10
2.394665960051355
 20
0.919533150266754
 30
0.0
 40
0.0416329381542859
100
AcDbArc
 50
26.56974201007528
 51
87.20939649401342
  0
LINE
  5
FBC36687B3A04B
330
FBC36687B3A068
100
AcDbEntity
  8
TEXT
100
AcDbLine
 10
2.539549745002966
 20
0.9611167173876564
 30
0.0
 11
2.475652838703465
 21
0.9611167173876564
 31
0.0
  0
LINE
  5
FBC36687B3A04C
330
FBC36687B3A068
100
AcDbEntity
  8
TEXT
100
AcDbLine
 10
2.539549745002966
 20
0.9335690675267818
 30
0.0
 11
2.539549745002966
 21
0.9611167173876564
 31
0.0
  0
ARC
  5
FBC36687B3A04D
330
FBC36687B3A068
100
AcDbEntity
  8
TEXT
100
AcDbCircle
 10
2.570742562066074
 20
0.9298709901053916
 30
0.0
 40
0.0314112657011332
100
AcDbArc
 50
95.88484768694724
 51
173.2388340632136
  0
LINE
  5
FBC36687B3A04E
330
FBC36687B3A068
100
AcDbEntity
  8
TEXT
100
AcDbLine
 10
2.635021699092555
 20
0.9611167173876564
 30
0.0
 11
2.567521981443039
 21
0.9611167173876564
 31
0.0
  0
LINE
  5
FBC36687B3A04F
330
FBC36687B3A068
100
AcDbEntity
  8
TEXT
100
AcDbLine
 10
2.635021699092561
 20
1.026580923155257
 30
0.0
 11
2.635021699092555
 21
0.9611167173876564
 31
0.0
  0
LINE
  5
FBC36687B3A050
330
FBC36687B3A068
100
AcDbEntity
  8
TEXT
100
AcDbLine
 10
2.825426568927447
 20
0.9611167173876564
 30
0.0
 11
2.75043473619782
 21
0.9611167173876564
 31
0.0
  0
ENDSEC
  0
SECTION
  2
OBJECTS
  0
DICTIONARY
  5
FBC36687B3A05C
330
0
100
AcDbDictionary
  3
ACAD_GROUP
350
FBC36687B3A05D
  3
ACAD_LAYOUT
350
FBC36687B3A082
  3
ACAD_MLINESTYLE
350
FBC36687B3A05E
  3
ACAD_PLOTSETTINGS
350
FBC36687B3A083
  3
ACAD_PLOTSTYLENAME
350
FBC36687B3A080
  3
ACDBHEADERROUNDTRIPXREC
350
FBC36687B3A08D
  3
ACDBVARIABLEDICTIONARY
350
FBC36687B3A08A
  0
DICTIONARY
  5
FBC36687B3A0AF
330
FBC36687B3A068
100
AcDbDictionary
280
     1
  3
ACAD_LAYOUTSELFREF
360
FBC36687B3A0B0
  0
DICTIONARY
  5
FBC36687B3A0AD
330
FBC36687B3A065
100
AcDbDictionary
280
     1
  3
ACAD_LAYOUTSELFREF
360
FBC36687B3A0AE
  0
DICTIONARY
  5
FBC36687B3A05D
102
{ACAD_REACTORS
330
FBC36687B3A05C
102
}
330
FBC36687B3A05C
100
AcDbDictionary
  0
DICTIONARY
  5
FBC36687B3A082
102
{ACAD_REACTORS
330
FBC36687B3A05C
102
}
330
FBC36687B3A05C
100
AcDbDictionary
  0
DICTIONARY
  5
FBC36687B3A05E
102
{ACAD_REACTORS
330
FBC36687B3A05C
102
}
330
FBC36687B3A05C
100
AcDbDictionary
  3
STANDARD
350
FBC36687B3A06B
  0
DICTIONARY
  5
FBC36687B3A083
102
{ACAD_REACTORS
330
FBC36687B3A05C
102
}
330
FBC36687B3A05C
100
AcDbDictionary
  0
ACDBDICTIONARYWDFLT
  5
FBC36687B3A080
102
{ACAD_REACTORS
330
FBC36687B3A05C
102
}
330
FBC36687B3A05C
100
AcDbDictionary
281
     1
  3
Normal
350
FBC36687B3A081
100
AcDbDictionaryWithDefault
340
FBC36687B3A081
  0
DICTIONARY
  5
FBC36687B3A08D
102
{ACAD_REACTORS
330
FBC36687B3A05C
102
}
330
FBC36687B3A05C
100
AcDbDictionary
  3
CEPSNTYPE
350
FBC36687B3A097
  3
FINGERPRINTGUID
350
FBC36687B3A098
  3
HYPERLINKBASE
350
FBC36687B3A090
  3
INSUNITS
350
FBC36687B3A096
  3
LAYOUTDICT
350
FBC36687B3A092
  3
LWETCUNION
350
FBC36687B3A095
  3
PLOTSETDICT
350
FBC36687B3A093
  3
PLOTSTYLNAMDICT
350
FBC36687B3A094
  3
PSVPSCALE
350
FBC36687B3A09A
  3
PUCSBASE
350
FBC36687B3A09D
  3
PUCSORGBACK
350
FBC36687B3A0A3
  3
PUCSORGBOTTOM
350
FBC36687B3A09F
  3
PUCSORGFRONT
350
FBC36687B3A0A2
  3
PUCSORGLEFT
350
FBC36687B3A0A0
  3
PUCSORGRIGHT
350
FBC36687B3A0A1
  3
PUCSORGTOP
350
FBC36687B3A09E
  3
PUCSORTHOREF
350
FBC36687B3A09B
  3
PUCSORTHOVIEW
350
FBC36687B3A09C
  3
STYLESHEET
350
FBC36687B3A091
  3
TSTACKALIGN
350
FBC36687B3A08E
  3
TSTACKSIZE
350
FBC36687B3A08F
  3
UCSBASE
350
FBC36687B3A0A6
  3
UCSORGBACK
350
FBC36687B3A0AC
  3
UCSORGBOTTOM
350
FBC36687B3A0A8
  3
UCSORGFRONT
350
FBC36687B3A0AB
  3
UCSORGLEFT
350
FBC36687B3A0A9
  3
UCSORGRIGHT
350
FBC36687B3A0AA
  3
UCSORGTOP
350
FBC36687B3A0A7
  3
UCSORTHOREF
350
FBC36687B3A0A4
  3
UCSORTHOVIEW
350
FBC36687B3A0A5
  3
VERSIONGUID
350
FBC36687B3A099
  0
DICTIONARY
  5
FBC36687B3A08A
102
{ACAD_REACTORS
330
FBC36687B3A05C
102
}
330
FBC36687B3A05C
100
AcDbDictionary
  3
DIMASSOC
350
FBC36687B3A08B
  0
XRECORD
  5
FBC36687B3A0B0
102
{ACAD_REACTORS
330
FBC36687B3A0AF
102
}
330
FBC36687B3A0AF
100
AcDbXrecord
340
FBC36687B3A068
  0
XRECORD
  5
FBC36687B3A0AE
102
{ACAD_REACTORS
330
FBC36687B3A0AD
102
}
330
FBC36687B3A0AD
100
AcDbXrecord
340
FBC36687B3A065
  0
MLINESTYLE
  5
FBC36687B3A06B
102
{ACAD_REACTORS
330
FBC36687B3A05E
102
}
330
FBC36687B3A05E
100
AcDbMlineStyle
  2
STANDARD
 70
     0
  3

 62
     0
 51
90.0
 52
90.0
 71
     2
 49
0.5
 62
   256
  6
BYLAYER
 49
-0.5
 62
   256
  6
BYLAYER
  0
ACDBPLACEHOLDER
  5
FBC36687B3A081
102
{ACAD_REACTORS
330
FBC36687B3A080
102
}
330
FBC36687B3A080
100
AcDbPlaceHolder
280
     0
  0
XRECORD
  5
FBC36687B3A097
102
{ACAD_REACTORS
330
FBC36687B3A08D
102
}
330
FBC36687B3A08D
100
AcDbXrecord
 90
        0
  0
XRECORD
  5
FBC36687B3A098
102
{ACAD_REACTORS
330
FBC36687B3A08D
102
}
330
FBC36687B3A08D
100
AcDbXrecord
  1
{F315E6D0-8DB3-11D6-88E6-0090279574E7}
  0
XRECORD
  5
FBC36687B3A090
102
{ACAD_REACTORS
330
FBC36687B3A08D
102
}
330
FBC36687B3A08D
100
AcDbXrecord
  1

  0
XRECORD
  5
FBC36687B3A096
102
{ACAD_REACTORS
330
FBC36687B3A08D
102
}
330
FBC36687B3A08D
100
AcDbXrecord
 90
        0
  0
XRECORD
  5
FBC36687B3A092
102
{ACAD_REACTORS
330
FBC36687B3A08D
102
}
330
FBC36687B3A08D
100
AcDbXrecord
340
FBC36687B3A082
  0
XRECORD
  5
FBC36687B3A095
102
{ACAD_REACTORS
330
FBC36687B3A08D
102
}
330
FBC36687B3A08D
100
AcDbXrecord
 90
    14877
  0
XRECORD
  5
FBC36687B3A093
102
{ACAD_REACTORS
330
FBC36687B3A08D
102
}
330
FBC36687B3A08D
100
AcDbXrecord
340
FBC36687B3A083
  0
XRECORD
  5
FBC36687B3A094
102
{ACAD_REACTORS
330
FBC36687B3A08D
102
}
330
FBC36687B3A08D
100
AcDbXrecord
340
FBC36687B3A080
  0
XRECORD
  5
FBC36687B3A09A
102
{ACAD_REACTORS
330
FBC36687B3A08D
102
}
330
FBC36687B3A08D
100
AcDbXrecord
 40
0.0
  0
XRECORD
  5
FBC36687B3A09D
102
{ACAD_REACTORS
330
FBC36687B3A08D
102
}
330
FBC36687B3A08D
100
AcDbXrecord
340
0
  0
XRECORD
  5
FBC36687B3A0A3
102
{ACAD_REACTORS
330
FBC36687B3A08D
102
}
330
FBC36687B3A08D
100
AcDbXrecord
 10
0.0
 20
0.0
 30
0.0
  0
XRECORD
  5
FBC36687B3A09F
102
{ACAD_REACTORS
330
FBC36687B3A08D
102
}
330
FBC36687B3A08D
100
AcDbXrecord
 10
0.0
 20
0.0
 30
0.0
  0
XRECORD
  5
FBC36687B3A0A2
102
{ACAD_REACTORS
330
FBC36687B3A08D
102
}
330
FBC36687B3A08D
100
AcDbXrecord
 10
0.0
 20
0.0
 30
0.0
  0
XRECORD
  5
FBC36687B3A0A0
102
{ACAD_REACTORS
330
FBC36687B3A08D
102
}
330
FBC36687B3A08D
100
AcDbXrecord
 10
0.0
 20
0.0
 30
0.0
  0
XRECORD
  5
FBC36687B3A0A1
102
{ACAD_REACTORS
330
FBC36687B3A08D
102
}
330
FBC36687B3A08D
100
AcDbXrecord
 10
0.0
 20
0.0
 30
0.0
  0
XRECORD
  5
FBC36687B3A09E
102
{ACAD_REACTORS
330
FBC36687B3A08D
102
}
330
FBC36687B3A08D
100
AcDbXrecord
 10
0.0
 20
0.0
 30
0.0
  0
XRECORD
  5
FBC36687B3A09B
102
{ACAD_REACTORS
330
FBC36687B3A08D
102
}
330
FBC36687B3A08D
100
AcDbXrecord
340
0
  0
XRECORD
  5
FBC36687B3A09C
102
{ACAD_REACTORS
330
FBC36687B3A08D
102
}
330
FBC36687B3A08D
100
AcDbXrecord
 70
     0
  0
XRECORD
  5
FBC36687B3A091
102
{ACAD_REACTORS
330
FBC36687B3A08D
102
}
330
FBC36687B3A08D
100
AcDbXrecord
  1

  0
XRECORD
  5
FBC36687B3A08E
102
{ACAD_REACTORS
330
FBC36687B3A08D
102
}
330
FBC36687B3A08D
100
AcDbXrecord
 90
        1
  0
XRECORD
  5
FBC36687B3A08F
102
{ACAD_REACTORS
330
FBC36687B3A08D
102
}
330
FBC36687B3A08D
100
AcDbXrecord
 90
       70
  0
XRECORD
  5
FBC36687B3A0A6
102
{ACAD_REACTORS
330
FBC36687B3A08D
102
}
330
FBC36687B3A08D
100
AcDbXrecord
340
0
  0
XRECORD
  5
FBC36687B3A0AC
102
{ACAD_REACTORS
330
FBC36687B3A08D
102
}
330
FBC36687B3A08D
100
AcDbXrecord
 10
0.0
 20
0.0
 30
0.0
  0
XRECORD
  5
FBC36687B3A0A8
102
{ACAD_REACTORS
330
FBC36687B3A08D
102
}
330
FBC36687B3A08D
100
AcDbXrecord
 10
0.0
 20
0.0
 30
0.0
  0
XRECORD
  5
FBC36687B3A0AB
102
{ACAD_REACTORS
330
FBC36687B3A08D
102
}
330
FBC36687B3A08D
100
AcDbXrecord
 10
0.0
 20
0.0
 30
0.0
  0
XRECORD
  5
FBC36687B3A0A9
102
{ACAD_REACTORS
330
FBC36687B3A08D
102
}
330
FBC36687B3A08D
100
AcDbXrecord
 10
0.0
 20
0.0
 30
0.0
  0
XRECORD
  5
FBC36687B3A0AA
102
{ACAD_REACTORS
330
FBC36687B3A08D
102
}
330
FBC36687B3A08D
100
AcDbXrecord
 10
0.0
 20
0.0
 30
0.0
  0
XRECORD
  5
FBC36687B3A0A7
102
{ACAD_REACTORS
330
FBC36687B3A08D
102
}
330
FBC36687B3A08D
100
AcDbXrecord
 10
0.0
 20
0.0
 30
0.0
  0
XRECORD
  5
FBC36687B3A0A4
102
{ACAD_REACTORS
330
FBC36687B3A08D
102
}
330
FBC36687B3A08D
100
AcDbXrecord
340
0
  0
XRECORD
  5
FBC36687B3A0A5
102
{ACAD_REACTORS
330
FBC36687B3A08D
102
}
330
FBC36687B3A08D
100
AcDbXrecord
 70
     0
  0
XRECORD
  5
FBC36687B3A099
102
{ACAD_REACTORS
330
FBC36687B3A08D
102
}
330
FBC36687B3A08D
100
AcDbXrecord
  1
{F315E6D2-8DB3-11D6-88E6-0090279574E7}
  0
DICTIONARYVAR
  5
FBC36687B3A08B
102
{ACAD_REACTORS
330
FBC36687B3A08A
102
}
330
FBC36687B3A08A
100
DictionaryVariables
280
     0
  1
1
  0
ENDSEC
  0
EOF
