  0
SECTION
  2
HEADER
  9
$ACADVER
  1
AC1014
  9
$ACADMAINTVER
 70
     9
  9
$DWGCODEPAGE
  3
ANSI_1252
  9
$INSBASE
 10
1.578125
 20
1.328125
 30
0.0
  9
$EXTMIN
 10
-0.1767315792271429
 20
-0.5094039856222319
 30
0.0
  9
$EXTMAX
 10
3.308487742519984
 20
2.460316741460908
 30
0.0
  9
$LIMMIN
 10
0.0
 20
0.0
  9
$LIMMAX
 10
18.0
 20
12.0
  9
$ORTHOMODE
 70
     1
  9
$REGENMODE
 70
     1
  9
$FILLMODE
 70
     1
  9
$QTEXTMODE
 70
     0
  9
$MIRRTEXT
 70
     0
  9
$DRAGMODE
 70
     2
  9
$LTSCALE
 40
1.0
  9
$OSMODE
 70
    39
  9
$ATTMODE
 70
     1
  9
$TEXTSIZE
 40
0.125
  9
$TRACEWID
 40
0.05
  9
$TEXTSTYLE
  7
ROMANS
  9
$CLAYER
  8
0
  9
$CELTYPE
  6
BYLAYER
  9
$CECOLOR
 62
   256
  9
$CELTSCALE
 40
1.0
  9
$DELOBJ
 70
     1
  9
$DISPSILH
 70
     1
  9
$DIMSCALE
 40
1.0
  9
$DIMASZ
 40
0.125
  9
$DIMEXO
 40
0.125
  9
$DIMDLI
 40
0.375
  9
$DIMRND
 40
0.0
  9
$DIMDLE
 40
0.0
  9
$DIMEXE
 40
0.125
  9
$DIMTP
 40
0.0
  9
$DIMTM
 40
0.0
  9
$DIMTXT
 40
0.125
  9
$DIMCEN
 40
-0.125
  9
$DIMTSZ
 40
0.0
  9
$DIMTOL
 70
     0
  9
$DIMLIM
 70
     0
  9
$DIMTIH
 70
     1
  9
$DIMTOH
 70
     1
  9
$DIMSE1
 70
     0
  9
$DIMSE2
 70
     0
  9
$DIMTAD
 70
     0
  9
$DIMZIN
 70
     4
  9
$DIMBLK
  1

  9
$DIMASO
 70
     1
  9
$DIMSHO
 70
     1
  9
$DIMPOST
  1

  9
$DIMAPOST
  1

  9
$DIMALT
 70
     0
  9
$DIMALTD
 70
     2
  9
$DIMALTF
 40
25.4
  9
$DIMLFAC
 40
1.0
  9
$DIMTOFL
 70
     0
  9
$DIMTVP
 40
0.0
  9
$DIMTIX
 70
     1
  9
$DIMSOXD
 70
     0
  9
$DIMSAH
 70
     0
  9
$DIMBLK1
  1

  9
$DIMBLK2
  1

  9
$DIMSTYLE
  2
STANDARD
  9
$DIMCLRD
 70
     0
  9
$DIMCLRE
 70
     0
  9
$DIMCLRT
 70
     0
  9
$DIMTFAC
 40
1.0
  9
$DIMGAP
 40
0.09
  9
$DIMJUST
 70
     0
  9
$DIMSD1
 70
     0
  9
$DIMSD2
 70
     0
  9
$DIMTOLJ
 70
     1
  9
$DIMTZIN
 70
     4
  9
$DIMALTZ
 70
     0
  9
$DIMALTTZ
 70
     0
  9
$DIMFIT
 70
     3
  9
$DIMUPT
 70
     0
  9
$DIMUNIT
 70
     2
  9
$DIMDEC
 70
     3
  9
$DIMTDEC
 70
     3
  9
$DIMALTU
 70
     2
  9
$DIMALTTD
 70
     2
  9
$DIMTXSTY
  7
ROMANS
  9
$DIMAUNIT
 70
     0
  9
$LUNITS
 70
     2
  9
$LUPREC
 70
     3
  9
$SKETCHINC
 40
0.1
  9
$FILLETRAD
 40
0.03125
  9
$AUNITS
 70
     0
  9
$AUPREC
 70
     0
  9
$MENU
  1
ACAD
  9
$ELEVATION
 40
0.0
  9
$PELEVATION
 40
0.0
  9
$THICKNESS
 40
0.0
  9
$LIMCHECK
 70
     0
  9
$BLIPMODE
 70
     0
  9
$CHAMFERA
 40
0.0
  9
$CHAMFERB
 40
0.0
  9
$CHAMFERC
 40
0.0
  9
$CHAMFERD
 40
0.0
  9
$SKPOLY
 70
     0
  9
$TDCREATE
 40
2448993.558274305
  9
$TDUPDATE
 40
2452458.295195046
  9
$TDINDWG
 40
0.0009881597
  9
$TDUSRTIMER
 40
0.0009881597
  9
$USRTIMER
 70
     1
  9
$ANGBASE
 50
0.0
  9
$ANGDIR
 70
     0
  9
$PDMODE
 70
     0
  9
$PDSIZE
 40
0.0
  9
$PLINEWID
 40
0.0
  9
$COORDS
 70
     2
  9
$SPLFRAME
 70
     0
  9
$SPLINETYPE
 70
     6
  9
$SPLINESEGS
 70
     8
  9
$ATTDIA
 70
     0
  9
$ATTREQ
 70
     1
  9
$HANDLING
 70
 22529
  9
$HANDSEED
  5
7DE1B343D9D819
  9
$SURFTAB1
 70
     6
  9
$SURFTAB2
 70
     6
  9
$SURFTYPE
 70
     6
  9
$SURFU
 70
     6
  9
$SURFV
 70
     6
  9
$UCSNAME
  2

  9
$UCSORG
 10
0.0
 20
0.0
 30
0.0
  9
$UCSXDIR
 10
1.0
 20
0.0
 30
0.0
  9
$UCSYDIR
 10
0.0
 20
1.0
 30
0.0
  9
$PUCSNAME
  2

  9
$PUCSORG
 10
0.0
 20
0.0
 30
0.0
  9
$PUCSXDIR
 10
1.0
 20
0.0
 30
0.0
  9
$PUCSYDIR
 10
0.0
 20
1.0
 30
0.0
  9
$USERI1
 70
     0
  9
$USERI2
 70
     0
  9
$USERI3
 70
     0
  9
$USERI4
 70
     0
  9
$USERI5
 70
     0
  9
$USERR1
 40
0.0
  9
$USERR2
 40
0.0
  9
$USERR3
 40
0.0
  9
$USERR4
 40
0.0
  9
$USERR5
 40
0.0
  9
$WORLDVIEW
 70
     1
  9
$SHADEDGE
 70
     3
  9
$SHADEDIF
 70
    70
  9
$TILEMODE
 70
     1
  9
$MAXACTVP
 70
    16
  9
$PINSBASE
 10
1.331418470847654
 20
50.00000000000001
 30
2.027439026733745
  9
$PLIMCHECK
 70
     0
  9
$PEXTMIN
 10
1.000000000000000E+20
 20
1.000000000000000E+20
 30
1.000000000000000E+20
  9
$PEXTMAX
 10
-1.000000000000000E+20
 20
-1.000000000000000E+20
 30
-1.000000000000000E+20
  9
$PLIMMIN
 10
0.0
 20
0.0
  9
$PLIMMAX
 10
12.0
 20
9.0
  9
$UNITMODE
 70
     0
  9
$VISRETAIN
 70
     0
  9
$PLINEGEN
 70
     1
  9
$PSLTSCALE
 70
     0
  9
$TREEDEPTH
 70
  3020
  9
$PICKSTYLE
 70
     1
  9
$CMLSTYLE
  2
STANDARD
  9
$CMLJUST
 70
     0
  9
$CMLSCALE
 40
1.0
  9
$PROXYGRAPHICS
 70
     1
  9
$MEASUREMENT
 70
     0
  0
ENDSEC
  0
SECTION
  2
CLASSES
  0
CLASS
  1
LWPOLYLINE
  2
AcDbPolyline
  3
AutoCAD 2000
 90
        0
280
     0
281
     1
  0
CLASS
  1
ACDBDICTIONARYWDFLT
  2
AcDbDictionaryWithDefault
  3
AutoCAD 2000
 90
        0
280
     0
281
     0
  0
CLASS
  1
ACDBPLACEHOLDER
  2
AcDbPlaceHolder
  3
AutoCAD 2000
 90
        0
280
     0
281
     0
  0
CLASS
  1
LAYOUT
  2
AcDbLayout
  3
AutoCAD 2000
 90
        0
280
     0
281
     0
  0
CLASS
  1
DICTIONARYVAR
  2
AcDbDictionaryVar
  3
AutoCAD 2000
 90
        0
280
     0
281
     0
  0
CLASS
  1
LONG_TRANSACTION
  2
AcDbLongTransaction
  3
AutoCAD 2000
 90
        0
280
     0
281
     0
  0
CLASS
  1
LWPOLYLINE
  2
AcDbPolyline
  3
AutoCAD 2000
 90
        0
280
     0
281
     1
  0
CLASS
  1
HATCH
  2
AcDbHatch
  3
AutoCAD 2000
 90
        0
280
     0
281
     1
  0
CLASS
  1
XRECORD
  2
AcDbXrecord
  3
AutoCAD 2000
 90
        0
280
     0
281
     0
  0
ENDSEC
  0
SECTION
  2
TABLES
  0
TABLE
  2
VPORT
  5
7DE1B343D9D7C0
330
0
100
AcDbSymbolTable
 70
     2
  0
VPORT
  5
7DE1B343D9D7F4
330
7DE1B343D9D7C0
100
AcDbSymbolTableRecord
100
AcDbViewportTableRecord
  2
*ACTIVE
 70
     0
 10
0.0
 20
0.0
 11
1.0
 21
1.0
 12
5.93928231004555
 22
0.9757250923658611
 13
0.0
 23
0.0
 14
0.015625
 24
0.015625
 15
0.0
 25
0.0
 16
0.0
 26
0.0
 36
1.0
 17
0.0
 27
0.0
 37
0.0
 40
3.354094510510825
 41
4.320930232558139
 42
50.0
 43
0.0
 44
0.0
 50
0.0
 51
0.0
 71
     0
 72
  2000
 73
     1
 74
     0
 75
     1
 76
     0
 77
     0
 78
     0
  0
ENDTAB
  0
TABLE
  2
LTYPE
  5
7DE1B343D9D7BD
330
0
100
AcDbSymbolTable
 70
     1
  0
LTYPE
  5
7DE1B343D9D7CA
330
7DE1B343D9D7BD
100
AcDbSymbolTableRecord
100
AcDbLinetypeTableRecord
  2
BYBLOCK
 70
     0
  3

 72
    65
 73
     0
 40
0.0
  0
LTYPE
  5
7DE1B343D9D7CB
330
7DE1B343D9D7BD
100
AcDbSymbolTableRecord
100
AcDbLinetypeTableRecord
  2
BYLAYER
 70
     0
  3

 72
    65
 73
     0
 40
0.0
  0
LTYPE
  5
7DE1B343D9D7CC
330
7DE1B343D9D7BD
100
AcDbSymbolTableRecord
100
AcDbLinetypeTableRecord
  2
CONTINUOUS
 70
     0
  3
Solid line
 72
    65
 73
     0
 40
0.0
  0
ENDTAB
  0
TABLE
  2
LAYER
  5
7DE1B343D9D7BA
330
0
100
AcDbSymbolTable
 70
     2
  0
LAYER
  5
7DE1B343D9D7C7
330
7DE1B343D9D7BA
100
AcDbSymbolTableRecord
100
AcDbLayerTableRecord
  2
0
 70
     0
 62
     7
  6
CONTINUOUS
  0
LAYER
  5
7DE1B343D9D7D7
330
7DE1B343D9D7BA
100
AcDbSymbolTableRecord
100
AcDbLayerTableRecord
  2
TEXT
 70
     0
 62
     3
  6
CONTINUOUS
  0
ENDTAB
  0
TABLE
  2
STYLE
  5
7DE1B343D9D7BB
330
0
100
AcDbSymbolTable
 70
     3
  0
STYLE
  5
7DE1B343D9D7C8
330
7DE1B343D9D7BB
100
AcDbSymbolTableRecord
100
AcDbTextStyleTableRecord
  2
STANDARD
 70
     0
 40
0.0
 41
1.0
 50
0.0
 71
     0
 42
0.3125
  3
txt
  4

  0
STYLE
  5
7DE1B343D9D7D4
330
7DE1B343D9D7BB
100
AcDbSymbolTableRecord
100
AcDbTextStyleTableRecord
  2
ITALICC
 70
     0
 40
0.0
 41
1.0
 50
0.0
 71
     0
 42
0.125
  3
italicc
  4

  0
STYLE
  5
7DE1B343D9D7E4
330
7DE1B343D9D7BB
100
AcDbSymbolTableRecord
100
AcDbTextStyleTableRecord
  2
ROMANS
 70
     0
 40
0.0
 41
1.0
 50
0.0
 71
     0
 42
0.125
  3
romans.shx
  4

  0
ENDTAB
  0
TABLE
  2
VIEW
  5
7DE1B343D9D7BE
330
0
100
AcDbSymbolTable
 70
     0
  0
ENDTAB
  0
TABLE
  2
UCS
  5
7DE1B343D9D7BF
330
0
100
AcDbSymbolTable
 70
     0
  0
ENDTAB
  0
TABLE
  2
APPID
  5
7DE1B343D9D7C1
330
0
100
AcDbSymbolTable
 70
     1
  0
APPID
  5
7DE1B343D9D7C9
330
7DE1B343D9D7C1
100
AcDbSymbolTableRecord
100
AcDbRegAppTableRecord
  2
ACAD
 70
     0
  0
ENDTAB
  0
TABLE
  2
DIMSTYLE
  5
7DE1B343D9D7C2
330
0
100
AcDbSymbolTable
 70
     1
  0
DIMSTYLE
105
7DE1B343D9D7DC
330
7DE1B343D9D7C2
100
AcDbSymbolTableRecord
100
AcDbDimStyleTableRecord
  2
STANDARD
 70
     0
  3

  4

  5

  6

  7

 40
1.0
 41
0.125
 42
0.125
 43
0.375
 44
0.125
 45
0.0
 46
0.0
 47
0.0
 48
0.0
140
0.125
141
-0.125
142
0.0
143
25.4
144
1.0
145
0.0
146
1.0
147
0.09
 71
     0
 72
     0
 73
     1
 74
     1
 75
     0
 76
     0
 77
     0
 78
     4
170
     0
171
     2
172
     0
173
     0
174
     1
175
     0
176
     0
177
     0
178
     0
270
     2
271
     3
272
     3
273
     2
274
     2
340
7DE1B343D9D7E4
275
     0
280
     0
281
     0
282
     0
283
     1
284
     4
285
     0
286
     0
287
     3
288
     0
  0
ENDTAB
  0
TABLE
  2
BLOCK_RECORD
  5
7DE1B343D9D7B9
330
0
100
AcDbSymbolTable
 70
     0
  0
BLOCK_RECORD
  5
7DE1B343D9D7D0
102
{ACAD_XDICTIONARY
360
7DE1B343D9D817
102
}
330
7DE1B343D9D7B9
100
AcDbSymbolTableRecord
100
AcDbBlockTableRecord
  2
*MODEL_SPACE
  0
BLOCK_RECORD
  5
7DE1B343D9D7CD
102
{ACAD_XDICTIONARY
360
7DE1B343D9D815
102
}
330
7DE1B343D9D7B9
100
AcDbSymbolTableRecord
100
AcDbBlockTableRecord
  2
*PAPER_SPACE
  0
ENDTAB
  0
ENDSEC
  0
SECTION
  2
BLOCKS
  0
BLOCK
  5
7DE1B343D9D7DA
330
7DE1B343D9D7D0
100
AcDbEntity
  8
0
100
AcDbBlockBegin
  2
*MODEL_SPACE
 70
     0
 10
0.0
 20
0.0
 30
0.0
  3
*MODEL_SPACE
  1

  0
ENDBLK
  5
7DE1B343D9D7DB
330
7DE1B343D9D7D0
100
AcDbEntity
  8
0
100
AcDbBlockEnd
  0
BLOCK
  5
7DE1B343D9D7D8
330
7DE1B343D9D7CD
100
AcDbEntity
 67
     1
  8
0
100
AcDbBlockBegin
  2
*PAPER_SPACE
 70
     0
 10
0.0
 20
0.0
 30
0.0
  3
*PAPER_SPACE
  1

  0
ENDBLK
  5
7DE1B343D9D7D9
330
7DE1B343D9D7CD
100
AcDbEntity
 67
     1
  8
0
100
AcDbBlockEnd
  0
ENDSEC
  0
SECTION
  2
ENTITIES
  0
LWPOLYLINE
  5
7DE1B343D9C370
330
7DE1B343D9D7D0
100
AcDbEntity
  8
0
100
AcDbPolyline
 90
       31
 70
     1
 43
0.0
 10
1.234375
 20
1.262846960169579
 42
-0.2679491924311214
 10
1.2578125
 20
1.303441900971975
 10
1.796562499999999
 20
1.614489358497885
 42
-0.5773502691896257
 10
1.866874999999999
 20
1.573894417695489
 10
1.866875
 20
1.258124999999999
 10
1.796875
 20
1.258124999999998
 10
1.796875
 20
1.203125
 10
1.921875
 20
1.203125
 10
1.921875
 20
0.5881249999999998
 10
1.931874999999999
 20
0.578125
 10
1.921875
 20
0.5681250000000003
 10
1.921875
 20
0.203125
 10
1.96875
 20
0.203125
 42
0.4142135623730951
 10
2.015625
 20
0.25
 10
2.015625
 20
1.211249999999999
 42
0.4142135623730951
 10
1.96875
 20
1.258124999999999
 42
-0.4142135623730896
 10
1.921875
 20
1.304999999999999
 10
1.921875
 20
2.369429891042366
 42
0.3939104756149423
 10
1.892804889804503
 20
2.400603767612985
 10
1.142804889804503
 20
2.453048876570619
 42
0.4348123749609317
 10
1.109375
 20
2.421875
 10
1.109375
 20
2.187499999999999
 42
1.0
 10
1.203124999999999
 20
2.187499999999999
 10
1.203125
 20
2.393696579174102
 10
1.866875
 20
2.347282657746596
 10
1.866875
 20
1.790761612559844
 42
-0.2679491924311226
 10
1.804375
 20
1.682508437086789
 10
1.164062499999999
 20
1.312823842846307
 42
0.2679491924311228
 10
1.109374999999999
 20
1.218102314307384
 10
1.109375
 20
1.203125
 10
1.234375
 20
1.203125
  0
TEXT
  5
7DE1B343D9D67B
330
7DE1B343D9D7D0
100
AcDbEntity
  8
TEXT
100
AcDbText
 10
0.8102976190476191
 20
-0.0513853815396503
 30
0.0
 40
0.125
  1
PART #110105
  7
ITALICC
 72
     1
 11
1.56625
 21
-0.0513853815396503
 31
0.0
100
AcDbText
  0
TEXT
  5
7DE1B343D9D67C
330
7DE1B343D9D7D0
100
AcDbEntity
  8
TEXT
100
AcDbText
 10
1.97955515825032
 20
-0.4983080242120255
 30
0.0
 40
0.0522247191011236
  1
Phone  1-800-328-2495
 41
1.272321428571429
 72
     5
 11
3.308487742519984
 21
-0.4983080242120255
 31
0.0
100
AcDbText
  0
TEXT
  5
7DE1B343D9D67D
330
7DE1B343D9D7D0
100
AcDbEntity
  8
TEXT
100
AcDbText
 10
1.97955515825032
 20
-0.218532743313149
 30
0.0
 40
0.0522247191011236
  1
Stylmark  Incorporated
 41
1.221428571428572
 72
     5
 11
3.308487742519984
 21
-0.218532743313149
 31
0.0
100
AcDbText
  0
TEXT
  5
7DE1B343D9D67E
330
7DE1B343D9D7D0
100
AcDbEntity
  8
TEXT
100
AcDbText
 10
1.97955515825032
 20
-0.3117911702794411
 30
0.0
 40
0.0522247191011236
  1
6536 Main St. N.E. * P.O. Box 32008
 41
0.8388932496075364
 72
     5
 11
3.308487742519984
 21
-0.3117911702794411
 31
0.0
100
AcDbText
  0
TEXT
  5
7DE1B343D9D67F
330
7DE1B343D9D7D0
100
AcDbEntity
  8
TEXT
100
AcDbText
 10
1.97955515825032
 20
-0.4050495972457333
 30
0.0
 40
0.0522247191011236
  1
Minneapolis, MN 55432-0008
 41
1.11444212721585
 72
     5
 11
3.308487742519984
 21
-0.4050495972457333
 31
0.0
100
AcDbText
  0
LWPOLYLINE
  5
7DE1B343D9D680
330
7DE1B343D9D7D0
100
AcDbEntity
  8
TEXT
100
AcDbPolyline
 90
        3
 70
     0
 43
0.0006660908203125
 10
-0.1763985338169867
 20
-0.3846632615745906
 10
-0.1763985338169867
 20
-0.4978987010277183
 10
-0.0631630943638644
 20
-0.4978987010277183
  0
LWPOLYLINE
  5
7DE1B343D9D685
330
7DE1B343D9D7D0
100
AcDbEntity
  8
TEXT
100
AcDbPolyline
 90
        3
 70
     0
 43
0.0006660908203125
 10
-0.1497549010044892
 20
-0.3846632615745906
 10
-0.1497549010044892
 20
-0.4712550682152173
 10
-0.0631630943638644
 20
-0.4712550682152173
  0
LWPOLYLINE
  5
7DE1B343D9D68A
330
7DE1B343D9D7D0
100
AcDbEntity
  8
TEXT
100
AcDbPolyline
 90
        2
 70
     0
 43
0.0001332181640625
 10
-0.1031285435826124
 20
-0.3746718992699054
 10
-0.1763985338169867
 20
-0.3846632615745906
  0
LWPOLYLINE
  5
7DE1B343D9D68E
330
7DE1B343D9D7D0
100
AcDbEntity
  8
TEXT
100
AcDbPolyline
 90
        2
 70
     0
 43
0.0001332181640625
 10
-0.1497549010044892
 20
-0.3846632615745906
 10
-0.0898067271763619
 20
-0.3746718992699054
  0
LWPOLYLINE
  5
7DE1B343D9D692
330
7DE1B343D9D7D0
100
AcDbEntity
  8
TEXT
100
AcDbPolyline
 90
        2
 70
     0
 43
0.0001332181640625
 10
-0.1497549010044892
 20
-0.4712550682152173
 10
-0.0898067271763619
 20
-0.4113068943870917
  0
LWPOLYLINE
  5
7DE1B343D9D696
330
7DE1B343D9D7D0
100
AcDbEntity
  8
TEXT
100
AcDbPolyline
 90
        3
 70
     0
 43
0.0006660908203125
 10
-0.0631630943638644
 20
-0.231462372902715
 10
-0.1763985338169867
 20
-0.231462372902715
 10
-0.1763985338169867
 20
-0.3446978123558426
  0
LWPOLYLINE
  5
7DE1B343D9D69B
330
7DE1B343D9D7D0
100
AcDbEntity
  8
TEXT
100
AcDbPolyline
 90
        3
 70
     0
 43
0.0006660908203125
 10
-0.0631630943638644
 20
-0.258106005715216
 10
-0.1497549010044892
 20
-0.258106005715216
 10
-0.1497549010044892
 20
-0.3446978123558426
  0
LWPOLYLINE
  5
7DE1B343D9D6A0
330
7DE1B343D9D7D0
100
AcDbEntity
  8
TEXT
100
AcDbPolyline
 90
        2
 70
     0
 43
0.0001332181640625
 10
-0.1497549010044892
 20
-0.258106005715216
 10
-0.0898067271763637
 20
-0.3180541795433416
  0
LWPOLYLINE
  5
7DE1B343D9D6A4
330
7DE1B343D9D7D0
100
AcDbEntity
  8
TEXT
100
AcDbPolyline
 90
        2
 70
     0
 43
0.0001332181640625
 10
-0.1497549010044892
 20
-0.3446978123558426
 10
-0.0898067271763637
 20
-0.3546891746605314
  0
LWPOLYLINE
  5
7DE1B343D9D6A8
330
7DE1B343D9D7D0
100
AcDbEntity
  8
TEXT
100
AcDbPolyline
 90
        2
 70
     0
 43
0.0001332181640625
 10
-0.1763985338169867
 20
-0.3446978123558426
 10
-0.1031285435826124
 20
-0.3546891746605314
  0
LWPOLYLINE
  5
7DE1B343D9D6AC
330
7DE1B343D9D7D0
100
AcDbEntity
  8
TEXT
100
AcDbPolyline
 90
        2
 70
     0
 43
0.0006660908203125
 10
-0.1497549010044892
 20
-0.3846632615745906
 10
-0.1763985338169867
 20
-0.3846632615745906
  0
LWPOLYLINE
  5
7DE1B343D9D6B0
330
7DE1B343D9D7D0
100
AcDbEntity
  8
TEXT
100
AcDbPolyline
 90
        2
 70
     0
 43
0.0006660908203125
 10
-0.1497549010044892
 20
-0.3446978123558426
 10
-0.1763985338169867
 20
-0.3446978123558426
  0
LINE
  5
7DE1B343D9D6B4
330
7DE1B343D9D7D0
100
AcDbEntity
  8
TEXT
100
AcDbLine
 10
1.33879189530951
 20
-0.295739067559484
 30
0.0
 11
1.231585621922221
 21
-0.295739067559484
 31
0.0
  0
LINE
  5
7DE1B343D9D6B5
330
7DE1B343D9D7D0
100
AcDbEntity
  8
TEXT
100
AcDbLine
 10
1.367822793653989
 20
-0.2314623729027185
 30
0.0
 11
1.23299088443693
 21
-0.2314623729027185
 31
0.0
  0
ARC
  5
7DE1B343D9D6B6
330
7DE1B343D9D7D0
100
AcDbEntity
  8
TEXT
100
AcDbCircle
 10
1.292304980830247
 20
-0.4006996221657349
 30
0.0
 40
0.0676855811441166
100
AcDbArc
 50
90.0
 51
153.7768192527749
  0
LWPOLYLINE
  5
7DE1B343D9D6B7
330
7DE1B343D9D7D0
100
AcDbEntity
  8
TEXT
100
AcDbPolyline
 90
        2
 70
     0
 43
0.0
 10
1.230553126467411
 20
-0.4544444609407914
 42
0.2901071551932823
 10
1.273629059335046
 20
-0.4979354058912296
 42
5.328517124445801
  0
ARC
  5
7DE1B343D9D6BB
330
7DE1B343D9D7D0
100
AcDbEntity
  8
TEXT
100
AcDbCircle
 10
0.5871736031587613
 20
-0.4381430145531798
 30
0.0
 40
0.0601160179737537
100
AcDbArc
 50
180.0000000000003
 51
264.0521544866073
  0
LINE
  5
7DE1B343D9D6BC
330
7DE1B343D9D7D0
100
AcDbEntity
  8
TEXT
100
AcDbLine
 10
0.5906889587843092
 20
-0.1970744553085804
 30
0.0
 11
0.5306463539403021
 21
-0.1970744553085804
 31
0.0
  0
ARC
  5
7DE1B343D9D6BD
330
7DE1B343D9D7D0
100
AcDbEntity
  8
TEXT
100
AcDbCircle
 10
0.3549146010417907
 20
-0.3135498323492203
 30
0.0
 40
0.0820874594465043
100
AcDbArc
 50
90.0
 51
270.0
  0
LWPOLYLINE
  5
7DE1B343D9D6BE
330
7DE1B343D9D7D0
100
AcDbEntity
  8
TEXT
100
AcDbPolyline
 90
        2
 70
     0
 43
0.0001332181640625
 10
-0.0531717320591738
 20
-0.3047323631370946
 10
-0.0631630943638644
 20
-0.231462372902715
  0
LWPOLYLINE
  5
7DE1B343D9D6C2
330
7DE1B343D9D7D0
100
AcDbEntity
  8
TEXT
100
AcDbPolyline
 90
        2
 70
     0
 43
0.0001332181640625
 10
-0.0631630943638644
 20
-0.258106005715216
 10
-0.0531717320591738
 20
-0.3180541795433416
  0
LWPOLYLINE
  5
7DE1B343D9D6C6
330
7DE1B343D9D7D0
100
AcDbEntity
  8
TEXT
100
AcDbPolyline
 90
        3
 70
     0
 43
0.0006660908203125
 10
0.0900377943080131
 20
-0.3446978123558426
 10
0.0900377943080131
 20
-0.231462372902715
 10
-0.0231976451451128
 20
-0.231462372902715
  0
LWPOLYLINE
  5
7DE1B343D9D6CB
330
7DE1B343D9D7D0
100
AcDbEntity
  8
TEXT
100
AcDbPolyline
 90
        3
 70
     0
 43
0.0006660908203125
 10
0.063394161495512
 20
-0.3446978123558426
 10
0.063394161495512
 20
-0.258106005715216
 10
-0.0231976451451128
 20
-0.258106005715216
  0
LWPOLYLINE
  5
7DE1B343D9D6D0
330
7DE1B343D9D7D0
100
AcDbEntity
  8
TEXT
100
AcDbPolyline
 90
        2
 70
     0
 43
0.0001332181640625
 10
0.063394161495512
 20
-0.258106005715216
 10
0.0034459876673882
 20
-0.3180541795433416
  0
LWPOLYLINE
  5
7DE1B343D9D6D4
330
7DE1B343D9D7D0
100
AcDbEntity
  8
TEXT
100
AcDbPolyline
 90
        2
 70
     0
 43
0.0001332181640625
 10
-0.0231976451451128
 20
-0.258106005715216
 10
-0.0331890074498016
 20
-0.3180541795433416
  0
LWPOLYLINE
  5
7DE1B343D9D6D8
330
7DE1B343D9D7D0
100
AcDbEntity
  8
TEXT
100
AcDbPolyline
 90
        2
 70
     0
 43
0.0001332181640625
 10
-0.0231976451451128
 20
-0.231462372902715
 10
-0.0331890074498016
 20
-0.3047323631370946
  0
LWPOLYLINE
  5
7DE1B343D9D6DC
330
7DE1B343D9D7D0
100
AcDbEntity
  8
TEXT
100
AcDbPolyline
 90
        2
 70
     0
 43
0.0001332181640625
 10
0.016767804073637
 20
-0.3546891746605314
 10
0.0900377943080131
 20
-0.3446978123558426
  0
LWPOLYLINE
  5
7DE1B343D9D6E0
330
7DE1B343D9D7D0
100
AcDbEntity
  8
TEXT
100
AcDbPolyline
 90
        2
 70
     0
 43
0.0001332181640625
 10
0.063394161495512
 20
-0.3446978123558426
 10
0.0034459876673882
 20
-0.3546891746605314
  0
LWPOLYLINE
  5
7DE1B343D9D6E4
330
7DE1B343D9D7D0
100
AcDbEntity
  8
TEXT
100
AcDbPolyline
 90
        2
 70
     0
 43
0.0001332181640625
 10
0.0900377943080131
 20
-0.3846632615745906
 10
0.016767804073637
 20
-0.3746718992699054
  0
LWPOLYLINE
  5
7DE1B343D9D6E8
330
7DE1B343D9D7D0
100
AcDbEntity
  8
TEXT
100
AcDbPolyline
 90
        2
 70
     0
 43
0.0001332181640625
 10
0.063394161495512
 20
-0.3846632615745906
 10
0.0034459876673882
 20
-0.3746718992699054
  0
LWPOLYLINE
  5
7DE1B343D9D6EC
330
7DE1B343D9D7D0
100
AcDbEntity
  8
TEXT
100
AcDbPolyline
 90
        2
 70
     0
 43
0.0001332181640625
 10
0.063394161495512
 20
-0.4712550682152173
 10
0.0034459876673882
 20
-0.4113068943870917
  0
LWPOLYLINE
  5
7DE1B343D9D6F0
330
7DE1B343D9D7D0
100
AcDbEntity
  8
TEXT
100
AcDbPolyline
 90
        3
 70
     0
 43
0.0006660908203125
 10
-0.0231976451451128
 20
-0.4712550682152173
 10
0.063394161495512
 20
-0.4712550682152173
 10
0.063394161495512
 20
-0.3846632615745906
  0
LWPOLYLINE
  5
7DE1B343D9D6F5
330
7DE1B343D9D7D0
100
AcDbEntity
  8
TEXT
100
AcDbPolyline
 90
        3
 70
     0
 43
0.0006660908203125
 10
-0.0231976451451128
 20
-0.4978987010277183
 10
0.0900377943080131
 20
-0.4978987010277183
 10
0.0900377943080131
 20
-0.3846632615745906
  0
LWPOLYLINE
  5
7DE1B343D9D6FA
330
7DE1B343D9D7D0
100
AcDbEntity
  8
TEXT
100
AcDbPolyline
 90
        5
 70
     0
 43
0.0001332181640625
 10
-0.0531717320591738
 20
-0.4246287107933422
 10
-0.0531717320591738
 20
-0.4113068943870917
 10
-0.0898067271763619
 20
-0.4113068943870917
 10
-0.0898067271763619
 20
-0.3746718992699054
 10
-0.1031285435826124
 20
-0.3746718992699054
  0
LWPOLYLINE
  5
7DE1B343D9D701
330
7DE1B343D9D7D0
100
AcDbEntity
  8
TEXT
100
AcDbPolyline
 90
        2
 70
     0
 43
0.0006660908203125
 10
-0.0631630943638644
 20
-0.4712550682152173
 10
-0.0631630943638644
 20
-0.4978987010277183
  0
LWPOLYLINE
  5
7DE1B343D9D705
330
7DE1B343D9D7D0
100
AcDbEntity
  8
TEXT
100
AcDbPolyline
 90
        2
 70
     0
 43
0.0001332181640625
 10
-0.0631630943638644
 20
-0.4712550682152173
 10
-0.0531717320591738
 20
-0.4113068943870917
  0
LWPOLYLINE
  5
7DE1B343D9D709
330
7DE1B343D9D7D0
100
AcDbEntity
  8
TEXT
100
AcDbPolyline
 90
        2
 70
     0
 43
0.0001332181640625
 10
-0.0631630943638644
 20
-0.4978987010277183
 10
-0.0531717320591738
 20
-0.4246287107933422
  0
LWPOLYLINE
  5
7DE1B343D9D70D
330
7DE1B343D9D7D0
100
AcDbEntity
  8
TEXT
100
AcDbPolyline
 90
        5
 70
     0
 43
0.0001332181640625
 10
-0.1031285435826124
 20
-0.3546891746605314
 10
-0.0898067271763637
 20
-0.3546891746605314
 10
-0.0898067271763637
 20
-0.3180541795433416
 10
-0.0531717320591738
 20
-0.3180541795433416
 10
-0.0531717320591738
 20
-0.3047323631370946
  0
LWPOLYLINE
  5
7DE1B343D9D714
330
7DE1B343D9D7D0
100
AcDbEntity
  8
TEXT
100
AcDbPolyline
 90
        5
 70
     0
 43
0.0001332181640625
 10
-0.0331890074498016
 20
-0.3047323631370946
 10
-0.0331890074498016
 20
-0.3180541795433416
 10
0.0034459876673882
 20
-0.3180541795433416
 10
0.0034459876673882
 20
-0.3546891746605314
 10
0.016767804073637
 20
-0.3546891746605314
  0
LWPOLYLINE
  5
7DE1B343D9D71B
330
7DE1B343D9D7D0
100
AcDbEntity
  8
TEXT
100
AcDbPolyline
 90
        2
 70
     0
 43
0.0001332181640625
 10
-0.0231976451451128
 20
-0.4712550682152173
 10
-0.0331890074498016
 20
-0.4113068943870917
  0
LWPOLYLINE
  5
7DE1B343D9D71F
330
7DE1B343D9D7D0
100
AcDbEntity
  8
TEXT
100
AcDbPolyline
 90
        2
 70
     0
 43
0.0001332181640625
 10
-0.0331890074498016
 20
-0.4246287107933422
 10
-0.0231976451451128
 20
-0.4978987010277183
  0
LWPOLYLINE
  5
7DE1B343D9D723
330
7DE1B343D9D7D0
100
AcDbEntity
  8
TEXT
100
AcDbPolyline
 90
        2
 70
     0
 43
0.0006660908203125
 10
-0.0231976451451128
 20
-0.4712550682152173
 10
-0.0231976451451128
 20
-0.4978987010277183
  0
LWPOLYLINE
  5
7DE1B343D9D727
330
7DE1B343D9D7D0
100
AcDbEntity
  8
TEXT
100
AcDbPolyline
 90
        5
 70
     0
 43
0.0001332181640625
 10
0.016767804073637
 20
-0.3746718992699054
 10
0.0034459876673882
 20
-0.3746718992699054
 10
0.0034459876673882
 20
-0.4113068943870917
 10
-0.0331890074498016
 20
-0.4113068943870917
 10
-0.0331890074498016
 20
-0.4246287107933422
  0
LWPOLYLINE
  5
7DE1B343D9D72E
330
7DE1B343D9D7D0
100
AcDbEntity
  8
TEXT
100
AcDbPolyline
 90
        2
 70
     0
 43
0.0006660908203125
 10
0.063394161495512
 20
-0.3446978123558426
 10
0.0900377943080131
 20
-0.3446978123558426
  0
LWPOLYLINE
  5
7DE1B343D9D732
330
7DE1B343D9D7D0
100
AcDbEntity
  8
TEXT
100
AcDbPolyline
 90
        2
 70
     0
 43
0.0006660908203125
 10
0.063394161495512
 20
-0.3846632615745906
 10
0.0900377943080131
 20
-0.3846632615745906
  0
LINE
  5
7DE1B343D9D736
330
7DE1B343D9D7D0
100
AcDbEntity
  8
TEXT
100
AcDbLine
 10
0.3601519311560379
 20
-0.295739067559484
 30
0.0
 11
0.5270575851850092
 21
-0.295739067559484
 31
0.0
  0
LINE
  5
7DE1B343D9D737
330
7DE1B343D9D7D0
100
AcDbEntity
  8
TEXT
100
AcDbLine
 10
0.425752067400339
 20
-0.3315437891701118
 30
0.0
 11
0.3601519311560379
 21
-0.3315437891701118
 31
0.0
  0
LINE
  5
7DE1B343D9D738
330
7DE1B343D9D7D0
100
AcDbEntity
  8
TEXT
100
AcDbLine
 10
0.2728271415952863
 20
-0.4979354058912296
 30
0.0
 11
0.425752067400339
 21
-0.4979354058912296
 31
0.0
  0
LINE
  5
7DE1B343D9D739
330
7DE1B343D9D7D0
100
AcDbEntity
  8
TEXT
100
AcDbLine
 10
0.4306924413066187
 20
-0.4295783995577902
 30
0.0
 11
0.2728271415952845
 21
-0.4295783995577902
 31
0.0
  0
LINE
  5
7DE1B343D9D73A
330
7DE1B343D9D7D0
100
AcDbEntity
  8
TEXT
100
AcDbLine
 10
0.3549146010417898
 20
-0.3956372917957256
 30
0.0
 11
0.4306924413066187
 21
-0.3956372917957256
 31
0.0
  0
ARC
  5
7DE1B343D9D73B
330
7DE1B343D9D7D0
100
AcDbEntity
  8
TEXT
100
AcDbCircle
 10
0.3601519311560388
 20
-0.3136414283647961
 30
0.0
 40
0.017902360805315
100
AcDbArc
 50
90.0
 51
270.0
  0
LINE
  5
7DE1B343D9D73C
330
7DE1B343D9D7D0
100
AcDbEntity
  8
TEXT
100
AcDbLine
 10
0.2728271415952845
 20
-0.4295783995577902
 30
0.0
 11
0.2728271415952863
 21
-0.4979354058912296
 31
0.0
  0
LINE
  5
7DE1B343D9D73D
330
7DE1B343D9D7D0
100
AcDbEntity
  8
TEXT
100
AcDbLine
 10
0.5270575851850092
 20
-0.295739067559484
 30
0.0
 11
0.5270575851850092
 21
-0.4381430145531798
 31
0.0
  0
ARC
  5
7DE1B343D9D73E
330
7DE1B343D9D7D0
100
AcDbEntity
  8
TEXT
100
AcDbCircle
 10
0.4257520674003399
 20
-0.4147395975306725
 30
0.0
 40
0.0831958083605586
100
AcDbArc
 50
270.0
 51
90.0
  0
ARC
  5
7DE1B343D9D73F
330
7DE1B343D9D7D0
100
AcDbEntity
  8
TEXT
100
AcDbCircle
 10
0.4306924413066195
 20
-0.4126078456767562
 30
0.0
 40
0.0169705538810321
100
AcDbArc
 50
270.0
 51
90.0
  0
LWPOLYLINE
  5
7DE1B343D9D740
330
7DE1B343D9D7D0
100
AcDbEntity
  8
TEXT
100
AcDbPolyline
 90
        2
 70
     0
 43
0.0006660908203125
 10
-0.0631630943638644
 20
-0.258106005715216
 10
-0.0631630943638644
 20
-0.231462372902715
  0
LWPOLYLINE
  5
7DE1B343D9D744
330
7DE1B343D9D7D0
100
AcDbEntity
  8
TEXT
100
AcDbPolyline
 90
        2
 70
     0
 43
0.0006660908203125
 10
-0.0231976451451128
 20
-0.258106005715216
 10
-0.0231976451451128
 20
-0.231462372902715
  0
LINE
  5
7DE1B343D9D748
330
7DE1B343D9D7D0
100
AcDbEntity
  8
TEXT
100
AcDbLine
 10
0.5306463539403021
 20
-0.2314623729027185
 30
0.0
 11
0.3549146010417898
 21
-0.2314623729027185
 31
0.0
  0
LINE
  5
7DE1B343D9D749
330
7DE1B343D9D7D0
100
AcDbEntity
  8
TEXT
100
AcDbLine
 10
0.5306463539403021
 20
-0.1970744553085804
 30
0.0
 11
0.5306463539403021
 21
-0.2314623729027185
 31
0.0
  0
LINE
  5
7DE1B343D9D74A
330
7DE1B343D9D7D0
100
AcDbEntity
  8
TEXT
100
AcDbLine
 10
0.7211182459601544
 20
-0.3323343690158391
 30
0.0
 11
0.6624879249282165
 21
-0.2314623729027185
 31
0.0
  0
LINE
  5
7DE1B343D9D74B
330
7DE1B343D9D7D0
100
AcDbEntity
  8
TEXT
100
AcDbLine
 10
0.7798668087660199
 20
-0.2314623729027185
 30
0.0
 11
0.7211182459601544
 21
-0.3323343690158391
 31
0.0
  0
LINE
  5
7DE1B343D9D74C
330
7DE1B343D9D7D0
100
AcDbEntity
  8
TEXT
100
AcDbLine
 10
0.8767974341257611
 20
-0.4155475677882304
 30
0.0
 11
0.8767974341257611
 21
-0.163450895163908
 31
0.0
  0
LINE
  5
7DE1B343D9D74D
330
7DE1B343D9D7D0
100
AcDbEntity
  8
TEXT
100
AcDbLine
 10
0.9091092882634212
 20
-0.2314623729027185
 30
0.0
 11
0.9091092882634212
 21
-0.4323265796351268
 31
0.0
  0
LINE
  5
7DE1B343D9D74E
330
7DE1B343D9D7D0
100
AcDbEntity
  8
TEXT
100
AcDbLine
 10
0.9091092882634212
 20
-0.4323265796351268
 30
0.0
 11
0.8921156513788199
 21
-0.4323265796351268
 31
0.0
  0
LINE
  5
7DE1B343D9D74F
330
7DE1B343D9D7D0
100
AcDbEntity
  8
TEXT
100
AcDbLine
 10
0.8779370076219558
 20
-0.4979354058912296
 30
0.0
 11
0.9759403413213904
 21
-0.4979354058912296
 31
0.0
  0
LINE
  5
7DE1B343D9D750
330
7DE1B343D9D7D0
100
AcDbEntity
  8
TEXT
100
AcDbLine
 10
0.7115180089632
 20
-0.4779768997862166
 30
0.0
 11
0.8088177150566446
 21
-0.3136266888509485
 31
0.0
  0
ARC
  5
7DE1B343D9D751
330
7DE1B343D9D7D0
100
AcDbEntity
  8
TEXT
100
AcDbCircle
 10
0.6774744490509861
 20
-0.4583876836175338
 30
0.0
 40
0.0392772371940762
100
AcDbArc
 50
270.1604552698595
 51
330.0831797321295
  0
LINE
  5
7DE1B343D9D752
330
7DE1B343D9D7D0
100
AcDbEntity
  8
TEXT
100
AcDbLine
 10
0.5809441926651149
 20
-0.4979354058912296
 30
0.0
 11
0.6775844437401093
 21
-0.4976647667929473
 31
0.0
  0
LWPOLYLINE
  5
7DE1B343D9D753
330
7DE1B343D9D7D0
100
AcDbEntity
  8
TEXT
100
AcDbPolyline
 90
        6
 70
     1
 43
0.0
 10
0.6234679962402645
 20
-0.295739067559484
 10
0.5931514020200563
 20
-0.295739067559484
 10
0.5931514020200563
 20
-0.4188500656143784
 42
0.407328721240804
 10
0.6046950531815327
 20
-0.4306689802907644
 10
0.6653167522262635
 20
-0.4306689802907644
 10
0.6827820926335815
 20
-0.3978567512472853
  0
LINE
  5
7DE1B343D9D75B
330
7DE1B343D9D7D0
100
AcDbEntity
  8
TEXT
100
AcDbLine
 10
0.8088177150566446
 20
-0.3136266888509485
 30
0.0
 11
0.8088177150566446
 21
-0.4463840636763048
 31
0.0
  0
ARC
  5
7DE1B343D9D75C
330
7DE1B343D9D7D0
100
AcDbEntity
  8
TEXT
100
AcDbCircle
 10
0.8921156513788181
 20
-0.4169447733917014
 30
0.0
 40
0.0153818062434269
100
AcDbArc
 50
174.7883570302258
 51
270.0
  0
LWPOLYLINE
  5
7DE1B343D9D75D
330
7DE1B343D9D7D0
100
AcDbEntity
  8
TEXT
100
AcDbPolyline
 90
        2
 70
     0
 43
0.0
 10
0.8088177150566428
 20
-0.4463840636763013
 42
0.3318488747599744
 10
0.8779370076219558
 20
-0.4979354058912296
 42
-6.868794160588311
  0
LINE
  5
7DE1B343D9D761
330
7DE1B343D9D7D0
100
AcDbEntity
  8
TEXT
100
AcDbLine
 10
1.033329410310651
 20
-0.4979354058912296
 30
0.0
 11
1.100387457092491
 21
-0.4979354058912296
 31
0.0
  0
LINE
  5
7DE1B343D9D762
330
7DE1B343D9D7D0
100
AcDbEntity
  8
TEXT
100
AcDbLine
 10
1.033329410310651
 20
-0.3032928567255939
 30
0.0
 11
1.033329410310651
 21
-0.4979354058912296
 31
0.0
  0
LINE
  5
7DE1B343D9D763
330
7DE1B343D9D7D0
100
AcDbEntity
  8
TEXT
100
AcDbLine
 10
0.9759403413213904
 20
-0.295739067559484
 30
0.0
 11
1.025775621144538
 21
-0.295739067559484
 31
0.0
  0
LINE
  5
7DE1B343D9D764
330
7DE1B343D9D7D0
100
AcDbEntity
  8
TEXT
100
AcDbLine
 10
0.9759403413213904
 20
-0.4979354058912296
 30
0.0
 11
0.9759403413213904
 21
-0.295739067559484
 31
0.0
  0
LWPOLYLINE
  5
7DE1B343D9D765
330
7DE1B343D9D7D0
100
AcDbEntity
  8
TEXT
100
AcDbPolyline
 90
        2
 70
     0
 43
0.0
 10
1.025775621144536
 20
-0.295739067559484
 42
-0.4142135623731017
 10
1.033329410310649
 20
-0.3032928567255939
 42
-0.9999999999999998
  0
LINE
  5
7DE1B343D9D769
330
7DE1B343D9D7D0
100
AcDbEntity
  8
TEXT
100
AcDbLine
 10
1.231585621922221
 20
-0.295739067559484
 30
0.0
 11
1.231585621922221
 21
-0.3707914736336906
 31
0.0
  0
LINE
  5
7DE1B343D9D76A
330
7DE1B343D9D7D0
100
AcDbEntity
  8
TEXT
100
AcDbLine
 10
1.100387457092491
 20
-0.295739067559484
 30
0.0
 11
1.154521054013441
 21
-0.295739067559484
 31
0.0
  0
LINE
  5
7DE1B343D9D76B
330
7DE1B343D9D7D0
100
AcDbEntity
  8
TEXT
100
AcDbLine
 10
1.100387457092491
 20
-0.4979354058912296
 30
0.0
 11
1.100387457092491
 21
-0.295739067559484
 31
0.0
  0
LWPOLYLINE
  5
7DE1B343D9D76C
330
7DE1B343D9D7D0
100
AcDbEntity
  8
TEXT
100
AcDbPolyline
 90
        2
 70
     0
 43
0.0
 10
1.15452105401344
 20
-0.295739067559484
 42
-0.4142135623731017
 10
1.162074843179553
 20
-0.3032928567255939
 42
-0.9999999999999998
  0
LWPOLYLINE
  5
7DE1B343D9D770
330
7DE1B343D9D7D0
100
AcDbEntity
  8
TEXT
100
AcDbPolyline
 90
        4
 70
     0
 43
0.0
 10
1.162074843179553
 20
-0.3032928567255939
 10
1.162074843179553
 20
-0.4979354058912296
 10
1.230553126467411
 20
-0.4979354058912296
 10
1.230553126467411
 20
-0.4544444609407914
 42
-1.714843617202739
  0
LINE
  5
7DE1B343D9D776
330
7DE1B343D9D7D0
100
AcDbEntity
  8
TEXT
100
AcDbLine
 10
0.5906889587843092
 20
-0.2314623729027185
 30
0.0
 11
0.5906889587843092
 21
-0.1970744553085804
 31
0.0
  0
LINE
  5
7DE1B343D9D777
330
7DE1B343D9D7D0
100
AcDbEntity
  8
TEXT
100
AcDbLine
 10
0.6624879249282165
 20
-0.2314623729027185
 30
0.0
 11
0.5906889587843092
 21
-0.2314623729027185
 31
0.0
  0
LINE
  5
7DE1B343D9D778
330
7DE1B343D9D7D0
100
AcDbEntity
  8
TEXT
100
AcDbLine
 10
0.8099887215593961
 20
-0.2314623729027185
 30
0.0
 11
0.7798668087660199
 21
-0.2314623729027185
 31
0.0
  0
LINE
  5
7DE1B343D9D779
330
7DE1B343D9D7D0
100
AcDbEntity
  8
TEXT
100
AcDbLine
 10
0.8099887215593961
 20
-0.163450895163908
 30
0.0
 11
0.8099887215593961
 21
-0.2314623729027185
 31
0.0
  0
LINE
  5
7DE1B343D9D77A
330
7DE1B343D9D7D0
100
AcDbEntity
  8
TEXT
100
AcDbLine
 10
0.8767974341257611
 20
-0.163450895163908
 30
0.0
 11
0.8099887215593961
 21
-0.163450895163908
 31
0.0
  0
LWPOLYLINE
  5
7DE1B343D9D77B
330
7DE1B343D9D7D0
100
AcDbEntity
  8
TEXT
100
AcDbPolyline
 90
        3
 70
     0
 43
0.0
 10
1.197209193723763
 20
-0.231462372902715
 10
1.078909034907719
 20
-0.231462372902715
 10
1.078909034907719
 20
-0.2586298696636109
 42
-1.960274751411753
  0
LINE
  5
7DE1B343D9D780
330
7DE1B343D9D7D0
100
AcDbEntity
  8
TEXT
100
AcDbLine
 10
1.043127344194557
 20
-0.2314623729027185
 30
0.0
 11
0.9091092882634212
 21
-0.2314623729027185
 31
0.0
  0
LWPOLYLINE
  5
7DE1B343D9D781
330
7DE1B343D9D7D0
100
AcDbEntity
  8
TEXT
100
AcDbPolyline
 90
        2
 70
     0
 43
0.0
 10
1.043127344194557
 20
-0.231462372902715
 42
-0.3328679258950098
 10
1.078909034907719
 20
-0.2586298696636109
 42
6.772930709997214
  0
LINE
  5
7DE1B343D9D785
330
7DE1B343D9D7D0
100
AcDbEntity
  8
TEXT
100
AcDbLine
 10
1.23299088443693
 20
-0.2314623729027185
 30
0.0
 11
1.23299088443693
 21
-0.2597849186723624
 31
0.0
  0
LWPOLYLINE
  5
7DE1B343D9D786
330
7DE1B343D9D7D0
100
AcDbEntity
  8
TEXT
100
AcDbPolyline
 90
        2
 70
     0
 43
0.0
 10
1.197209193723763
 20
-0.231462372902715
 42
-0.3277054968067132
 10
1.232990884436928
 20
-0.2597849186723589
 42
6.667889725900311
  0
LINE
  5
7DE1B343D9D78A
330
7DE1B343D9D7D0
100
AcDbEntity
  8
TEXT
100
AcDbLine
 10
1.44678273252903
 20
-0.3366743514561459
 30
0.0
 11
1.403031961347128
 21
-0.2544240754600007
 31
0.0
  0
LINE
  5
7DE1B343D9D78B
330
7DE1B343D9D7D0
100
AcDbEntity
  8
TEXT
100
AcDbLine
 10
1.44678273252903
 20
-0.2314623729027185
 30
0.0
 11
1.44678273252903
 21
-0.3366743514561459
 31
0.0
  0
LINE
  5
7DE1B343D9D78C
330
7DE1B343D9D7D0
100
AcDbEntity
  8
TEXT
100
AcDbLine
 10
1.674466471467399
 20
-0.3073276993142566
 30
0.0
 11
1.674466471467399
 21
-0.1659981671351178
 31
0.0
  0
LINE
  5
7DE1B343D9D78D
330
7DE1B343D9D7D0
100
AcDbEntity
  8
TEXT
100
AcDbLine
 10
1.721564630023383
 20
-0.2314623729027185
 30
0.0
 11
1.674466471467399
 21
-0.3073276993142566
 31
0.0
  0
LINE
  5
7DE1B343D9D78E
330
7DE1B343D9D7D0
100
AcDbEntity
  8
TEXT
100
AcDbLine
 10
1.731999346787306
 20
-0.3413556158436921
 30
0.0
 11
1.796556462753011
 21
-0.2314623729027185
 31
0.0
  0
LINE
  5
7DE1B343D9D78F
330
7DE1B343D9D7D0
100
AcDbEntity
  8
TEXT
100
AcDbLine
 10
1.610631480244626
 20
-0.4979354058912296
 30
0.0
 11
1.675009664563246
 21
-0.4979354058912296
 31
0.0
  0
LWPOLYLINE
  5
7DE1B343D9D790
330
7DE1B343D9D7D0
100
AcDbEntity
  8
TEXT
100
AcDbPolyline
 90
        2
 70
     0
 43
0.0
 10
1.450722409834068
 20
-0.4544444609407914
 42
-0.2901071551932486
 10
1.407646476966423
 20
-0.4979354058912296
 42
-5.328517124445184
  0
ARC
  5
7DE1B343D9D794
330
7DE1B343D9D7D0
100
AcDbEntity
  8
TEXT
100
AcDbCircle
 10
1.338791895309509
 20
-0.3240984425594813
 30
0.0
 40
0.028359375
100
AcDbArc
 50
25.78218179591245
 51
90.0
  0
LINE
  5
7DE1B343D9D795
330
7DE1B343D9D7D0
100
AcDbEntity
  8
TEXT
100
AcDbLine
 10
1.374592970613632
 20
-0.3330140410216162
 30
0.0
 11
1.364328210200067
 21
-0.3117635014489219
 31
0.0
  0
LINE
  5
7DE1B343D9D796
330
7DE1B343D9D7D0
100
AcDbEntity
  8
TEXT
100
AcDbLine
 10
1.292304980830248
 20
-0.3330140410216162
 30
0.0
 11
1.374592970613632
 21
-0.3330140410216162
 31
0.0
  0
LWPOLYLINE
  5
7DE1B343D9D797
330
7DE1B343D9D7D0
100
AcDbEntity
  8
TEXT
100
AcDbPolyline
 90
        4
 70
     1
 43
0.0
 10
1.387524011896531
 20
-0.3949714279072043
 10
1.298863693236672
 20
-0.3949714279072043
 42
0.9999999999999998
 10
1.298863693236672
 20
-0.4373699684110651
 10
1.387524011896531
 20
-0.4373699684110651
 42
1.0
  0
LWPOLYLINE
  5
7DE1B343D9D79D
330
7DE1B343D9D7D0
100
AcDbEntity
  8
TEXT
100
AcDbPolyline
 90
        2
 70
     0
 43
0.0
 10
1.273629059335046
 20
-0.4979354058912296
 10
1.407646476966423
 20
-0.4979354058912296
 42
0.9999999999999998
  0
LINE
  5
7DE1B343D9D7A1
330
7DE1B343D9D7D0
100
AcDbEntity
  8
TEXT
100
AcDbLine
 10
1.533983498952063
 20
-0.295739067559484
 30
0.0
 11
1.61063148024462
 21
-0.295739067559484
 31
0.0
  0
LINE
  5
7DE1B343D9D7A2
330
7DE1B343D9D7D0
100
AcDbEntity
  8
TEXT
100
AcDbLine
 10
1.61063148024462
 20
-0.295739067559484
 30
0.0
 11
1.610631480244626
 21
-0.4979354058912296
 31
0.0
  0
ARC
  5
7DE1B343D9D7A3
330
7DE1B343D9D7D0
100
AcDbEntity
  8
TEXT
100
AcDbCircle
 10
1.533983498952061
 20
-0.3206449428421467
 30
0.0
 40
0.0249058752826653
100
AcDbArc
 50
89.99971217465335
 51
179.9999999999985
  0
LINE
  5
7DE1B343D9D7A4
330
7DE1B343D9D7D0
100
AcDbEntity
  8
TEXT
100
AcDbLine
 10
1.509077623669403
 20
-0.4979354058912296
 30
0.0
 11
1.509077623669398
 21
-0.3206449004597611
 31
0.0
  0
LWPOLYLINE
  5
7DE1B343D9D7A5
330
7DE1B343D9D7D0
100
AcDbEntity
  8
TEXT
100
AcDbPolyline
 90
        2
 70
     0
 43
0.0
 10
1.450722409834068
 20
-0.4979354058912296
 10
1.509077623669402
 20
-0.4979354058912296
  0
LWPOLYLINE
  5
7DE1B343D9D7A9
330
7DE1B343D9D7D0
100
AcDbEntity
  8
TEXT
100
AcDbPolyline
 90
        2
 70
     0
 43
0.0
 10
1.450722409834068
 20
-0.4544444609407914
 10
1.450722409834068
 20
-0.4979354058912296
  0
LINE
  5
7DE1B343D9D7AD
330
7DE1B343D9D7D0
100
AcDbEntity
  8
TEXT
100
AcDbLine
 10
1.827491570150917
 20
-0.4979354058912296
 30
0.0
 11
1.731999346787306
 21
-0.3413556158436921
 31
0.0
  0
LINE
  5
7DE1B343D9D7AE
330
7DE1B343D9D7D0
100
AcDbEntity
  8
TEXT
100
AcDbLine
 10
1.750913197774711
 20
-0.4979354058912296
 30
0.0
 11
1.827491570150917
 21
-0.4979354058912296
 31
0.0
  0
LINE
  5
7DE1B343D9D7AF
330
7DE1B343D9D7D0
100
AcDbEntity
  8
TEXT
100
AcDbLine
 10
1.675009664563246
 20
-0.3663558374150493
 30
0.0
 11
1.750913197774711
 21
-0.4979354058912296
 31
0.0
  0
LINE
  5
7DE1B343D9D7B0
330
7DE1B343D9D7D0
100
AcDbEntity
  8
TEXT
100
AcDbLine
 10
1.675009664563246
 20
-0.4979354058912296
 30
0.0
 11
1.675009664563246
 21
-0.3663558374150493
 31
0.0
  0
LINE
  5
7DE1B343D9D7B1
330
7DE1B343D9D7D0
100
AcDbEntity
  8
TEXT
100
AcDbLine
 10
1.674466471467399
 20
-0.1659981671351178
 30
0.0
 11
1.606151592918125
 21
-0.1659981671351178
 31
0.0
  0
ARC
  5
7DE1B343D9D7B2
330
7DE1B343D9D7D0
100
AcDbEntity
  8
TEXT
100
AcDbCircle
 10
1.365795853876919
 20
-0.2730459400236209
 30
0.0
 40
0.0416329381542859
100
AcDbArc
 50
26.56974201007528
 51
87.20939649401342
  0
LINE
  5
7DE1B343D9D7B3
330
7DE1B343D9D7D0
100
AcDbEntity
  8
TEXT
100
AcDbLine
 10
1.510679638828531
 20
-0.2314623729027185
 30
0.0
 11
1.44678273252903
 21
-0.2314623729027185
 31
0.0
  0
LINE
  5
7DE1B343D9D7B4
330
7DE1B343D9D7D0
100
AcDbEntity
  8
TEXT
100
AcDbLine
 10
1.510679638828531
 20
-0.2590100227635932
 30
0.0
 11
1.510679638828531
 21
-0.2314623729027185
 31
0.0
  0
ARC
  5
7DE1B343D9D7B5
330
7DE1B343D9D7D0
100
AcDbEntity
  8
TEXT
100
AcDbCircle
 10
1.541872455891638
 20
-0.2627081001849834
 30
0.0
 40
0.0314112657011332
100
AcDbArc
 50
95.88484768694724
 51
173.2388340632136
  0
LINE
  5
7DE1B343D9D7B6
330
7DE1B343D9D7D0
100
AcDbEntity
  8
TEXT
100
AcDbLine
 10
1.60615159291812
 20
-0.2314623729027185
 30
0.0
 11
1.538651875268604
 21
-0.2314623729027185
 31
0.0
  0
LINE
  5
7DE1B343D9D7B7
330
7DE1B343D9D7D0
100
AcDbEntity
  8
TEXT
100
AcDbLine
 10
1.606151592918125
 20
-0.1659981671351178
 30
0.0
 11
1.60615159291812
 21
-0.2314623729027185
 31
0.0
  0
LINE
  5
7DE1B343D9D7B8
330
7DE1B343D9D7D0
100
AcDbEntity
  8
TEXT
100
AcDbLine
 10
1.796556462753011
 20
-0.2314623729027185
 30
0.0
 11
1.721564630023385
 21
-0.2314623729027185
 31
0.0
  0
ENDSEC
  0
SECTION
  2
OBJECTS
  0
DICTIONARY
  5
7DE1B343D9D7C4
330
0
100
AcDbDictionary
  3
ACAD_GROUP
350
7DE1B343D9D7C5
  3
ACAD_LAYOUT
350
7DE1B343D9D7EA
  3
ACAD_MLINESTYLE
350
7DE1B343D9D7C6
  3
ACAD_PLOTSETTINGS
350
7DE1B343D9D7EB
  3
ACAD_PLOTSTYLENAME
350
7DE1B343D9D7E8
  3
ACDBHEADERROUNDTRIPXREC
350
7DE1B343D9D7F5
  3
ACDBVARIABLEDICTIONARY
350
7DE1B343D9D7F2
  0
DICTIONARY
  5
7DE1B343D9D817
330
7DE1B343D9D7D0
100
AcDbDictionary
280
     1
  3
ACAD_LAYOUTSELFREF
360
7DE1B343D9D818
  0
DICTIONARY
  5
7DE1B343D9D815
330
7DE1B343D9D7CD
100
AcDbDictionary
280
     1
  3
ACAD_LAYOUTSELFREF
360
7DE1B343D9D816
  0
DICTIONARY
  5
7DE1B343D9D7C5
102
{ACAD_REACTORS
330
7DE1B343D9D7C4
102
}
330
7DE1B343D9D7C4
100
AcDbDictionary
  0
DICTIONARY
  5
7DE1B343D9D7EA
102
{ACAD_REACTORS
330
7DE1B343D9D7C4
102
}
330
7DE1B343D9D7C4
100
AcDbDictionary
  0
DICTIONARY
  5
7DE1B343D9D7C6
102
{ACAD_REACTORS
330
7DE1B343D9D7C4
102
}
330
7DE1B343D9D7C4
100
AcDbDictionary
  3
STANDARD
350
7DE1B343D9D7D3
  0
DICTIONARY
  5
7DE1B343D9D7EB
102
{ACAD_REACTORS
330
7DE1B343D9D7C4
102
}
330
7DE1B343D9D7C4
100
AcDbDictionary
  0
ACDBDICTIONARYWDFLT
  5
7DE1B343D9D7E8
102
{ACAD_REACTORS
330
7DE1B343D9D7C4
102
}
330
7DE1B343D9D7C4
100
AcDbDictionary
281
     1
  3
Normal
350
7DE1B343D9D7E9
100
AcDbDictionaryWithDefault
340
7DE1B343D9D7E9
  0
DICTIONARY
  5
7DE1B343D9D7F5
102
{ACAD_REACTORS
330
7DE1B343D9D7C4
102
}
330
7DE1B343D9D7C4
100
AcDbDictionary
  3
CEPSNTYPE
350
7DE1B343D9D7FF
  3
FINGERPRINTGUID
350
7DE1B343D9D800
  3
HYPERLINKBASE
350
7DE1B343D9D7F8
  3
INSUNITS
350
7DE1B343D9D7FE
  3
LAYOUTDICT
350
7DE1B343D9D7FA
  3
LWETCUNION
350
7DE1B343D9D7FD
  3
PLOTSETDICT
350
7DE1B343D9D7FB
  3
PLOTSTYLNAMDICT
350
7DE1B343D9D7FC
  3
PSVPSCALE
350
7DE1B343D9D802
  3
PUCSBASE
350
7DE1B343D9D805
  3
PUCSORGBACK
350
7DE1B343D9D80B
  3
PUCSORGBOTTOM
350
7DE1B343D9D807
  3
PUCSORGFRONT
350
7DE1B343D9D80A
  3
PUCSORGLEFT
350
7DE1B343D9D808
  3
PUCSORGRIGHT
350
7DE1B343D9D809
  3
PUCSORGTOP
350
7DE1B343D9D806
  3
PUCSORTHOREF
350
7DE1B343D9D803
  3
PUCSORTHOVIEW
350
7DE1B343D9D804
  3
STYLESHEET
350
7DE1B343D9D7F9
  3
TSTACKALIGN
350
7DE1B343D9D7F6
  3
TSTACKSIZE
350
7DE1B343D9D7F7
  3
UCSBASE
350
7DE1B343D9D80E
  3
UCSORGBACK
350
7DE1B343D9D814
  3
UCSORGBOTTOM
350
7DE1B343D9D810
  3
UCSORGFRONT
350
7DE1B343D9D813
  3
UCSORGLEFT
350
7DE1B343D9D811
  3
UCSORGRIGHT
350
7DE1B343D9D812
  3
UCSORGTOP
350
7DE1B343D9D80F
  3
UCSORTHOREF
350
7DE1B343D9D80C
  3
UCSORTHOVIEW
350
7DE1B343D9D80D
  3
VERSIONGUID
350
7DE1B343D9D801
  0
DICTIONARY
  5
7DE1B343D9D7F2
102
{ACAD_REACTORS
330
7DE1B343D9D7C4
102
}
330
7DE1B343D9D7C4
100
AcDbDictionary
  3
DIMASSOC
350
7DE1B343D9D7F3
  0
XRECORD
  5
7DE1B343D9D818
102
{ACAD_REACTORS
330
7DE1B343D9D817
102
}
330
7DE1B343D9D817
100
AcDbXrecord
340
7DE1B343D9D7D0
  0
XRECORD
  5
7DE1B343D9D816
102
{ACAD_REACTORS
330
7DE1B343D9D815
102
}
330
7DE1B343D9D815
100
AcDbXrecord
340
7DE1B343D9D7CD
  0
MLINESTYLE
  5
7DE1B343D9D7D3
102
{ACAD_REACTORS
330
7DE1B343D9D7C6
102
}
330
7DE1B343D9D7C6
100
AcDbMlineStyle
  2
STANDARD
 70
     0
  3

 62
     0
 51
90.0
 52
90.0
 71
     2
 49
0.5
 62
   256
  6
BYLAYER
 49
-0.5
 62
   256
  6
BYLAYER
  0
ACDBPLACEHOLDER
  5
7DE1B343D9D7E9
102
{ACAD_REACTORS
330
7DE1B343D9D7E8
102
}
330
7DE1B343D9D7E8
100
AcDbPlaceHolder
280
     0
  0
XRECORD
  5
7DE1B343D9D7FF
102
{ACAD_REACTORS
330
7DE1B343D9D7F5
102
}
330
7DE1B343D9D7F5
100
AcDbXrecord
 90
        0
  0
XRECORD
  5
7DE1B343D9D800
102
{ACAD_REACTORS
330
7DE1B343D9D7F5
102
}
330
7DE1B343D9D7F5
100
AcDbXrecord
  1
{F0355E70-8DB3-11D6-88E6-0090279574E7}
  0
XRECORD
  5
7DE1B343D9D7F8
102
{ACAD_REACTORS
330
7DE1B343D9D7F5
102
}
330
7DE1B343D9D7F5
100
AcDbXrecord
  1

  0
XRECORD
  5
7DE1B343D9D7FE
102
{ACAD_REACTORS
330
7DE1B343D9D7F5
102
}
330
7DE1B343D9D7F5
100
AcDbXrecord
 90
        0
  0
XRECORD
  5
7DE1B343D9D7FA
102
{ACAD_REACTORS
330
7DE1B343D9D7F5
102
}
330
7DE1B343D9D7F5
100
AcDbXrecord
340
7DE1B343D9D7EA
  0
XRECORD
  5
7DE1B343D9D7FD
102
{ACAD_REACTORS
330
7DE1B343D9D7F5
102
}
330
7DE1B343D9D7F5
100
AcDbXrecord
 90
    14877
  0
XRECORD
  5
7DE1B343D9D7FB
102
{ACAD_REACTORS
330
7DE1B343D9D7F5
102
}
330
7DE1B343D9D7F5
100
AcDbXrecord
340
7DE1B343D9D7EB
  0
XRECORD
  5
7DE1B343D9D7FC
102
{ACAD_REACTORS
330
7DE1B343D9D7F5
102
}
330
7DE1B343D9D7F5
100
AcDbXrecord
340
7DE1B343D9D7E8
  0
XRECORD
  5
7DE1B343D9D802
102
{ACAD_REACTORS
330
7DE1B343D9D7F5
102
}
330
7DE1B343D9D7F5
100
AcDbXrecord
 40
0.0
  0
XRECORD
  5
7DE1B343D9D805
102
{ACAD_REACTORS
330
7DE1B343D9D7F5
102
}
330
7DE1B343D9D7F5
100
AcDbXrecord
340
0
  0
XRECORD
  5
7DE1B343D9D80B
102
{ACAD_REACTORS
330
7DE1B343D9D7F5
102
}
330
7DE1B343D9D7F5
100
AcDbXrecord
 10
0.0
 20
0.0
 30
0.0
  0
XRECORD
  5
7DE1B343D9D807
102
{ACAD_REACTORS
330
7DE1B343D9D7F5
102
}
330
7DE1B343D9D7F5
100
AcDbXrecord
 10
0.0
 20
0.0
 30
0.0
  0
XRECORD
  5
7DE1B343D9D80A
102
{ACAD_REACTORS
330
7DE1B343D9D7F5
102
}
330
7DE1B343D9D7F5
100
AcDbXrecord
 10
0.0
 20
0.0
 30
0.0
  0
XRECORD
  5
7DE1B343D9D808
102
{ACAD_REACTORS
330
7DE1B343D9D7F5
102
}
330
7DE1B343D9D7F5
100
AcDbXrecord
 10
0.0
 20
0.0
 30
0.0
  0
XRECORD
  5
7DE1B343D9D809
102
{ACAD_REACTORS
330
7DE1B343D9D7F5
102
}
330
7DE1B343D9D7F5
100
AcDbXrecord
 10
0.0
 20
0.0
 30
0.0
  0
XRECORD
  5
7DE1B343D9D806
102
{ACAD_REACTORS
330
7DE1B343D9D7F5
102
}
330
7DE1B343D9D7F5
100
AcDbXrecord
 10
0.0
 20
0.0
 30
0.0
  0
XRECORD
  5
7DE1B343D9D803
102
{ACAD_REACTORS
330
7DE1B343D9D7F5
102
}
330
7DE1B343D9D7F5
100
AcDbXrecord
340
0
  0
XRECORD
  5
7DE1B343D9D804
102
{ACAD_REACTORS
330
7DE1B343D9D7F5
102
}
330
7DE1B343D9D7F5
100
AcDbXrecord
 70
     0
  0
XRECORD
  5
7DE1B343D9D7F9
102
{ACAD_REACTORS
330
7DE1B343D9D7F5
102
}
330
7DE1B343D9D7F5
100
AcDbXrecord
  1

  0
XRECORD
  5
7DE1B343D9D7F6
102
{ACAD_REACTORS
330
7DE1B343D9D7F5
102
}
330
7DE1B343D9D7F5
100
AcDbXrecord
 90
        1
  0
XRECORD
  5
7DE1B343D9D7F7
102
{ACAD_REACTORS
330
7DE1B343D9D7F5
102
}
330
7DE1B343D9D7F5
100
AcDbXrecord
 90
       70
  0
XRECORD
  5
7DE1B343D9D80E
102
{ACAD_REACTORS
330
7DE1B343D9D7F5
102
}
330
7DE1B343D9D7F5
100
AcDbXrecord
340
0
  0
XRECORD
  5
7DE1B343D9D814
102
{ACAD_REACTORS
330
7DE1B343D9D7F5
102
}
330
7DE1B343D9D7F5
100
AcDbXrecord
 10
0.0
 20
0.0
 30
0.0
  0
XRECORD
  5
7DE1B343D9D810
102
{ACAD_REACTORS
330
7DE1B343D9D7F5
102
}
330
7DE1B343D9D7F5
100
AcDbXrecord
 10
0.0
 20
0.0
 30
0.0
  0
XRECORD
  5
7DE1B343D9D813
102
{ACAD_REACTORS
330
7DE1B343D9D7F5
102
}
330
7DE1B343D9D7F5
100
AcDbXrecord
 10
0.0
 20
0.0
 30
0.0
  0
XRECORD
  5
7DE1B343D9D811
102
{ACAD_REACTORS
330
7DE1B343D9D7F5
102
}
330
7DE1B343D9D7F5
100
AcDbXrecord
 10
0.0
 20
0.0
 30
0.0
  0
XRECORD
  5
7DE1B343D9D812
102
{ACAD_REACTORS
330
7DE1B343D9D7F5
102
}
330
7DE1B343D9D7F5
100
AcDbXrecord
 10
0.0
 20
0.0
 30
0.0
  0
XRECORD
  5
7DE1B343D9D80F
102
{ACAD_REACTORS
330
7DE1B343D9D7F5
102
}
330
7DE1B343D9D7F5
100
AcDbXrecord
 10
0.0
 20
0.0
 30
0.0
  0
XRECORD
  5
7DE1B343D9D80C
102
{ACAD_REACTORS
330
7DE1B343D9D7F5
102
}
330
7DE1B343D9D7F5
100
AcDbXrecord
340
0
  0
XRECORD
  5
7DE1B343D9D80D
102
{ACAD_REACTORS
330
7DE1B343D9D7F5
102
}
330
7DE1B343D9D7F5
100
AcDbXrecord
 70
     0
  0
XRECORD
  5
7DE1B343D9D801
102
{ACAD_REACTORS
330
7DE1B343D9D7F5
102
}
330
7DE1B343D9D7F5
100
AcDbXrecord
  1
{F0355E72-8DB3-11D6-88E6-0090279574E7}
  0
DICTIONARYVAR
  5
7DE1B343D9D7F3
102
{ACAD_REACTORS
330
7DE1B343D9D7F2
102
}
330
7DE1B343D9D7F2
100
DictionaryVariables
280
     0
  1
1
  0
ENDSEC
  0
EOF
