  0
SECTION
  2
HEADER
  9
$ACADVER
  1
AC1014
  9
$ACADMAINTVER
 70
     9
  9
$DWGCODEPAGE
  3
ANSI_1252
  9
$INSBASE
 10
1.6875
 20
1.390625
 30
0.0
  9
$EXTMIN
 10
-0.0961662981643097
 20
-0.593701191963956
 30
0.0
  9
$EXTMAX
 10
3.389053023582818
 20
2.451959322245949
 30
0.0
  9
$LIMMIN
 10
0.0
 20
0.0
  9
$LIMMAX
 10
18.0
 20
12.0
  9
$ORTHOMODE
 70
     1
  9
$REGENMODE
 70
     1
  9
$FILLMODE
 70
     1
  9
$QTEXTMODE
 70
     0
  9
$MIRRTEXT
 70
     0
  9
$DRAGMODE
 70
     2
  9
$LTSCALE
 40
1.0
  9
$OSMODE
 70
    39
  9
$ATTMODE
 70
     1
  9
$TEXTSIZE
 40
0.125
  9
$TRACEWID
 40
0.05
  9
$TEXTSTYLE
  7
ROMANS
  9
$CLAYER
  8
0
  9
$CELTYPE
  6
BYLAYER
  9
$CECOLOR
 62
   256
  9
$CELTSCALE
 40
1.0
  9
$DELOBJ
 70
     1
  9
$DISPSILH
 70
     1
  9
$DIMSCALE
 40
1.0
  9
$DIMASZ
 40
0.125
  9
$DIMEXO
 40
0.125
  9
$DIMDLI
 40
0.375
  9
$DIMRND
 40
0.0
  9
$DIMDLE
 40
0.0
  9
$DIMEXE
 40
0.125
  9
$DIMTP
 40
0.0
  9
$DIMTM
 40
0.0
  9
$DIMTXT
 40
0.125
  9
$DIMCEN
 40
-0.125
  9
$DIMTSZ
 40
0.0
  9
$DIMTOL
 70
     0
  9
$DIMLIM
 70
     0
  9
$DIMTIH
 70
     1
  9
$DIMTOH
 70
     1
  9
$DIMSE1
 70
     0
  9
$DIMSE2
 70
     0
  9
$DIMTAD
 70
     0
  9
$DIMZIN
 70
     4
  9
$DIMBLK
  1

  9
$DIMASO
 70
     1
  9
$DIMSHO
 70
     1
  9
$DIMPOST
  1

  9
$DIMAPOST
  1

  9
$DIMALT
 70
     0
  9
$DIMALTD
 70
     2
  9
$DIMALTF
 40
25.4
  9
$DIMLFAC
 40
1.0
  9
$DIMTOFL
 70
     0
  9
$DIMTVP
 40
0.0
  9
$DIMTIX
 70
     1
  9
$DIMSOXD
 70
     0
  9
$DIMSAH
 70
     0
  9
$DIMBLK1
  1

  9
$DIMBLK2
  1

  9
$DIMSTYLE
  2
STANDARD
  9
$DIMCLRD
 70
     0
  9
$DIMCLRE
 70
     0
  9
$DIMCLRT
 70
     0
  9
$DIMTFAC
 40
1.0
  9
$DIMGAP
 40
0.09
  9
$DIMJUST
 70
     0
  9
$DIMSD1
 70
     0
  9
$DIMSD2
 70
     0
  9
$DIMTOLJ
 70
     1
  9
$DIMTZIN
 70
     4
  9
$DIMALTZ
 70
     0
  9
$DIMALTTZ
 70
     0
  9
$DIMFIT
 70
     3
  9
$DIMUPT
 70
     0
  9
$DIMUNIT
 70
     2
  9
$DIMDEC
 70
     3
  9
$DIMTDEC
 70
     3
  9
$DIMALTU
 70
     2
  9
$DIMALTTD
 70
     2
  9
$DIMTXSTY
  7
ROMANS
  9
$DIMAUNIT
 70
     0
  9
$LUNITS
 70
     2
  9
$LUPREC
 70
     3
  9
$SKETCHINC
 40
0.1
  9
$FILLETRAD
 40
0.03125
  9
$AUNITS
 70
     0
  9
$AUPREC
 70
     0
  9
$MENU
  1
ACAD
  9
$ELEVATION
 40
0.0
  9
$PELEVATION
 40
0.0
  9
$THICKNESS
 40
0.0
  9
$LIMCHECK
 70
     0
  9
$BLIPMODE
 70
     0
  9
$CHAMFERA
 40
0.0
  9
$CHAMFERB
 40
0.0
  9
$CHAMFERC
 40
0.0
  9
$CHAMFERD
 40
0.0
  9
$SKPOLY
 70
     0
  9
$TDCREATE
 40
2448993.557236921
  9
$TDUPDATE
 40
2452458.295112754
  9
$TDINDWG
 40
0.0006762847
  9
$TDUSRTIMER
 40
0.0006762847
  9
$USRTIMER
 70
     1
  9
$ANGBASE
 50
0.0
  9
$ANGDIR
 70
     0
  9
$PDMODE
 70
     0
  9
$PDSIZE
 40
0.0
  9
$PLINEWID
 40
0.0
  9
$COORDS
 70
     2
  9
$SPLFRAME
 70
     0
  9
$SPLINETYPE
 70
     6
  9
$SPLINESEGS
 70
     8
  9
$ATTDIA
 70
     0
  9
$ATTREQ
 70
     1
  9
$HANDLING
 70
 22529
  9
$HANDSEED
  5
3EF0D9A1ECF3C5
  9
$SURFTAB1
 70
     6
  9
$SURFTAB2
 70
     6
  9
$SURFTYPE
 70
     6
  9
$SURFU
 70
     6
  9
$SURFV
 70
     6
  9
$UCSNAME
  2

  9
$UCSORG
 10
0.0
 20
0.0
 30
0.0
  9
$UCSXDIR
 10
1.0
 20
0.0
 30
0.0
  9
$UCSYDIR
 10
0.0
 20
1.0
 30
0.0
  9
$PUCSNAME
  2

  9
$PUCSORG
 10
0.0
 20
0.0
 30
0.0
  9
$PUCSXDIR
 10
1.0
 20
0.0
 30
0.0
  9
$PUCSYDIR
 10
0.0
 20
1.0
 30
0.0
  9
$USERI1
 70
     0
  9
$USERI2
 70
     0
  9
$USERI3
 70
     0
  9
$USERI4
 70
     0
  9
$USERI5
 70
     0
  9
$USERR1
 40
0.0
  9
$USERR2
 40
0.0
  9
$USERR3
 40
0.0
  9
$USERR4
 40
0.0
  9
$USERR5
 40
0.0
  9
$WORLDVIEW
 70
     1
  9
$SHADEDGE
 70
     3
  9
$SHADEDIF
 70
    70
  9
$TILEMODE
 70
     1
  9
$MAXACTVP
 70
    16
  9
$PINSBASE
 10
0.9962788024097058
 20
50.00000000000001
 30
1.746951229944022
  9
$PLIMCHECK
 70
     0
  9
$PEXTMIN
 10
1.000000000000000E+20
 20
1.000000000000000E+20
 30
1.000000000000000E+20
  9
$PEXTMAX
 10
-1.000000000000000E+20
 20
-1.000000000000000E+20
 30
-1.000000000000000E+20
  9
$PLIMMIN
 10
0.0
 20
0.0
  9
$PLIMMAX
 10
12.0
 20
9.0
  9
$UNITMODE
 70
     0
  9
$VISRETAIN
 70
     0
  9
$PLINEGEN
 70
     1
  9
$PSLTSCALE
 70
     0
  9
$TREEDEPTH
 70
  3020
  9
$PICKSTYLE
 70
     1
  9
$CMLSTYLE
  2
STANDARD
  9
$CMLJUST
 70
     0
  9
$CMLSCALE
 40
1.0
  9
$PROXYGRAPHICS
 70
     1
  9
$MEASUREMENT
 70
     0
  0
ENDSEC
  0
SECTION
  2
CLASSES
  0
CLASS
  1
LWPOLYLINE
  2
AcDbPolyline
  3
AutoCAD 2000
 90
        0
280
     0
281
     1
  0
CLASS
  1
ACDBDICTIONARYWDFLT
  2
AcDbDictionaryWithDefault
  3
AutoCAD 2000
 90
        0
280
     0
281
     0
  0
CLASS
  1
ACDBPLACEHOLDER
  2
AcDbPlaceHolder
  3
AutoCAD 2000
 90
        0
280
     0
281
     0
  0
CLASS
  1
LAYOUT
  2
AcDbLayout
  3
AutoCAD 2000
 90
        0
280
     0
281
     0
  0
CLASS
  1
DICTIONARYVAR
  2
AcDbDictionaryVar
  3
AutoCAD 2000
 90
        0
280
     0
281
     0
  0
CLASS
  1
LONG_TRANSACTION
  2
AcDbLongTransaction
  3
AutoCAD 2000
 90
        0
280
     0
281
     0
  0
CLASS
  1
LWPOLYLINE
  2
AcDbPolyline
  3
AutoCAD 2000
 90
        0
280
     0
281
     1
  0
CLASS
  1
HATCH
  2
AcDbHatch
  3
AutoCAD 2000
 90
        0
280
     0
281
     1
  0
CLASS
  1
XRECORD
  2
AcDbXrecord
  3
AutoCAD 2000
 90
        0
280
     0
281
     0
  0
ENDSEC
  0
SECTION
  2
TABLES
  0
TABLE
  2
VPORT
  5
3EF0D9A1ECF36C
330
0
100
AcDbSymbolTable
 70
     2
  0
VPORT
  5
3EF0D9A1ECF3A0
330
3EF0D9A1ECF36C
100
AcDbSymbolTableRecord
100
AcDbViewportTableRecord
  2
*ACTIVE
 70
     0
 10
0.0
 20
0.0
 11
1.0
 21
1.0
 12
6.131220344508721
 22
0.9292996068998887
 13
0.0
 23
0.0
 14
0.015625
 24
0.015625
 15
0.0
 25
0.0
 16
0.0
 26
0.0
 36
1.0
 17
0.0
 27
0.0
 37
0.0
 40
3.439609848751488
 41
4.320930232558139
 42
50.0
 43
0.0
 44
0.0
 50
0.0
 51
0.0
 71
     0
 72
  2000
 73
     1
 74
     0
 75
     1
 76
     0
 77
     0
 78
     0
  0
ENDTAB
  0
TABLE
  2
LTYPE
  5
3EF0D9A1ECF369
330
0
100
AcDbSymbolTable
 70
     1
  0
LTYPE
  5
3EF0D9A1ECF376
330
3EF0D9A1ECF369
100
AcDbSymbolTableRecord
100
AcDbLinetypeTableRecord
  2
BYBLOCK
 70
     0
  3

 72
    65
 73
     0
 40
0.0
  0
LTYPE
  5
3EF0D9A1ECF377
330
3EF0D9A1ECF369
100
AcDbSymbolTableRecord
100
AcDbLinetypeTableRecord
  2
BYLAYER
 70
     0
  3

 72
    65
 73
     0
 40
0.0
  0
LTYPE
  5
3EF0D9A1ECF378
330
3EF0D9A1ECF369
100
AcDbSymbolTableRecord
100
AcDbLinetypeTableRecord
  2
CONTINUOUS
 70
     0
  3
Solid line
 72
    65
 73
     0
 40
0.0
  0
ENDTAB
  0
TABLE
  2
LAYER
  5
3EF0D9A1ECF366
330
0
100
AcDbSymbolTable
 70
     2
  0
LAYER
  5
3EF0D9A1ECF373
330
3EF0D9A1ECF366
100
AcDbSymbolTableRecord
100
AcDbLayerTableRecord
  2
0
 70
     0
 62
     7
  6
CONTINUOUS
  0
LAYER
  5
3EF0D9A1ECF383
330
3EF0D9A1ECF366
100
AcDbSymbolTableRecord
100
AcDbLayerTableRecord
  2
TEXT
 70
     0
 62
     3
  6
CONTINUOUS
  0
ENDTAB
  0
TABLE
  2
STYLE
  5
3EF0D9A1ECF367
330
0
100
AcDbSymbolTable
 70
     3
  0
STYLE
  5
3EF0D9A1ECF374
330
3EF0D9A1ECF367
100
AcDbSymbolTableRecord
100
AcDbTextStyleTableRecord
  2
STANDARD
 70
     0
 40
0.0
 41
1.0
 50
0.0
 71
     0
 42
0.3125
  3
txt
  4

  0
STYLE
  5
3EF0D9A1ECF380
330
3EF0D9A1ECF367
100
AcDbSymbolTableRecord
100
AcDbTextStyleTableRecord
  2
ITALICC
 70
     0
 40
0.0
 41
1.0
 50
0.0
 71
     0
 42
0.125
  3
italicc
  4

  0
STYLE
  5
3EF0D9A1ECF390
330
3EF0D9A1ECF367
100
AcDbSymbolTableRecord
100
AcDbTextStyleTableRecord
  2
ROMANS
 70
     0
 40
0.0
 41
1.0
 50
0.0
 71
     0
 42
0.125
  3
romans.shx
  4

  0
ENDTAB
  0
TABLE
  2
VIEW
  5
3EF0D9A1ECF36A
330
0
100
AcDbSymbolTable
 70
     0
  0
ENDTAB
  0
TABLE
  2
UCS
  5
3EF0D9A1ECF36B
330
0
100
AcDbSymbolTable
 70
     0
  0
ENDTAB
  0
TABLE
  2
APPID
  5
3EF0D9A1ECF36D
330
0
100
AcDbSymbolTable
 70
     1
  0
APPID
  5
3EF0D9A1ECF375
330
3EF0D9A1ECF36D
100
AcDbSymbolTableRecord
100
AcDbRegAppTableRecord
  2
ACAD
 70
     0
  0
ENDTAB
  0
TABLE
  2
DIMSTYLE
  5
3EF0D9A1ECF36E
330
0
100
AcDbSymbolTable
 70
     1
  0
DIMSTYLE
105
3EF0D9A1ECF388
330
3EF0D9A1ECF36E
100
AcDbSymbolTableRecord
100
AcDbDimStyleTableRecord
  2
STANDARD
 70
     0
  3

  4

  5

  6

  7

 40
1.0
 41
0.125
 42
0.125
 43
0.375
 44
0.125
 45
0.0
 46
0.0
 47
0.0
 48
0.0
140
0.125
141
-0.125
142
0.0
143
25.4
144
1.0
145
0.0
146
1.0
147
0.09
 71
     0
 72
     0
 73
     1
 74
     1
 75
     0
 76
     0
 77
     0
 78
     4
170
     0
171
     2
172
     0
173
     0
174
     1
175
     0
176
     0
177
     0
178
     0
270
     2
271
     3
272
     3
273
     2
274
     2
340
3EF0D9A1ECF390
275
     0
280
     0
281
     0
282
     0
283
     1
284
     4
285
     0
286
     0
287
     3
288
     0
  0
ENDTAB
  0
TABLE
  2
BLOCK_RECORD
  5
3EF0D9A1ECF365
330
0
100
AcDbSymbolTable
 70
     0
  0
BLOCK_RECORD
  5
3EF0D9A1ECF37C
102
{ACAD_XDICTIONARY
360
3EF0D9A1ECF3C3
102
}
330
3EF0D9A1ECF365
100
AcDbSymbolTableRecord
100
AcDbBlockTableRecord
  2
*MODEL_SPACE
  0
BLOCK_RECORD
  5
3EF0D9A1ECF379
102
{ACAD_XDICTIONARY
360
3EF0D9A1ECF3C1
102
}
330
3EF0D9A1ECF365
100
AcDbSymbolTableRecord
100
AcDbBlockTableRecord
  2
*PAPER_SPACE
  0
ENDTAB
  0
ENDSEC
  0
SECTION
  2
BLOCKS
  0
BLOCK
  5
3EF0D9A1ECF386
330
3EF0D9A1ECF37C
100
AcDbEntity
  8
0
100
AcDbBlockBegin
  2
*MODEL_SPACE
 70
     0
 10
0.0
 20
0.0
 30
0.0
  3
*MODEL_SPACE
  1

  0
ENDBLK
  5
3EF0D9A1ECF387
330
3EF0D9A1ECF37C
100
AcDbEntity
  8
0
100
AcDbBlockEnd
  0
BLOCK
  5
3EF0D9A1ECF384
330
3EF0D9A1ECF379
100
AcDbEntity
 67
     1
  8
0
100
AcDbBlockBegin
  2
*PAPER_SPACE
 70
     0
 10
0.0
 20
0.0
 30
0.0
  3
*PAPER_SPACE
  1

  0
ENDBLK
  5
3EF0D9A1ECF385
330
3EF0D9A1ECF379
100
AcDbEntity
 67
     1
  8
0
100
AcDbBlockEnd
  0
ENDSEC
  0
SECTION
  2
ENTITIES
  0
LWPOLYLINE
  5
3EF0D9A1ECDD9E
330
3EF0D9A1ECF37C
100
AcDbEntity
  8
0
100
AcDbPolyline
 90
       28
 70
     1
 43
0.0
 10
1.205565281062833
 20
1.19476758078504
 10
1.330565281062833
 20
1.19476758078504
 10
1.330565281062833
 20
1.254489540954621
 42
-0.2679491924311228
 10
1.354002781062833
 20
1.295084481757016
 10
1.830252781062831
 20
1.570047547458574
 42
-0.5773502691896264
 10
1.900565281062831
 20
1.529452606656178
 10
1.900565281062831
 20
1.249767580785039
 10
1.830565281062833
 20
1.249767580785039
 10
1.830565281062833
 20
1.19476758078504
 10
1.955565281062833
 20
1.19476758078504
 10
1.955565281062833
 20
0.19476758078504
 10
2.002440281062833
 20
0.19476758078504
 42
0.4142135623730951
 10
2.049315281062833
 20
0.24164258078504
 10
2.049315281062833
 20
1.202892580785039
 42
0.4142135623730978
 10
2.002440281062833
 20
1.249767580785039
 42
-0.4142135623730979
 10
1.955565281062833
 20
1.296642580785039
 10
1.955565281062833
 20
2.365442897573877
 42
0.3939104756149427
 10
1.926495170867337
 20
2.396616774144496
 10
1.238995170867337
 20
2.444691457355659
 42
0.4348123749609321
 10
1.205565281062833
 20
2.41351758078504
 10
1.205565281062833
 20
2.179142580785039
 42
1.0
 10
1.299315281062832
 20
2.179142580785039
 10
1.299315281062833
 20
2.385339159959142
 10
1.900565281062833
 20
2.343295664278108
 10
1.900565281062831
 20
1.746319801520532
 42
-0.2679491924311219
 10
1.838065281062831
 20
1.638066626047478
 10
1.260252781062833
 20
1.304466423631347
 42
0.2679491924311226
 10
1.205565281062833
 20
1.209744895092424
  0
TEXT
  5
3EF0D9A1ECF227
330
3EF0D9A1ECF37C
100
AcDbEntity
  8
TEXT
100
AcDbText
 10
0.8938390905866429
 20
-0.1356825878813743
 30
0.0
 40
0.125
  1
PART #110104
  7
ITALICC
 72
     1
 11
1.646815281062833
 21
-0.1356825878813743
 31
0.0
100
AcDbText
  0
TEXT
  5
3EF0D9A1ECF228
330
3EF0D9A1ECF37C
100
AcDbEntity
  8
TEXT
100
AcDbText
 10
2.060120439313154
 20
-0.5826052305537495
 30
0.0
 40
0.0522247191011236
  1
Phone  1-800-328-2495
 41
1.272321428571429
 72
     5
 11
3.389053023582818
 21
-0.5826052305537495
 31
0.0
100
AcDbText
  0
TEXT
  5
3EF0D9A1ECF229
330
3EF0D9A1ECF37C
100
AcDbEntity
  8
TEXT
100
AcDbText
 10
2.060120439313154
 20
-0.302829949654873
 30
0.0
 40
0.0522247191011236
  1
Stylmark  Incorporated
 41
1.221428571428573
 72
     5
 11
3.389053023582818
 21
-0.302829949654873
 31
0.0
100
AcDbText
  0
TEXT
  5
3EF0D9A1ECF22A
330
3EF0D9A1ECF37C
100
AcDbEntity
  8
TEXT
100
AcDbText
 10
2.060120439313154
 20
-0.3960883766211651
 30
0.0
 40
0.0522247191011236
  1
6536 Main St. N.E. * P.O. Box 32008
 41
0.8388932496075366
 72
     5
 11
3.389053023582818
 21
-0.3960883766211651
 31
0.0
100
AcDbText
  0
TEXT
  5
3EF0D9A1ECF22B
330
3EF0D9A1ECF37C
100
AcDbEntity
  8
TEXT
100
AcDbText
 10
2.060120439313154
 20
-0.4893468035874573
 30
0.0
 40
0.0522247191011236
  1
Minneapolis, MN 55432-0008
 41
1.11444212721585
 72
     5
 11
3.389053023582818
 21
-0.4893468035874573
 31
0.0
100
AcDbText
  0
LWPOLYLINE
  5
3EF0D9A1ECF22C
330
3EF0D9A1ECF37C
100
AcDbEntity
  8
TEXT
100
AcDbPolyline
 90
        3
 70
     0
 43
0.0006660908203125
 10
-0.0958332527541535
 20
-0.4689604679163147
 10
-0.0958332527541535
 20
-0.5821959073694423
 10
0.0174021866989689
 20
-0.5821959073694423
  0
LWPOLYLINE
  5
3EF0D9A1ECF231
330
3EF0D9A1ECF37C
100
AcDbEntity
  8
TEXT
100
AcDbPolyline
 90
        3
 70
     0
 43
0.0006660908203125
 10
-0.069189619941656
 20
-0.4689604679163147
 10
-0.069189619941656
 20
-0.5555522745569413
 10
0.0174021866989689
 20
-0.5555522745569413
  0
LWPOLYLINE
  5
3EF0D9A1ECF236
330
3EF0D9A1ECF37C
100
AcDbEntity
  8
TEXT
100
AcDbPolyline
 90
        2
 70
     0
 43
0.0001332181640625
 10
-0.0225632625197791
 20
-0.4589691056116294
 10
-0.0958332527541535
 20
-0.4689604679163147
  0
LWPOLYLINE
  5
3EF0D9A1ECF23A
330
3EF0D9A1ECF37C
100
AcDbEntity
  8
TEXT
100
AcDbPolyline
 90
        2
 70
     0
 43
0.0001332181640625
 10
-0.069189619941656
 20
-0.4689604679163147
 10
-0.0092414461135286
 20
-0.4589691056116294
  0
LWPOLYLINE
  5
3EF0D9A1ECF23E
330
3EF0D9A1ECF37C
100
AcDbEntity
  8
TEXT
100
AcDbPolyline
 90
        2
 70
     0
 43
0.0001332181640625
 10
-0.069189619941656
 20
-0.5555522745569413
 10
-0.0092414461135286
 20
-0.4956041007288157
  0
LWPOLYLINE
  5
3EF0D9A1ECF242
330
3EF0D9A1ECF37C
100
AcDbEntity
  8
TEXT
100
AcDbPolyline
 90
        3
 70
     0
 43
0.0006660908203125
 10
0.0174021866989689
 20
-0.315759579244439
 10
-0.0958332527541535
 20
-0.315759579244439
 10
-0.0958332527541535
 20
-0.4289950186975667
  0
LWPOLYLINE
  5
3EF0D9A1ECF247
330
3EF0D9A1ECF37C
100
AcDbEntity
  8
TEXT
100
AcDbPolyline
 90
        3
 70
     0
 43
0.0006660908203125
 10
0.0174021866989689
 20
-0.34240321205694
 10
-0.069189619941656
 20
-0.34240321205694
 10
-0.069189619941656
 20
-0.4289950186975667
  0
LWPOLYLINE
  5
3EF0D9A1ECF24C
330
3EF0D9A1ECF37C
100
AcDbEntity
  8
TEXT
100
AcDbPolyline
 90
        2
 70
     0
 43
0.0001332181640625
 10
-0.069189619941656
 20
-0.34240321205694
 10
-0.0092414461135304
 20
-0.4023513858850656
  0
LWPOLYLINE
  5
3EF0D9A1ECF250
330
3EF0D9A1ECF37C
100
AcDbEntity
  8
TEXT
100
AcDbPolyline
 90
        2
 70
     0
 43
0.0001332181640625
 10
-0.069189619941656
 20
-0.4289950186975667
 10
-0.0092414461135304
 20
-0.4389863810022554
  0
LWPOLYLINE
  5
3EF0D9A1ECF254
330
3EF0D9A1ECF37C
100
AcDbEntity
  8
TEXT
100
AcDbPolyline
 90
        2
 70
     0
 43
0.0001332181640625
 10
-0.0958332527541535
 20
-0.4289950186975667
 10
-0.0225632625197791
 20
-0.4389863810022554
  0
LWPOLYLINE
  5
3EF0D9A1ECF258
330
3EF0D9A1ECF37C
100
AcDbEntity
  8
TEXT
100
AcDbPolyline
 90
        2
 70
     0
 43
0.0006660908203125
 10
-0.069189619941656
 20
-0.4689604679163147
 10
-0.0958332527541535
 20
-0.4689604679163147
  0
LWPOLYLINE
  5
3EF0D9A1ECF25C
330
3EF0D9A1ECF37C
100
AcDbEntity
  8
TEXT
100
AcDbPolyline
 90
        2
 70
     0
 43
0.0006660908203125
 10
-0.069189619941656
 20
-0.4289950186975667
 10
-0.0958332527541535
 20
-0.4289950186975667
  0
LINE
  5
3EF0D9A1ECF260
330
3EF0D9A1ECF37C
100
AcDbEntity
  8
TEXT
100
AcDbLine
 10
1.419357176372344
 20
-0.380036273901208
 30
0.0
 11
1.312150902985054
 21
-0.380036273901208
 31
0.0
  0
LINE
  5
3EF0D9A1ECF261
330
3EF0D9A1ECF37C
100
AcDbEntity
  8
TEXT
100
AcDbLine
 10
1.448388074716822
 20
-0.3157595792444425
 30
0.0
 11
1.313556165499763
 21
-0.3157595792444425
 31
0.0
  0
ARC
  5
3EF0D9A1ECF262
330
3EF0D9A1ECF37C
100
AcDbEntity
  8
TEXT
100
AcDbCircle
 10
1.37287026189308
 20
-0.4849968285074589
 30
0.0
 40
0.0676855811441166
100
AcDbArc
 50
90.0
 51
153.7768192527749
  0
LWPOLYLINE
  5
3EF0D9A1ECF263
330
3EF0D9A1ECF37C
100
AcDbEntity
  8
TEXT
100
AcDbPolyline
 90
        2
 70
     0
 43
0.0
 10
1.311118407530244
 20
-0.5387416672825154
 42
0.2901071551932823
 10
1.35419434039788
 20
-0.5822326122329536
 42
5.328517124445801
  0
ARC
  5
3EF0D9A1ECF267
330
3EF0D9A1ECF37C
100
AcDbEntity
  8
TEXT
100
AcDbCircle
 10
0.6677388842215946
 20
-0.5224402208949038
 30
0.0
 40
0.0601160179737537
100
AcDbArc
 50
180.0000000000003
 51
264.0521544866073
  0
LINE
  5
3EF0D9A1ECF268
330
3EF0D9A1ECF37C
100
AcDbEntity
  8
TEXT
100
AcDbLine
 10
0.6712542398471424
 20
-0.2813716616503043
 30
0.0
 11
0.6112116350031354
 21
-0.2813716616503043
 31
0.0
  0
ARC
  5
3EF0D9A1ECF269
330
3EF0D9A1ECF37C
100
AcDbEntity
  8
TEXT
100
AcDbCircle
 10
0.435479882104624
 20
-0.3978470386909443
 30
0.0
 40
0.0820874594465043
100
AcDbArc
 50
90.0
 51
270.0
  0
LWPOLYLINE
  5
3EF0D9A1ECF26A
330
3EF0D9A1ECF37C
100
AcDbEntity
  8
TEXT
100
AcDbPolyline
 90
        2
 70
     0
 43
0.0001332181640625
 10
0.0273935490036594
 20
-0.3890295694788186
 10
0.0174021866989689
 20
-0.315759579244439
  0
LWPOLYLINE
  5
3EF0D9A1ECF26E
330
3EF0D9A1ECF37C
100
AcDbEntity
  8
TEXT
100
AcDbPolyline
 90
        2
 70
     0
 43
0.0001332181640625
 10
0.0174021866989689
 20
-0.34240321205694
 10
0.0273935490036594
 20
-0.4023513858850656
  0
LWPOLYLINE
  5
3EF0D9A1ECF272
330
3EF0D9A1ECF37C
100
AcDbEntity
  8
TEXT
100
AcDbPolyline
 90
        3
 70
     0
 43
0.0006660908203125
 10
0.1706030753708463
 20
-0.4289950186975667
 10
0.1706030753708463
 20
-0.315759579244439
 10
0.0573676359177204
 20
-0.315759579244439
  0
LWPOLYLINE
  5
3EF0D9A1ECF277
330
3EF0D9A1ECF37C
100
AcDbEntity
  8
TEXT
100
AcDbPolyline
 90
        3
 70
     0
 43
0.0006660908203125
 10
0.1439594425583452
 20
-0.4289950186975667
 10
0.1439594425583452
 20
-0.34240321205694
 10
0.0573676359177204
 20
-0.34240321205694
  0
LWPOLYLINE
  5
3EF0D9A1ECF27C
330
3EF0D9A1ECF37C
100
AcDbEntity
  8
TEXT
100
AcDbPolyline
 90
        2
 70
     0
 43
0.0001332181640625
 10
0.1439594425583452
 20
-0.34240321205694
 10
0.0840112687302215
 20
-0.4023513858850656
  0
LWPOLYLINE
  5
3EF0D9A1ECF280
330
3EF0D9A1ECF37C
100
AcDbEntity
  8
TEXT
100
AcDbPolyline
 90
        2
 70
     0
 43
0.0001332181640625
 10
0.0573676359177204
 20
-0.34240321205694
 10
0.0473762736130317
 20
-0.4023513858850656
  0
LWPOLYLINE
  5
3EF0D9A1ECF284
330
3EF0D9A1ECF37C
100
AcDbEntity
  8
TEXT
100
AcDbPolyline
 90
        2
 70
     0
 43
0.0001332181640625
 10
0.0573676359177204
 20
-0.315759579244439
 10
0.0473762736130317
 20
-0.3890295694788186
  0
LWPOLYLINE
  5
3EF0D9A1ECF288
330
3EF0D9A1ECF37C
100
AcDbEntity
  8
TEXT
100
AcDbPolyline
 90
        2
 70
     0
 43
0.0001332181640625
 10
0.0973330851364702
 20
-0.4389863810022554
 10
0.1706030753708463
 20
-0.4289950186975667
  0
LWPOLYLINE
  5
3EF0D9A1ECF28C
330
3EF0D9A1ECF37C
100
AcDbEntity
  8
TEXT
100
AcDbPolyline
 90
        2
 70
     0
 43
0.0001332181640625
 10
0.1439594425583452
 20
-0.4289950186975667
 10
0.0840112687302215
 20
-0.4389863810022554
  0
LWPOLYLINE
  5
3EF0D9A1ECF290
330
3EF0D9A1ECF37C
100
AcDbEntity
  8
TEXT
100
AcDbPolyline
 90
        2
 70
     0
 43
0.0001332181640625
 10
0.1706030753708463
 20
-0.4689604679163147
 10
0.0973330851364702
 20
-0.4589691056116294
  0
LWPOLYLINE
  5
3EF0D9A1ECF294
330
3EF0D9A1ECF37C
100
AcDbEntity
  8
TEXT
100
AcDbPolyline
 90
        2
 70
     0
 43
0.0001332181640625
 10
0.1439594425583452
 20
-0.4689604679163147
 10
0.0840112687302215
 20
-0.4589691056116294
  0
LWPOLYLINE
  5
3EF0D9A1ECF298
330
3EF0D9A1ECF37C
100
AcDbEntity
  8
TEXT
100
AcDbPolyline
 90
        2
 70
     0
 43
0.0001332181640625
 10
0.1439594425583452
 20
-0.5555522745569413
 10
0.0840112687302215
 20
-0.4956041007288157
  0
LWPOLYLINE
  5
3EF0D9A1ECF29C
330
3EF0D9A1ECF37C
100
AcDbEntity
  8
TEXT
100
AcDbPolyline
 90
        3
 70
     0
 43
0.0006660908203125
 10
0.0573676359177204
 20
-0.5555522745569413
 10
0.1439594425583452
 20
-0.5555522745569413
 10
0.1439594425583452
 20
-0.4689604679163147
  0
LWPOLYLINE
  5
3EF0D9A1ECF2A1
330
3EF0D9A1ECF37C
100
AcDbEntity
  8
TEXT
100
AcDbPolyline
 90
        3
 70
     0
 43
0.0006660908203125
 10
0.0573676359177204
 20
-0.5821959073694423
 10
0.1706030753708463
 20
-0.5821959073694423
 10
0.1706030753708463
 20
-0.4689604679163147
  0
LWPOLYLINE
  5
3EF0D9A1ECF2A6
330
3EF0D9A1ECF37C
100
AcDbEntity
  8
TEXT
100
AcDbPolyline
 90
        5
 70
     0
 43
0.0001332181640625
 10
0.0273935490036594
 20
-0.5089259171350662
 10
0.0273935490036594
 20
-0.4956041007288157
 10
-0.0092414461135286
 20
-0.4956041007288157
 10
-0.0092414461135286
 20
-0.4589691056116294
 10
-0.0225632625197791
 20
-0.4589691056116294
  0
LWPOLYLINE
  5
3EF0D9A1ECF2AD
330
3EF0D9A1ECF37C
100
AcDbEntity
  8
TEXT
100
AcDbPolyline
 90
        2
 70
     0
 43
0.0006660908203125
 10
0.0174021866989689
 20
-0.5555522745569413
 10
0.0174021866989689
 20
-0.5821959073694423
  0
LWPOLYLINE
  5
3EF0D9A1ECF2B1
330
3EF0D9A1ECF37C
100
AcDbEntity
  8
TEXT
100
AcDbPolyline
 90
        2
 70
     0
 43
0.0001332181640625
 10
0.0174021866989689
 20
-0.5555522745569413
 10
0.0273935490036594
 20
-0.4956041007288157
  0
LWPOLYLINE
  5
3EF0D9A1ECF2B5
330
3EF0D9A1ECF37C
100
AcDbEntity
  8
TEXT
100
AcDbPolyline
 90
        2
 70
     0
 43
0.0001332181640625
 10
0.0174021866989689
 20
-0.5821959073694423
 10
0.0273935490036594
 20
-0.5089259171350662
  0
LWPOLYLINE
  5
3EF0D9A1ECF2B9
330
3EF0D9A1ECF37C
100
AcDbEntity
  8
TEXT
100
AcDbPolyline
 90
        5
 70
     0
 43
0.0001332181640625
 10
-0.0225632625197791
 20
-0.4389863810022554
 10
-0.0092414461135304
 20
-0.4389863810022554
 10
-0.0092414461135304
 20
-0.4023513858850656
 10
0.0273935490036594
 20
-0.4023513858850656
 10
0.0273935490036594
 20
-0.3890295694788186
  0
LWPOLYLINE
  5
3EF0D9A1ECF2C0
330
3EF0D9A1ECF37C
100
AcDbEntity
  8
TEXT
100
AcDbPolyline
 90
        5
 70
     0
 43
0.0001332181640625
 10
0.0473762736130317
 20
-0.3890295694788186
 10
0.0473762736130317
 20
-0.4023513858850656
 10
0.0840112687302215
 20
-0.4023513858850656
 10
0.0840112687302215
 20
-0.4389863810022554
 10
0.0973330851364702
 20
-0.4389863810022554
  0
LWPOLYLINE
  5
3EF0D9A1ECF2C7
330
3EF0D9A1ECF37C
100
AcDbEntity
  8
TEXT
100
AcDbPolyline
 90
        2
 70
     0
 43
0.0001332181640625
 10
0.0573676359177204
 20
-0.5555522745569413
 10
0.0473762736130317
 20
-0.4956041007288157
  0
LWPOLYLINE
  5
3EF0D9A1ECF2CB
330
3EF0D9A1ECF37C
100
AcDbEntity
  8
TEXT
100
AcDbPolyline
 90
        2
 70
     0
 43
0.0001332181640625
 10
0.0473762736130317
 20
-0.5089259171350662
 10
0.0573676359177204
 20
-0.5821959073694423
  0
LWPOLYLINE
  5
3EF0D9A1ECF2CF
330
3EF0D9A1ECF37C
100
AcDbEntity
  8
TEXT
100
AcDbPolyline
 90
        2
 70
     0
 43
0.0006660908203125
 10
0.0573676359177204
 20
-0.5555522745569413
 10
0.0573676359177204
 20
-0.5821959073694423
  0
LWPOLYLINE
  5
3EF0D9A1ECF2D3
330
3EF0D9A1ECF37C
100
AcDbEntity
  8
TEXT
100
AcDbPolyline
 90
        5
 70
     0
 43
0.0001332181640625
 10
0.0973330851364702
 20
-0.4589691056116294
 10
0.0840112687302215
 20
-0.4589691056116294
 10
0.0840112687302215
 20
-0.4956041007288157
 10
0.0473762736130317
 20
-0.4956041007288157
 10
0.0473762736130317
 20
-0.5089259171350662
  0
LWPOLYLINE
  5
3EF0D9A1ECF2DA
330
3EF0D9A1ECF37C
100
AcDbEntity
  8
TEXT
100
AcDbPolyline
 90
        2
 70
     0
 43
0.0006660908203125
 10
0.1439594425583452
 20
-0.4289950186975667
 10
0.1706030753708463
 20
-0.4289950186975667
  0
LWPOLYLINE
  5
3EF0D9A1ECF2DE
330
3EF0D9A1ECF37C
100
AcDbEntity
  8
TEXT
100
AcDbPolyline
 90
        2
 70
     0
 43
0.0006660908203125
 10
0.1439594425583452
 20
-0.4689604679163147
 10
0.1706030753708463
 20
-0.4689604679163147
  0
LINE
  5
3EF0D9A1ECF2E2
330
3EF0D9A1ECF37C
100
AcDbEntity
  8
TEXT
100
AcDbLine
 10
0.4407172122188712
 20
-0.380036273901208
 30
0.0
 11
0.6076228662478425
 21
-0.380036273901208
 31
0.0
  0
LINE
  5
3EF0D9A1ECF2E3
330
3EF0D9A1ECF37C
100
AcDbEntity
  8
TEXT
100
AcDbLine
 10
0.5063173484631723
 20
-0.4158409955118359
 30
0.0
 11
0.4407172122188712
 21
-0.4158409955118359
 31
0.0
  0
LINE
  5
3EF0D9A1ECF2E4
330
3EF0D9A1ECF37C
100
AcDbEntity
  8
TEXT
100
AcDbLine
 10
0.3533924226581195
 20
-0.5822326122329536
 30
0.0
 11
0.5063173484631723
 21
-0.5822326122329536
 31
0.0
  0
LINE
  5
3EF0D9A1ECF2E5
330
3EF0D9A1ECF37C
100
AcDbEntity
  8
TEXT
100
AcDbLine
 10
0.5112577223694519
 20
-0.5138756058995142
 30
0.0
 11
0.3533924226581178
 21
-0.5138756058995142
 31
0.0
  0
LINE
  5
3EF0D9A1ECF2E6
330
3EF0D9A1ECF37C
100
AcDbEntity
  8
TEXT
100
AcDbLine
 10
0.4354798821046231
 20
-0.4799344981374496
 30
0.0
 11
0.5112577223694519
 21
-0.4799344981374496
 31
0.0
  0
ARC
  5
3EF0D9A1ECF2E7
330
3EF0D9A1ECF37C
100
AcDbEntity
  8
TEXT
100
AcDbCircle
 10
0.4407172122188721
 20
-0.3979386347065201
 30
0.0
 40
0.017902360805315
100
AcDbArc
 50
90.0
 51
270.0
  0
LINE
  5
3EF0D9A1ECF2E8
330
3EF0D9A1ECF37C
100
AcDbEntity
  8
TEXT
100
AcDbLine
 10
0.3533924226581178
 20
-0.5138756058995142
 30
0.0
 11
0.3533924226581195
 21
-0.5822326122329536
 31
0.0
  0
LINE
  5
3EF0D9A1ECF2E9
330
3EF0D9A1ECF37C
100
AcDbEntity
  8
TEXT
100
AcDbLine
 10
0.6076228662478425
 20
-0.380036273901208
 30
0.0
 11
0.6076228662478425
 21
-0.5224402208949038
 31
0.0
  0
ARC
  5
3EF0D9A1ECF2EA
330
3EF0D9A1ECF37C
100
AcDbEntity
  8
TEXT
100
AcDbCircle
 10
0.5063173484631732
 20
-0.4990368038723965
 30
0.0
 40
0.0831958083605586
100
AcDbArc
 50
270.0
 51
90.0
  0
ARC
  5
3EF0D9A1ECF2EB
330
3EF0D9A1ECF37C
100
AcDbEntity
  8
TEXT
100
AcDbCircle
 10
0.5112577223694528
 20
-0.4969050520184802
 30
0.0
 40
0.0169705538810321
100
AcDbArc
 50
270.0
 51
90.0
  0
LWPOLYLINE
  5
3EF0D9A1ECF2EC
330
3EF0D9A1ECF37C
100
AcDbEntity
  8
TEXT
100
AcDbPolyline
 90
        2
 70
     0
 43
0.0006660908203125
 10
0.0174021866989689
 20
-0.34240321205694
 10
0.0174021866989689
 20
-0.315759579244439
  0
LWPOLYLINE
  5
3EF0D9A1ECF2F0
330
3EF0D9A1ECF37C
100
AcDbEntity
  8
TEXT
100
AcDbPolyline
 90
        2
 70
     0
 43
0.0006660908203125
 10
0.0573676359177204
 20
-0.34240321205694
 10
0.0573676359177204
 20
-0.315759579244439
  0
LINE
  5
3EF0D9A1ECF2F4
330
3EF0D9A1ECF37C
100
AcDbEntity
  8
TEXT
100
AcDbLine
 10
0.6112116350031354
 20
-0.3157595792444425
 30
0.0
 11
0.4354798821046231
 21
-0.3157595792444425
 31
0.0
  0
LINE
  5
3EF0D9A1ECF2F5
330
3EF0D9A1ECF37C
100
AcDbEntity
  8
TEXT
100
AcDbLine
 10
0.6112116350031354
 20
-0.2813716616503043
 30
0.0
 11
0.6112116350031354
 21
-0.3157595792444425
 31
0.0
  0
LINE
  5
3EF0D9A1ECF2F6
330
3EF0D9A1ECF37C
100
AcDbEntity
  8
TEXT
100
AcDbLine
 10
0.8016835270229876
 20
-0.4166315753575632
 30
0.0
 11
0.7430532059910498
 21
-0.3157595792444425
 31
0.0
  0
LINE
  5
3EF0D9A1ECF2F7
330
3EF0D9A1ECF37C
100
AcDbEntity
  8
TEXT
100
AcDbLine
 10
0.8604320898288531
 20
-0.3157595792444425
 30
0.0
 11
0.8016835270229876
 21
-0.4166315753575632
 31
0.0
  0
LINE
  5
3EF0D9A1ECF2F8
330
3EF0D9A1ECF37C
100
AcDbEntity
  8
TEXT
100
AcDbLine
 10
0.9573627151885943
 20
-0.4998447741299544
 30
0.0
 11
0.9573627151885943
 21
-0.247748101505632
 31
0.0
  0
LINE
  5
3EF0D9A1ECF2F9
330
3EF0D9A1ECF37C
100
AcDbEntity
  8
TEXT
100
AcDbLine
 10
0.9896745693262545
 20
-0.3157595792444425
 30
0.0
 11
0.9896745693262545
 21
-0.5166237859768508
 31
0.0
  0
LINE
  5
3EF0D9A1ECF2FA
330
3EF0D9A1ECF37C
100
AcDbEntity
  8
TEXT
100
AcDbLine
 10
0.9896745693262545
 20
-0.5166237859768508
 30
0.0
 11
0.9726809324416532
 21
-0.5166237859768508
 31
0.0
  0
LINE
  5
3EF0D9A1ECF2FB
330
3EF0D9A1ECF37C
100
AcDbEntity
  8
TEXT
100
AcDbLine
 10
0.9585022886847891
 20
-0.5822326122329536
 30
0.0
 11
1.056505622384223
 21
-0.5822326122329536
 31
0.0
  0
LINE
  5
3EF0D9A1ECF2FC
330
3EF0D9A1ECF37C
100
AcDbEntity
  8
TEXT
100
AcDbLine
 10
0.7920832900260333
 20
-0.5622741061279406
 30
0.0
 11
0.8893829961194779
 21
-0.3979238951926724
 31
0.0
  0
ARC
  5
3EF0D9A1ECF2FD
330
3EF0D9A1ECF37C
100
AcDbEntity
  8
TEXT
100
AcDbCircle
 10
0.7580397301138193
 20
-0.5426848899592578
 30
0.0
 40
0.0392772371940762
100
AcDbArc
 50
270.1604552698595
 51
330.0831797321295
  0
LINE
  5
3EF0D9A1ECF2FE
330
3EF0D9A1ECF37C
100
AcDbEntity
  8
TEXT
100
AcDbLine
 10
0.6615094737279481
 20
-0.5822326122329536
 30
0.0
 11
0.7581497248029426
 21
-0.5819619731346713
 31
0.0
  0
LWPOLYLINE
  5
3EF0D9A1ECF2FF
330
3EF0D9A1ECF37C
100
AcDbEntity
  8
TEXT
100
AcDbPolyline
 90
        6
 70
     1
 43
0.0
 10
0.7040332773030978
 20
-0.380036273901208
 10
0.6737166830828896
 20
-0.380036273901208
 10
0.6737166830828896
 20
-0.5031472719561024
 42
0.407328721240804
 10
0.685260334244366
 20
-0.5149661866324884
 10
0.7458820332890968
 20
-0.5149661866324884
 10
0.7633473736964147
 20
-0.4821539575890093
  0
LINE
  5
3EF0D9A1ECF307
330
3EF0D9A1ECF37C
100
AcDbEntity
  8
TEXT
100
AcDbLine
 10
0.8893829961194779
 20
-0.3979238951926724
 30
0.0
 11
0.8893829961194779
 21
-0.5306812700180288
 31
0.0
  0
ARC
  5
3EF0D9A1ECF308
330
3EF0D9A1ECF37C
100
AcDbEntity
  8
TEXT
100
AcDbCircle
 10
0.9726809324416514
 20
-0.5012419797334254
 30
0.0
 40
0.0153818062434269
100
AcDbArc
 50
174.7883570302258
 51
270.0
  0
LWPOLYLINE
  5
3EF0D9A1ECF309
330
3EF0D9A1ECF37C
100
AcDbEntity
  8
TEXT
100
AcDbPolyline
 90
        2
 70
     0
 43
0.0
 10
0.8893829961194761
 20
-0.5306812700180253
 42
0.3318488747599744
 10
0.9585022886847891
 20
-0.5822326122329536
 42
-6.868794160588311
  0
LINE
  5
3EF0D9A1ECF30D
330
3EF0D9A1ECF37C
100
AcDbEntity
  8
TEXT
100
AcDbLine
 10
1.113894691373484
 20
-0.5822326122329536
 30
0.0
 11
1.180952738155324
 21
-0.5822326122329536
 31
0.0
  0
LINE
  5
3EF0D9A1ECF30E
330
3EF0D9A1ECF37C
100
AcDbEntity
  8
TEXT
100
AcDbLine
 10
1.113894691373484
 20
-0.3875900630673179
 30
0.0
 11
1.113894691373484
 21
-0.5822326122329536
 31
0.0
  0
LINE
  5
3EF0D9A1ECF30F
330
3EF0D9A1ECF37C
100
AcDbEntity
  8
TEXT
100
AcDbLine
 10
1.056505622384223
 20
-0.380036273901208
 30
0.0
 11
1.106340902207371
 21
-0.380036273901208
 31
0.0
  0
LINE
  5
3EF0D9A1ECF310
330
3EF0D9A1ECF37C
100
AcDbEntity
  8
TEXT
100
AcDbLine
 10
1.056505622384223
 20
-0.5822326122329536
 30
0.0
 11
1.056505622384223
 21
-0.380036273901208
 31
0.0
  0
LWPOLYLINE
  5
3EF0D9A1ECF311
330
3EF0D9A1ECF37C
100
AcDbEntity
  8
TEXT
100
AcDbPolyline
 90
        2
 70
     0
 43
0.0
 10
1.106340902207369
 20
-0.380036273901208
 42
-0.4142135623731017
 10
1.113894691373483
 20
-0.3875900630673179
 42
-0.9999999999999998
  0
LINE
  5
3EF0D9A1ECF315
330
3EF0D9A1ECF37C
100
AcDbEntity
  8
TEXT
100
AcDbLine
 10
1.312150902985054
 20
-0.380036273901208
 30
0.0
 11
1.312150902985054
 21
-0.4550886799754146
 31
0.0
  0
LINE
  5
3EF0D9A1ECF316
330
3EF0D9A1ECF37C
100
AcDbEntity
  8
TEXT
100
AcDbLine
 10
1.180952738155324
 20
-0.380036273901208
 30
0.0
 11
1.235086335076275
 21
-0.380036273901208
 31
0.0
  0
LINE
  5
3EF0D9A1ECF317
330
3EF0D9A1ECF37C
100
AcDbEntity
  8
TEXT
100
AcDbLine
 10
1.180952738155324
 20
-0.5822326122329536
 30
0.0
 11
1.180952738155324
 21
-0.380036273901208
 31
0.0
  0
LWPOLYLINE
  5
3EF0D9A1ECF318
330
3EF0D9A1ECF37C
100
AcDbEntity
  8
TEXT
100
AcDbPolyline
 90
        2
 70
     0
 43
0.0
 10
1.235086335076273
 20
-0.380036273901208
 42
-0.4142135623731017
 10
1.242640124242386
 20
-0.3875900630673179
 42
-0.9999999999999998
  0
LWPOLYLINE
  5
3EF0D9A1ECF31C
330
3EF0D9A1ECF37C
100
AcDbEntity
  8
TEXT
100
AcDbPolyline
 90
        4
 70
     0
 43
0.0
 10
1.242640124242386
 20
-0.3875900630673179
 10
1.242640124242386
 20
-0.5822326122329536
 10
1.311118407530244
 20
-0.5822326122329536
 10
1.311118407530244
 20
-0.5387416672825154
 42
-1.714843617202739
  0
LINE
  5
3EF0D9A1ECF322
330
3EF0D9A1ECF37C
100
AcDbEntity
  8
TEXT
100
AcDbLine
 10
0.6712542398471424
 20
-0.3157595792444425
 30
0.0
 11
0.6712542398471424
 21
-0.2813716616503043
 31
0.0
  0
LINE
  5
3EF0D9A1ECF323
330
3EF0D9A1ECF37C
100
AcDbEntity
  8
TEXT
100
AcDbLine
 10
0.7430532059910498
 20
-0.3157595792444425
 30
0.0
 11
0.6712542398471424
 21
-0.3157595792444425
 31
0.0
  0
LINE
  5
3EF0D9A1ECF324
330
3EF0D9A1ECF37C
100
AcDbEntity
  8
TEXT
100
AcDbLine
 10
0.8905540026222293
 20
-0.3157595792444425
 30
0.0
 11
0.8604320898288531
 21
-0.3157595792444425
 31
0.0
  0
LINE
  5
3EF0D9A1ECF325
330
3EF0D9A1ECF37C
100
AcDbEntity
  8
TEXT
100
AcDbLine
 10
0.8905540026222293
 20
-0.247748101505632
 30
0.0
 11
0.8905540026222293
 21
-0.3157595792444425
 31
0.0
  0
LINE
  5
3EF0D9A1ECF326
330
3EF0D9A1ECF37C
100
AcDbEntity
  8
TEXT
100
AcDbLine
 10
0.9573627151885943
 20
-0.247748101505632
 30
0.0
 11
0.8905540026222293
 21
-0.247748101505632
 31
0.0
  0
LWPOLYLINE
  5
3EF0D9A1ECF327
330
3EF0D9A1ECF37C
100
AcDbEntity
  8
TEXT
100
AcDbPolyline
 90
        3
 70
     0
 43
0.0
 10
1.277774474786596
 20
-0.315759579244439
 10
1.159474315970552
 20
-0.315759579244439
 10
1.159474315970552
 20
-0.3429270760053349
 42
-1.960274751411753
  0
LINE
  5
3EF0D9A1ECF32C
330
3EF0D9A1ECF37C
100
AcDbEntity
  8
TEXT
100
AcDbLine
 10
1.12369262525739
 20
-0.3157595792444425
 30
0.0
 11
0.9896745693262545
 21
-0.3157595792444425
 31
0.0
  0
LWPOLYLINE
  5
3EF0D9A1ECF32D
330
3EF0D9A1ECF37C
100
AcDbEntity
  8
TEXT
100
AcDbPolyline
 90
        2
 70
     0
 43
0.0
 10
1.12369262525739
 20
-0.315759579244439
 42
-0.3328679258950098
 10
1.159474315970552
 20
-0.3429270760053349
 42
6.772930709997214
  0
LINE
  5
3EF0D9A1ECF331
330
3EF0D9A1ECF37C
100
AcDbEntity
  8
TEXT
100
AcDbLine
 10
1.313556165499763
 20
-0.3157595792444425
 30
0.0
 11
1.313556165499763
 21
-0.3440821250140864
 31
0.0
  0
LWPOLYLINE
  5
3EF0D9A1ECF332
330
3EF0D9A1ECF37C
100
AcDbEntity
  8
TEXT
100
AcDbPolyline
 90
        2
 70
     0
 43
0.0
 10
1.277774474786596
 20
-0.315759579244439
 42
-0.3277054968067132
 10
1.313556165499761
 20
-0.3440821250140829
 42
6.667889725900311
  0
LINE
  5
3EF0D9A1ECF336
330
3EF0D9A1ECF37C
100
AcDbEntity
  8
TEXT
100
AcDbLine
 10
1.527348013591863
 20
-0.4209715577978699
 30
0.0
 11
1.483597242409961
 21
-0.3387212818017247
 31
0.0
  0
LINE
  5
3EF0D9A1ECF337
330
3EF0D9A1ECF37C
100
AcDbEntity
  8
TEXT
100
AcDbLine
 10
1.527348013591863
 20
-0.3157595792444425
 30
0.0
 11
1.527348013591863
 21
-0.4209715577978699
 31
0.0
  0
LINE
  5
3EF0D9A1ECF338
330
3EF0D9A1ECF37C
100
AcDbEntity
  8
TEXT
100
AcDbLine
 10
1.755031752530232
 20
-0.3916249056559806
 30
0.0
 11
1.755031752530232
 21
-0.2502953734768418
 31
0.0
  0
LINE
  5
3EF0D9A1ECF339
330
3EF0D9A1ECF37C
100
AcDbEntity
  8
TEXT
100
AcDbLine
 10
1.802129911086217
 20
-0.3157595792444425
 30
0.0
 11
1.755031752530232
 21
-0.3916249056559806
 31
0.0
  0
LINE
  5
3EF0D9A1ECF33A
330
3EF0D9A1ECF37C
100
AcDbEntity
  8
TEXT
100
AcDbLine
 10
1.812564627850139
 20
-0.4256528221854162
 30
0.0
 11
1.877121743815845
 21
-0.3157595792444425
 31
0.0
  0
LINE
  5
3EF0D9A1ECF33B
330
3EF0D9A1ECF37C
100
AcDbEntity
  8
TEXT
100
AcDbLine
 10
1.691196761307459
 20
-0.5822326122329536
 30
0.0
 11
1.755574945626079
 21
-0.5822326122329536
 31
0.0
  0
LWPOLYLINE
  5
3EF0D9A1ECF33C
330
3EF0D9A1ECF37C
100
AcDbEntity
  8
TEXT
100
AcDbPolyline
 90
        2
 70
     0
 43
0.0
 10
1.531287690896901
 20
-0.5387416672825154
 42
-0.2901071551932486
 10
1.488211758029256
 20
-0.5822326122329536
 42
-5.328517124445184
  0
ARC
  5
3EF0D9A1ECF340
330
3EF0D9A1ECF37C
100
AcDbEntity
  8
TEXT
100
AcDbCircle
 10
1.419357176372342
 20
-0.4083956489012053
 30
0.0
 40
0.028359375
100
AcDbArc
 50
25.78218179591245
 51
90.0
  0
LINE
  5
3EF0D9A1ECF341
330
3EF0D9A1ECF37C
100
AcDbEntity
  8
TEXT
100
AcDbLine
 10
1.455158251676465
 20
-0.4173112473633403
 30
0.0
 11
1.444893491262901
 21
-0.3960607077906459
 31
0.0
  0
LINE
  5
3EF0D9A1ECF342
330
3EF0D9A1ECF37C
100
AcDbEntity
  8
TEXT
100
AcDbLine
 10
1.372870261893082
 20
-0.4173112473633403
 30
0.0
 11
1.455158251676465
 21
-0.4173112473633403
 31
0.0
  0
LWPOLYLINE
  5
3EF0D9A1ECF343
330
3EF0D9A1ECF37C
100
AcDbEntity
  8
TEXT
100
AcDbPolyline
 90
        4
 70
     1
 43
0.0
 10
1.468089292959364
 20
-0.4792686342489283
 10
1.379428974299505
 20
-0.4792686342489283
 42
0.9999999999999998
 10
1.379428974299505
 20
-0.521667174752789
 10
1.468089292959364
 20
-0.521667174752789
 42
1.0
  0
LWPOLYLINE
  5
3EF0D9A1ECF349
330
3EF0D9A1ECF37C
100
AcDbEntity
  8
TEXT
100
AcDbPolyline
 90
        2
 70
     0
 43
0.0
 10
1.35419434039788
 20
-0.5822326122329536
 10
1.488211758029256
 20
-0.5822326122329536
 42
0.9999999999999998
  0
LINE
  5
3EF0D9A1ECF34D
330
3EF0D9A1ECF37C
100
AcDbEntity
  8
TEXT
100
AcDbLine
 10
1.614548780014896
 20
-0.380036273901208
 30
0.0
 11
1.691196761307454
 21
-0.380036273901208
 31
0.0
  0
LINE
  5
3EF0D9A1ECF34E
330
3EF0D9A1ECF37C
100
AcDbEntity
  8
TEXT
100
AcDbLine
 10
1.691196761307454
 20
-0.380036273901208
 30
0.0
 11
1.691196761307459
 21
-0.5822326122329536
 31
0.0
  0
ARC
  5
3EF0D9A1ECF34F
330
3EF0D9A1ECF37C
100
AcDbEntity
  8
TEXT
100
AcDbCircle
 10
1.614548780014894
 20
-0.4049421491838708
 30
0.0
 40
0.0249058752826653
100
AcDbArc
 50
89.99971217465335
 51
179.9999999999985
  0
LINE
  5
3EF0D9A1ECF350
330
3EF0D9A1ECF37C
100
AcDbEntity
  8
TEXT
100
AcDbLine
 10
1.589642904732237
 20
-0.5822326122329536
 30
0.0
 11
1.589642904732231
 21
-0.4049421068014852
 31
0.0
  0
LWPOLYLINE
  5
3EF0D9A1ECF351
330
3EF0D9A1ECF37C
100
AcDbEntity
  8
TEXT
100
AcDbPolyline
 90
        2
 70
     0
 43
0.0
 10
1.531287690896901
 20
-0.5822326122329536
 10
1.589642904732235
 20
-0.5822326122329536
  0
LWPOLYLINE
  5
3EF0D9A1ECF355
330
3EF0D9A1ECF37C
100
AcDbEntity
  8
TEXT
100
AcDbPolyline
 90
        2
 70
     0
 43
0.0
 10
1.531287690896901
 20
-0.5387416672825154
 10
1.531287690896901
 20
-0.5822326122329536
  0
LINE
  5
3EF0D9A1ECF359
330
3EF0D9A1ECF37C
100
AcDbEntity
  8
TEXT
100
AcDbLine
 10
1.90805685121375
 20
-0.5822326122329536
 30
0.0
 11
1.812564627850139
 21
-0.4256528221854162
 31
0.0
  0
LINE
  5
3EF0D9A1ECF35A
330
3EF0D9A1ECF37C
100
AcDbEntity
  8
TEXT
100
AcDbLine
 10
1.831478478837544
 20
-0.5822326122329536
 30
0.0
 11
1.90805685121375
 21
-0.5822326122329536
 31
0.0
  0
LINE
  5
3EF0D9A1ECF35B
330
3EF0D9A1ECF37C
100
AcDbEntity
  8
TEXT
100
AcDbLine
 10
1.755574945626079
 20
-0.4506530437567733
 30
0.0
 11
1.831478478837544
 21
-0.5822326122329536
 31
0.0
  0
LINE
  5
3EF0D9A1ECF35C
330
3EF0D9A1ECF37C
100
AcDbEntity
  8
TEXT
100
AcDbLine
 10
1.755574945626079
 20
-0.5822326122329536
 30
0.0
 11
1.755574945626079
 21
-0.4506530437567733
 31
0.0
  0
LINE
  5
3EF0D9A1ECF35D
330
3EF0D9A1ECF37C
100
AcDbEntity
  8
TEXT
100
AcDbLine
 10
1.755031752530232
 20
-0.2502953734768418
 30
0.0
 11
1.686716873980959
 21
-0.2502953734768418
 31
0.0
  0
ARC
  5
3EF0D9A1ECF35E
330
3EF0D9A1ECF37C
100
AcDbEntity
  8
TEXT
100
AcDbCircle
 10
1.446361134939753
 20
-0.3573431463653449
 30
0.0
 40
0.0416329381542859
100
AcDbArc
 50
26.56974201007528
 51
87.20939649401342
  0
LINE
  5
3EF0D9A1ECF35F
330
3EF0D9A1ECF37C
100
AcDbEntity
  8
TEXT
100
AcDbLine
 10
1.591244919891364
 20
-0.3157595792444425
 30
0.0
 11
1.527348013591863
 21
-0.3157595792444425
 31
0.0
  0
LINE
  5
3EF0D9A1ECF360
330
3EF0D9A1ECF37C
100
AcDbEntity
  8
TEXT
100
AcDbLine
 10
1.591244919891364
 20
-0.3433072291053172
 30
0.0
 11
1.591244919891364
 21
-0.3157595792444425
 31
0.0
  0
ARC
  5
3EF0D9A1ECF361
330
3EF0D9A1ECF37C
100
AcDbEntity
  8
TEXT
100
AcDbCircle
 10
1.622437736954472
 20
-0.3470053065267074
 30
0.0
 40
0.0314112657011332
100
AcDbArc
 50
95.88484768694724
 51
173.2388340632136
  0
LINE
  5
3EF0D9A1ECF362
330
3EF0D9A1ECF37C
100
AcDbEntity
  8
TEXT
100
AcDbLine
 10
1.686716873980953
 20
-0.3157595792444425
 30
0.0
 11
1.619217156331437
 21
-0.3157595792444425
 31
0.0
  0
LINE
  5
3EF0D9A1ECF363
330
3EF0D9A1ECF37C
100
AcDbEntity
  8
TEXT
100
AcDbLine
 10
1.686716873980959
 20
-0.2502953734768418
 30
0.0
 11
1.686716873980953
 21
-0.3157595792444425
 31
0.0
  0
LINE
  5
3EF0D9A1ECF364
330
3EF0D9A1ECF37C
100
AcDbEntity
  8
TEXT
100
AcDbLine
 10
1.877121743815845
 20
-0.3157595792444425
 30
0.0
 11
1.802129911086218
 21
-0.3157595792444425
 31
0.0
  0
ENDSEC
  0
SECTION
  2
OBJECTS
  0
DICTIONARY
  5
3EF0D9A1ECF370
330
0
100
AcDbDictionary
  3
ACAD_GROUP
350
3EF0D9A1ECF371
  3
ACAD_LAYOUT
350
3EF0D9A1ECF396
  3
ACAD_MLINESTYLE
350
3EF0D9A1ECF372
  3
ACAD_PLOTSETTINGS
350
3EF0D9A1ECF397
  3
ACAD_PLOTSTYLENAME
350
3EF0D9A1ECF394
  3
ACDBHEADERROUNDTRIPXREC
350
3EF0D9A1ECF3A1
  3
ACDBVARIABLEDICTIONARY
350
3EF0D9A1ECF39E
  0
DICTIONARY
  5
3EF0D9A1ECF3C3
330
3EF0D9A1ECF37C
100
AcDbDictionary
280
     1
  3
ACAD_LAYOUTSELFREF
360
3EF0D9A1ECF3C4
  0
DICTIONARY
  5
3EF0D9A1ECF3C1
330
3EF0D9A1ECF379
100
AcDbDictionary
280
     1
  3
ACAD_LAYOUTSELFREF
360
3EF0D9A1ECF3C2
  0
DICTIONARY
  5
3EF0D9A1ECF371
102
{ACAD_REACTORS
330
3EF0D9A1ECF370
102
}
330
3EF0D9A1ECF370
100
AcDbDictionary
  0
DICTIONARY
  5
3EF0D9A1ECF396
102
{ACAD_REACTORS
330
3EF0D9A1ECF370
102
}
330
3EF0D9A1ECF370
100
AcDbDictionary
  0
DICTIONARY
  5
3EF0D9A1ECF372
102
{ACAD_REACTORS
330
3EF0D9A1ECF370
102
}
330
3EF0D9A1ECF370
100
AcDbDictionary
  3
STANDARD
350
3EF0D9A1ECF37F
  0
DICTIONARY
  5
3EF0D9A1ECF397
102
{ACAD_REACTORS
330
3EF0D9A1ECF370
102
}
330
3EF0D9A1ECF370
100
AcDbDictionary
  0
ACDBDICTIONARYWDFLT
  5
3EF0D9A1ECF394
102
{ACAD_REACTORS
330
3EF0D9A1ECF370
102
}
330
3EF0D9A1ECF370
100
AcDbDictionary
281
     1
  3
Normal
350
3EF0D9A1ECF395
100
AcDbDictionaryWithDefault
340
3EF0D9A1ECF395
  0
DICTIONARY
  5
3EF0D9A1ECF3A1
102
{ACAD_REACTORS
330
3EF0D9A1ECF370
102
}
330
3EF0D9A1ECF370
100
AcDbDictionary
  3
CEPSNTYPE
350
3EF0D9A1ECF3AB
  3
FINGERPRINTGUID
350
3EF0D9A1ECF3AC
  3
HYPERLINKBASE
350
3EF0D9A1ECF3A4
  3
INSUNITS
350
3EF0D9A1ECF3AA
  3
LAYOUTDICT
350
3EF0D9A1ECF3A6
  3
LWETCUNION
350
3EF0D9A1ECF3A9
  3
PLOTSETDICT
350
3EF0D9A1ECF3A7
  3
PLOTSTYLNAMDICT
350
3EF0D9A1ECF3A8
  3
PSVPSCALE
350
3EF0D9A1ECF3AE
  3
PUCSBASE
350
3EF0D9A1ECF3B1
  3
PUCSORGBACK
350
3EF0D9A1ECF3B7
  3
PUCSORGBOTTOM
350
3EF0D9A1ECF3B3
  3
PUCSORGFRONT
350
3EF0D9A1ECF3B6
  3
PUCSORGLEFT
350
3EF0D9A1ECF3B4
  3
PUCSORGRIGHT
350
3EF0D9A1ECF3B5
  3
PUCSORGTOP
350
3EF0D9A1ECF3B2
  3
PUCSORTHOREF
350
3EF0D9A1ECF3AF
  3
PUCSORTHOVIEW
350
3EF0D9A1ECF3B0
  3
STYLESHEET
350
3EF0D9A1ECF3A5
  3
TSTACKALIGN
350
3EF0D9A1ECF3A2
  3
TSTACKSIZE
350
3EF0D9A1ECF3A3
  3
UCSBASE
350
3EF0D9A1ECF3BA
  3
UCSORGBACK
350
3EF0D9A1ECF3C0
  3
UCSORGBOTTOM
350
3EF0D9A1ECF3BC
  3
UCSORGFRONT
350
3EF0D9A1ECF3BF
  3
UCSORGLEFT
350
3EF0D9A1ECF3BD
  3
UCSORGRIGHT
350
3EF0D9A1ECF3BE
  3
UCSORGTOP
350
3EF0D9A1ECF3BB
  3
UCSORTHOREF
350
3EF0D9A1ECF3B8
  3
UCSORTHOVIEW
350
3EF0D9A1ECF3B9
  3
VERSIONGUID
350
3EF0D9A1ECF3AD
  0
DICTIONARY
  5
3EF0D9A1ECF39E
102
{ACAD_REACTORS
330
3EF0D9A1ECF370
102
}
330
3EF0D9A1ECF370
100
AcDbDictionary
  3
DIMASSOC
350
3EF0D9A1ECF39F
  0
XRECORD
  5
3EF0D9A1ECF3C4
102
{ACAD_REACTORS
330
3EF0D9A1ECF3C3
102
}
330
3EF0D9A1ECF3C3
100
AcDbXrecord
340
3EF0D9A1ECF37C
  0
XRECORD
  5
3EF0D9A1ECF3C2
102
{ACAD_REACTORS
330
3EF0D9A1ECF3C1
102
}
330
3EF0D9A1ECF3C1
100
AcDbXrecord
340
3EF0D9A1ECF379
  0
MLINESTYLE
  5
3EF0D9A1ECF37F
102
{ACAD_REACTORS
330
3EF0D9A1ECF372
102
}
330
3EF0D9A1ECF372
100
AcDbMlineStyle
  2
STANDARD
 70
     0
  3

 62
     0
 51
90.0
 52
90.0
 71
     2
 49
0.5
 62
   256
  6
BYLAYER
 49
-0.5
 62
   256
  6
BYLAYER
  0
ACDBPLACEHOLDER
  5
3EF0D9A1ECF395
102
{ACAD_REACTORS
330
3EF0D9A1ECF394
102
}
330
3EF0D9A1ECF394
100
AcDbPlaceHolder
280
     0
  0
XRECORD
  5
3EF0D9A1ECF3AB
102
{ACAD_REACTORS
330
3EF0D9A1ECF3A1
102
}
330
3EF0D9A1ECF3A1
100
AcDbXrecord
 90
        0
  0
XRECORD
  5
3EF0D9A1ECF3AC
102
{ACAD_REACTORS
330
3EF0D9A1ECF3A1
102
}
330
3EF0D9A1ECF3A1
100
AcDbXrecord
  1
{EADC3670-8DB3-11D6-88E6-0090279574E7}
  0
XRECORD
  5
3EF0D9A1ECF3A4
102
{ACAD_REACTORS
330
3EF0D9A1ECF3A1
102
}
330
3EF0D9A1ECF3A1
100
AcDbXrecord
  1

  0
XRECORD
  5
3EF0D9A1ECF3AA
102
{ACAD_REACTORS
330
3EF0D9A1ECF3A1
102
}
330
3EF0D9A1ECF3A1
100
AcDbXrecord
 90
        0
  0
XRECORD
  5
3EF0D9A1ECF3A6
102
{ACAD_REACTORS
330
3EF0D9A1ECF3A1
102
}
330
3EF0D9A1ECF3A1
100
AcDbXrecord
340
3EF0D9A1ECF396
  0
XRECORD
  5
3EF0D9A1ECF3A9
102
{ACAD_REACTORS
330
3EF0D9A1ECF3A1
102
}
330
3EF0D9A1ECF3A1
100
AcDbXrecord
 90
    14877
  0
XRECORD
  5
3EF0D9A1ECF3A7
102
{ACAD_REACTORS
330
3EF0D9A1ECF3A1
102
}
330
3EF0D9A1ECF3A1
100
AcDbXrecord
340
3EF0D9A1ECF397
  0
XRECORD
  5
3EF0D9A1ECF3A8
102
{ACAD_REACTORS
330
3EF0D9A1ECF3A1
102
}
330
3EF0D9A1ECF3A1
100
AcDbXrecord
340
3EF0D9A1ECF394
  0
XRECORD
  5
3EF0D9A1ECF3AE
102
{ACAD_REACTORS
330
3EF0D9A1ECF3A1
102
}
330
3EF0D9A1ECF3A1
100
AcDbXrecord
 40
0.0
  0
XRECORD
  5
3EF0D9A1ECF3B1
102
{ACAD_REACTORS
330
3EF0D9A1ECF3A1
102
}
330
3EF0D9A1ECF3A1
100
AcDbXrecord
340
0
  0
XRECORD
  5
3EF0D9A1ECF3B7
102
{ACAD_REACTORS
330
3EF0D9A1ECF3A1
102
}
330
3EF0D9A1ECF3A1
100
AcDbXrecord
 10
0.0
 20
0.0
 30
0.0
  0
XRECORD
  5
3EF0D9A1ECF3B3
102
{ACAD_REACTORS
330
3EF0D9A1ECF3A1
102
}
330
3EF0D9A1ECF3A1
100
AcDbXrecord
 10
0.0
 20
0.0
 30
0.0
  0
XRECORD
  5
3EF0D9A1ECF3B6
102
{ACAD_REACTORS
330
3EF0D9A1ECF3A1
102
}
330
3EF0D9A1ECF3A1
100
AcDbXrecord
 10
0.0
 20
0.0
 30
0.0
  0
XRECORD
  5
3EF0D9A1ECF3B4
102
{ACAD_REACTORS
330
3EF0D9A1ECF3A1
102
}
330
3EF0D9A1ECF3A1
100
AcDbXrecord
 10
0.0
 20
0.0
 30
0.0
  0
XRECORD
  5
3EF0D9A1ECF3B5
102
{ACAD_REACTORS
330
3EF0D9A1ECF3A1
102
}
330
3EF0D9A1ECF3A1
100
AcDbXrecord
 10
0.0
 20
0.0
 30
0.0
  0
XRECORD
  5
3EF0D9A1ECF3B2
102
{ACAD_REACTORS
330
3EF0D9A1ECF3A1
102
}
330
3EF0D9A1ECF3A1
100
AcDbXrecord
 10
0.0
 20
0.0
 30
0.0
  0
XRECORD
  5
3EF0D9A1ECF3AF
102
{ACAD_REACTORS
330
3EF0D9A1ECF3A1
102
}
330
3EF0D9A1ECF3A1
100
AcDbXrecord
340
0
  0
XRECORD
  5
3EF0D9A1ECF3B0
102
{ACAD_REACTORS
330
3EF0D9A1ECF3A1
102
}
330
3EF0D9A1ECF3A1
100
AcDbXrecord
 70
     0
  0
XRECORD
  5
3EF0D9A1ECF3A5
102
{ACAD_REACTORS
330
3EF0D9A1ECF3A1
102
}
330
3EF0D9A1ECF3A1
100
AcDbXrecord
  1

  0
XRECORD
  5
3EF0D9A1ECF3A2
102
{ACAD_REACTORS
330
3EF0D9A1ECF3A1
102
}
330
3EF0D9A1ECF3A1
100
AcDbXrecord
 90
        1
  0
XRECORD
  5
3EF0D9A1ECF3A3
102
{ACAD_REACTORS
330
3EF0D9A1ECF3A1
102
}
330
3EF0D9A1ECF3A1
100
AcDbXrecord
 90
       70
  0
XRECORD
  5
3EF0D9A1ECF3BA
102
{ACAD_REACTORS
330
3EF0D9A1ECF3A1
102
}
330
3EF0D9A1ECF3A1
100
AcDbXrecord
340
0
  0
XRECORD
  5
3EF0D9A1ECF3C0
102
{ACAD_REACTORS
330
3EF0D9A1ECF3A1
102
}
330
3EF0D9A1ECF3A1
100
AcDbXrecord
 10
0.0
 20
0.0
 30
0.0
  0
XRECORD
  5
3EF0D9A1ECF3BC
102
{ACAD_REACTORS
330
3EF0D9A1ECF3A1
102
}
330
3EF0D9A1ECF3A1
100
AcDbXrecord
 10
0.0
 20
0.0
 30
0.0
  0
XRECORD
  5
3EF0D9A1ECF3BF
102
{ACAD_REACTORS
330
3EF0D9A1ECF3A1
102
}
330
3EF0D9A1ECF3A1
100
AcDbXrecord
 10
0.0
 20
0.0
 30
0.0
  0
XRECORD
  5
3EF0D9A1ECF3BD
102
{ACAD_REACTORS
330
3EF0D9A1ECF3A1
102
}
330
3EF0D9A1ECF3A1
100
AcDbXrecord
 10
0.0
 20
0.0
 30
0.0
  0
XRECORD
  5
3EF0D9A1ECF3BE
102
{ACAD_REACTORS
330
3EF0D9A1ECF3A1
102
}
330
3EF0D9A1ECF3A1
100
AcDbXrecord
 10
0.0
 20
0.0
 30
0.0
  0
XRECORD
  5
3EF0D9A1ECF3BB
102
{ACAD_REACTORS
330
3EF0D9A1ECF3A1
102
}
330
3EF0D9A1ECF3A1
100
AcDbXrecord
 10
0.0
 20
0.0
 30
0.0
  0
XRECORD
  5
3EF0D9A1ECF3B8
102
{ACAD_REACTORS
330
3EF0D9A1ECF3A1
102
}
330
3EF0D9A1ECF3A1
100
AcDbXrecord
340
0
  0
XRECORD
  5
3EF0D9A1ECF3B9
102
{ACAD_REACTORS
330
3EF0D9A1ECF3A1
102
}
330
3EF0D9A1ECF3A1
100
AcDbXrecord
 70
     0
  0
XRECORD
  5
3EF0D9A1ECF3AD
102
{ACAD_REACTORS
330
3EF0D9A1ECF3A1
102
}
330
3EF0D9A1ECF3A1
100
AcDbXrecord
  1
{EADC3672-8DB3-11D6-88E6-0090279574E7}
  0
DICTIONARYVAR
  5
3EF0D9A1ECF39F
102
{ACAD_REACTORS
330
3EF0D9A1ECF39E
102
}
330
3EF0D9A1ECF39E
100
DictionaryVariables
280
     0
  1
1
  0
ENDSEC
  0
EOF
