  0
SECTION
  2
HEADER
  9
$ACADVER
  1
AC1014
  9
$ACADMAINTVER
 70
     9
  9
$DWGCODEPAGE
  3
ANSI_1252
  9
$INSBASE
 10
2.265243906891202
 20
2.068725711472642
 30
0.0
  9
$EXTMIN
 10
0.7061505187644805
 20
0.2541995198883924
 30
0.0
  9
$EXTMAX
 10
4.191369840511609
 20
2.367895385195414
 30
0.0
  9
$LIMMIN
 10
0.0
 20
0.0
  9
$LIMMAX
 10
18.0
 20
12.0
  9
$ORTHOMODE
 70
     1
  9
$REGENMODE
 70
     1
  9
$FILLMODE
 70
     1
  9
$QTEXTMODE
 70
     0
  9
$MIRRTEXT
 70
     0
  9
$DRAGMODE
 70
     2
  9
$LTSCALE
 40
1.0
  9
$OSMODE
 70
    39
  9
$ATTMODE
 70
     1
  9
$TEXTSIZE
 40
0.125
  9
$TRACEWID
 40
0.05
  9
$TEXTSTYLE
  7
ROMANS
  9
$CLAYER
  8
0
  9
$CELTYPE
  6
BYLAYER
  9
$CECOLOR
 62
   256
  9
$CELTSCALE
 40
1.0
  9
$DELOBJ
 70
     1
  9
$DISPSILH
 70
     1
  9
$DIMSCALE
 40
1.0
  9
$DIMASZ
 40
0.125
  9
$DIMEXO
 40
0.125
  9
$DIMDLI
 40
0.375
  9
$DIMRND
 40
0.0
  9
$DIMDLE
 40
0.0
  9
$DIMEXE
 40
0.125
  9
$DIMTP
 40
0.0
  9
$DIMTM
 40
0.0
  9
$DIMTXT
 40
0.125
  9
$DIMCEN
 40
-0.125
  9
$DIMTSZ
 40
0.0
  9
$DIMTOL
 70
     0
  9
$DIMLIM
 70
     0
  9
$DIMTIH
 70
     1
  9
$DIMTOH
 70
     1
  9
$DIMSE1
 70
     0
  9
$DIMSE2
 70
     0
  9
$DIMTAD
 70
     0
  9
$DIMZIN
 70
     4
  9
$DIMBLK
  1

  9
$DIMASO
 70
     1
  9
$DIMSHO
 70
     1
  9
$DIMPOST
  1

  9
$DIMAPOST
  1

  9
$DIMALT
 70
     0
  9
$DIMALTD
 70
     2
  9
$DIMALTF
 40
25.4
  9
$DIMLFAC
 40
1.0
  9
$DIMTOFL
 70
     0
  9
$DIMTVP
 40
0.0
  9
$DIMTIX
 70
     1
  9
$DIMSOXD
 70
     0
  9
$DIMSAH
 70
     0
  9
$DIMBLK1
  1

  9
$DIMBLK2
  1

  9
$DIMSTYLE
  2
STANDARD
  9
$DIMCLRD
 70
     0
  9
$DIMCLRE
 70
     0
  9
$DIMCLRT
 70
     0
  9
$DIMTFAC
 40
1.0
  9
$DIMGAP
 40
0.09
  9
$DIMJUST
 70
     0
  9
$DIMSD1
 70
     0
  9
$DIMSD2
 70
     0
  9
$DIMTOLJ
 70
     1
  9
$DIMTZIN
 70
     4
  9
$DIMALTZ
 70
     0
  9
$DIMALTTZ
 70
     0
  9
$DIMFIT
 70
     3
  9
$DIMUPT
 70
     0
  9
$DIMUNIT
 70
     2
  9
$DIMDEC
 70
     3
  9
$DIMTDEC
 70
     3
  9
$DIMALTU
 70
     2
  9
$DIMALTTD
 70
     2
  9
$DIMTXSTY
  7
ROMANS
  9
$DIMAUNIT
 70
     0
  9
$LUNITS
 70
     2
  9
$LUPREC
 70
     3
  9
$SKETCHINC
 40
0.1
  9
$FILLETRAD
 40
0.03125
  9
$AUNITS
 70
     0
  9
$AUPREC
 70
     0
  9
$MENU
  1
ACAD
  9
$ELEVATION
 40
0.0
  9
$PELEVATION
 40
0.0
  9
$THICKNESS
 40
0.0
  9
$LIMCHECK
 70
     0
  9
$BLIPMODE
 70
     0
  9
$CHAMFERA
 40
0.0
  9
$CHAMFERB
 40
0.0
  9
$CHAMFERC
 40
0.0
  9
$CHAMFERD
 40
0.0
  9
$SKPOLY
 70
     0
  9
$TDCREATE
 40
2448993.549089004
  9
$TDUPDATE
 40
2452458.295033472
  9
$TDINDWG
 40
0.0007690394
  9
$TDUSRTIMER
 40
0.0007690394
  9
$USRTIMER
 70
     1
  9
$ANGBASE
 50
0.0
  9
$ANGDIR
 70
     0
  9
$PDMODE
 70
     0
  9
$PDSIZE
 40
0.0
  9
$PLINEWID
 40
0.0
  9
$COORDS
 70
     2
  9
$SPLFRAME
 70
     0
  9
$SPLINETYPE
 70
     6
  9
$SPLINESEGS
 70
     8
  9
$ATTDIA
 70
     0
  9
$ATTREQ
 70
     1
  9
$HANDLING
 70
 22529
  9
$HANDSEED
  5
22F9
  9
$SURFTAB1
 70
     6
  9
$SURFTAB2
 70
     6
  9
$SURFTYPE
 70
     6
  9
$SURFU
 70
     6
  9
$SURFV
 70
     6
  9
$UCSNAME
  2

  9
$UCSORG
 10
0.0
 20
0.0
 30
0.0
  9
$UCSXDIR
 10
1.0
 20
0.0
 30
0.0
  9
$UCSYDIR
 10
0.0
 20
1.0
 30
0.0
  9
$PUCSNAME
  2

  9
$PUCSORG
 10
0.0
 20
0.0
 30
0.0
  9
$PUCSXDIR
 10
1.0
 20
0.0
 30
0.0
  9
$PUCSYDIR
 10
0.0
 20
1.0
 30
0.0
  9
$USERI1
 70
     0
  9
$USERI2
 70
     0
  9
$USERI3
 70
     0
  9
$USERI4
 70
     0
  9
$USERI5
 70
     0
  9
$USERR1
 40
0.0
  9
$USERR2
 40
0.0
  9
$USERR3
 40
0.0
  9
$USERR4
 40
0.0
  9
$USERR5
 40
0.0
  9
$WORLDVIEW
 70
     1
  9
$SHADEDGE
 70
     3
  9
$SHADEDIF
 70
    70
  9
$TILEMODE
 70
     1
  9
$MAXACTVP
 70
    16
  9
$PINSBASE
 10
1.374072598356407
 20
50.00000000000001
 30
1.210365850359155
  9
$PLIMCHECK
 70
     0
  9
$PEXTMIN
 10
1.000000000000000E+20
 20
1.000000000000000E+20
 30
1.000000000000000E+20
  9
$PEXTMAX
 10
-1.000000000000000E+20
 20
-1.000000000000000E+20
 30
-1.000000000000000E+20
  9
$PLIMMIN
 10
0.0
 20
0.0
  9
$PLIMMAX
 10
12.0
 20
9.0
  9
$UNITMODE
 70
     0
  9
$VISRETAIN
 70
     0
  9
$PLINEGEN
 70
     1
  9
$PSLTSCALE
 70
     0
  9
$TREEDEPTH
 70
  3020
  9
$PICKSTYLE
 70
     1
  9
$CMLSTYLE
  2
STANDARD
  9
$CMLJUST
 70
     0
  9
$CMLSCALE
 40
1.0
  9
$PROXYGRAPHICS
 70
     1
  9
$MEASUREMENT
 70
     0
  0
ENDSEC
  0
SECTION
  2
CLASSES
  0
CLASS
  1
LWPOLYLINE
  2
AcDbPolyline
  3
AutoCAD 2000
 90
        0
280
     0
281
     1
  0
CLASS
  1
ACDBDICTIONARYWDFLT
  2
AcDbDictionaryWithDefault
  3
AutoCAD 2000
 90
        0
280
     0
281
     0
  0
CLASS
  1
ACDBPLACEHOLDER
  2
AcDbPlaceHolder
  3
AutoCAD 2000
 90
        0
280
     0
281
     0
  0
CLASS
  1
LAYOUT
  2
AcDbLayout
  3
AutoCAD 2000
 90
        0
280
     0
281
     0
  0
CLASS
  1
DICTIONARYVAR
  2
AcDbDictionaryVar
  3
AutoCAD 2000
 90
        0
280
     0
281
     0
  0
CLASS
  1
LONG_TRANSACTION
  2
AcDbLongTransaction
  3
AutoCAD 2000
 90
        0
280
     0
281
     0
  0
CLASS
  1
LWPOLYLINE
  2
AcDbPolyline
  3
AutoCAD 2000
 90
        0
280
     0
281
     1
  0
CLASS
  1
HATCH
  2
AcDbHatch
  3
AutoCAD 2000
 90
        0
280
     0
281
     1
  0
CLASS
  1
XRECORD
  2
AcDbXrecord
  3
AutoCAD 2000
 90
        0
280
     0
281
     0
  0
ENDSEC
  0
SECTION
  2
TABLES
  0
TABLE
  2
VPORT
  5
22A0
330
0
100
AcDbSymbolTable
 70
     2
  0
VPORT
  5
22D4
330
22A0
100
AcDbSymbolTableRecord
100
AcDbViewportTableRecord
  2
*ACTIVE
 70
     0
 10
0.0
 20
0.0
 11
1.0
 21
1.0
 12
5.560488462462715
 22
1.311126731465485
 13
0.0
 23
0.0
 14
0.015625
 24
0.015625
 15
0.0
 25
0.0
 16
0.0
 26
0.0
 36
1.0
 17
0.0
 27
0.0
 37
0.0
 40
2.386518115210198
 41
4.320930232558139
 42
50.0
 43
0.0
 44
0.0
 50
0.0
 51
0.0
 71
     0
 72
  2000
 73
     1
 74
     0
 75
     0
 76
     0
 77
     0
 78
     0
  0
ENDTAB
  0
TABLE
  2
LTYPE
  5
229D
330
0
100
AcDbSymbolTable
 70
     1
  0
LTYPE
  5
22AA
330
229D
100
AcDbSymbolTableRecord
100
AcDbLinetypeTableRecord
  2
BYBLOCK
 70
     0
  3

 72
    65
 73
     0
 40
0.0
  0
LTYPE
  5
22AB
330
229D
100
AcDbSymbolTableRecord
100
AcDbLinetypeTableRecord
  2
BYLAYER
 70
     0
  3

 72
    65
 73
     0
 40
0.0
  0
LTYPE
  5
22AC
330
229D
100
AcDbSymbolTableRecord
100
AcDbLinetypeTableRecord
  2
CONTINUOUS
 70
     0
  3
Solid line
 72
    65
 73
     0
 40
0.0
  0
ENDTAB
  0
TABLE
  2
LAYER
  5
229A
330
0
100
AcDbSymbolTable
 70
     2
  0
LAYER
  5
22A7
330
229A
100
AcDbSymbolTableRecord
100
AcDbLayerTableRecord
  2
0
 70
     0
 62
     7
  6
CONTINUOUS
  0
LAYER
  5
22B7
330
229A
100
AcDbSymbolTableRecord
100
AcDbLayerTableRecord
  2
TEXT
 70
     0
 62
     3
  6
CONTINUOUS
  0
ENDTAB
  0
TABLE
  2
STYLE
  5
229B
330
0
100
AcDbSymbolTable
 70
     3
  0
STYLE
  5
22A8
330
229B
100
AcDbSymbolTableRecord
100
AcDbTextStyleTableRecord
  2
STANDARD
 70
     0
 40
0.0
 41
1.0
 50
0.0
 71
     0
 42
0.3125
  3
txt
  4

  0
STYLE
  5
22B4
330
229B
100
AcDbSymbolTableRecord
100
AcDbTextStyleTableRecord
  2
ITALICC
 70
     0
 40
0.0
 41
1.0
 50
0.0
 71
     0
 42
0.125
  3
italicc
  4

  0
STYLE
  5
22C4
330
229B
100
AcDbSymbolTableRecord
100
AcDbTextStyleTableRecord
  2
ROMANS
 70
     0
 40
0.0
 41
1.0
 50
0.0
 71
     0
 42
0.125
  3
romans.shx
  4

  0
ENDTAB
  0
TABLE
  2
VIEW
  5
229E
330
0
100
AcDbSymbolTable
 70
     0
  0
ENDTAB
  0
TABLE
  2
UCS
  5
229F
330
0
100
AcDbSymbolTable
 70
     0
  0
ENDTAB
  0
TABLE
  2
APPID
  5
22A1
330
0
100
AcDbSymbolTable
 70
     1
  0
APPID
  5
22A9
330
22A1
100
AcDbSymbolTableRecord
100
AcDbRegAppTableRecord
  2
ACAD
 70
     0
  0
ENDTAB
  0
TABLE
  2
DIMSTYLE
  5
22A2
330
0
100
AcDbSymbolTable
 70
     1
  0
DIMSTYLE
105
22BC
330
22A2
100
AcDbSymbolTableRecord
100
AcDbDimStyleTableRecord
  2
STANDARD
 70
     0
  3

  4

  5

  6

  7

 40
1.0
 41
0.125
 42
0.125
 43
0.375
 44
0.125
 45
0.0
 46
0.0
 47
0.0
 48
0.0
140
0.125
141
-0.125
142
0.0
143
25.4
144
1.0
145
0.0
146
1.0
147
0.09
 71
     0
 72
     0
 73
     1
 74
     1
 75
     0
 76
     0
 77
     0
 78
     4
170
     0
171
     2
172
     0
173
     0
174
     1
175
     0
176
     0
177
     0
178
     0
270
     2
271
     3
272
     3
273
     2
274
     2
340
22C4
275
     0
280
     0
281
     0
282
     0
283
     1
284
     4
285
     0
286
     0
287
     3
288
     0
  0
ENDTAB
  0
TABLE
  2
BLOCK_RECORD
  5
2299
330
0
100
AcDbSymbolTable
 70
     0
  0
BLOCK_RECORD
  5
22B0
102
{ACAD_XDICTIONARY
360
22F7
102
}
330
2299
100
AcDbSymbolTableRecord
100
AcDbBlockTableRecord
  2
*MODEL_SPACE
  0
BLOCK_RECORD
  5
22AD
102
{ACAD_XDICTIONARY
360
22F5
102
}
330
2299
100
AcDbSymbolTableRecord
100
AcDbBlockTableRecord
  2
*PAPER_SPACE
  0
ENDTAB
  0
ENDSEC
  0
SECTION
  2
BLOCKS
  0
BLOCK
  5
22BA
330
22B0
100
AcDbEntity
  8
0
100
AcDbBlockBegin
  2
*MODEL_SPACE
 70
     0
 10
0.0
 20
0.0
 30
0.0
  3
*MODEL_SPACE
  1

  0
ENDBLK
  5
22BB
330
22B0
100
AcDbEntity
  8
0
100
AcDbBlockEnd
  0
BLOCK
  5
22B8
330
22AD
100
AcDbEntity
 67
     1
  8
0
100
AcDbBlockBegin
  2
*PAPER_SPACE
 70
     0
 10
0.0
 20
0.0
 30
0.0
  3
*PAPER_SPACE
  1

  0
ENDBLK
  5
22B9
330
22AD
100
AcDbEntity
 67
     1
  8
0
100
AcDbBlockEnd
  0
ENDSEC
  0
SECTION
  2
ENTITIES
  0
LWPOLYLINE
  5
C4A
330
22B0
100
AcDbEntity
  8
0
100
AcDbPolyline
 90
       61
 70
     1
 43
0.0
 10
2.224260139151726
 20
2.002048298283334
 10
2.098260139151726
 20
2.002048298283334
 10
2.098260139151726
 20
1.861423298283334
 42
-0.2679491924311226
 10
2.035760139151726
 20
1.753170122810279
 10
2.008260139151726
 20
1.800801520018423
 42
3.732050807568895
 10
1.938260139151726
 20
1.800801520018422
 10
1.910760139151727
 20
1.75317012281028
 42
-0.2679491924311219
 10
1.848260139151726
 20
1.861423298283334
 10
1.848260139151726
 20
2.002048298283334
 10
1.719260139151726
 20
2.002048298283334
 10
1.719260139151726
 20
1.73442012281028
 42
0.4142135623730971
 10
1.750510139151726
 20
1.703170122810281
 10
1.781760139151726
 20
1.70317012281028
 10
1.781760139151726
 20
1.69317012281028
 10
1.719260139151726
 20
1.630670122810281
 10
1.71926013915172
 20
1.015923298283331
 42
-1.0
 10
1.660260139151726
 20
1.015923298283331
 10
1.660260139151726
 20
1.986423298283334
 10
1.585260139151726
 20
1.986423298283334
 10
1.585260139151726
 20
2.330173298283334
 42
-0.4142135623730951
 10
1.616510139151726
 20
2.361423298283334
 10
2.892010139151726
 20
2.361423298283334
 42
-0.4142135623730951
 10
2.923260139151726
 20
2.330173298283334
 10
2.923260139151726
 20
2.111423298283334
 10
3.335260139151726
 20
2.111423298283334
 42
-0.4142135623730951
 10
3.366510139151726
 20
2.080173298283334
 10
3.366510139151726
 20
2.017673298283334
 42
-0.4142135623730951
 10
3.335260139151726
 20
1.986423298283334
 10
3.157760139151726
 20
1.986423298283334
 10
3.147760139151726
 20
1.996423298283334
 10
3.137760139151726
 20
1.986423298283334
 10
2.847760139151726
 20
1.986423298283334
 10
2.847760139151725
 20
1.015923298283334
 42
-1.0
 10
2.788760139151726
 20
1.015923298283334
 10
2.788760139151726
 20
1.630670122810281
 10
2.726260139151726
 20
1.69317012281028
 10
2.726260139151726
 20
1.70317012281028
 10
2.757510139151726
 20
1.70317012281028
 42
0.4142135623730951
 10
2.788760139151726
 20
1.73442012281028
 10
2.788760139151726
 20
2.002048298283334
 10
2.660760139151726
 20
2.002048298283334
 10
2.660760139151726
 20
1.861423298283334
 42
-0.2679491924311228
 10
2.598260139151726
 20
1.753170122810279
 10
2.570760139151726
 20
1.800801520018423
 42
3.732050807568815
 10
2.500760139151726
 20
1.800801520018422
 10
2.473260139151725
 20
1.753170122810279
 42
-0.2679491924311228
 10
2.410760139151726
 20
1.861423298283334
 10
2.410760139151726
 20
2.002048298283334
 10
2.283760139151726
 20
2.002048298283334
 10
2.283760139151726
 20
1.73442012281028
 42
0.4142135623730951
 10
2.315010139151726
 20
1.70317012281028
 10
2.346260139151726
 20
1.70317012281028
 10
2.346260139151726
 20
1.69317012281028
 10
2.283760139151726
 20
1.630670122810281
 10
2.283760139151726
 20
1.016173298283338
 42
-1.000000000000005
 10
2.22426013915172
 20
1.016173298283338
 10
2.224260139151726
 20
1.630670122810281
 10
2.161760139151726
 20
1.69317012281028
 10
2.161760139151726
 20
1.70317012281028
 10
2.193010139151726
 20
1.70317012281028
 42
0.4142135623730951
 10
2.224260139151726
 20
1.73442012281028
  0
LWPOLYLINE
  5
C37
330
22B0
100
AcDbEntity
  8
0
100
AcDbPolyline
 90
        4
 70
     1
 43
0.0
 10
2.860760139151726
 20
2.298923298283334
 10
1.647760139151726
 20
2.298923298283334
 10
1.647760139151726
 20
2.064548298283334
 10
2.860760139151726
 20
2.064548298283334
  0
TEXT
  5
215B
330
22B0
100
AcDbEntity
  8
TEXT
100
AcDbText
 10
1.696155907515433
 20
0.712218123970974
 30
0.0
 40
0.125
  1
PART #110102
  7
ITALICC
 72
     1
 11
2.449132097991623
 21
0.712218123970974
 31
0.0
100
AcDbText
  0
TEXT
  5
215C
330
22B0
100
AcDbEntity
  8
TEXT
100
AcDbText
 10
2.862437256241944
 20
0.2652954812985988
 30
0.0
 40
0.0522247191011236
  1
Phone  1-800-328-2495
 41
1.27232142857143
 72
     5
 11
4.191369840511608
 21
0.2652954812985988
 31
0.0
100
AcDbText
  0
TEXT
  5
215D
330
22B0
100
AcDbEntity
  8
TEXT
100
AcDbText
 10
2.862437256241944
 20
0.5450707621974753
 30
0.0
 40
0.0522247191011236
  1
Stylmark  Incorporated
 41
1.221428571428573
 72
     5
 11
4.191369840511608
 21
0.5450707621974753
 31
0.0
100
AcDbText
  0
TEXT
  5
215E
330
22B0
100
AcDbEntity
  8
TEXT
100
AcDbText
 10
2.862437256241944
 20
0.4518123352311832
 30
0.0
 40
0.0522247191011236
  1
6536 Main St. N.E. * P.O. Box 32008
 41
0.8388932496075367
 72
     5
 11
4.191369840511608
 21
0.4518123352311832
 31
0.0
100
AcDbText
  0
TEXT
  5
215F
330
22B0
100
AcDbEntity
  8
TEXT
100
AcDbText
 10
2.862437256241944
 20
0.358553908264891
 30
0.0
 40
0.0522247191011236
  1
Minneapolis, MN 55432-0008
 41
1.11444212721585
 72
     5
 11
4.191369840511608
 21
0.358553908264891
 31
0.0
100
AcDbText
  0
LWPOLYLINE
  5
2160
330
22B0
100
AcDbEntity
  8
TEXT
100
AcDbPolyline
 90
        3
 70
     0
 43
0.0006660908203125
 10
0.7064835641746368
 20
0.3789402439360336
 10
0.7064835641746368
 20
0.265704804482906
 10
0.8197190036277589
 20
0.265704804482906
  0
LWPOLYLINE
  5
2165
330
22B0
100
AcDbEntity
  8
TEXT
100
AcDbPolyline
 90
        3
 70
     0
 43
0.0006660908203125
 10
0.7331271969871343
 20
0.3789402439360336
 10
0.7331271969871343
 20
0.2923484372954071
 10
0.8197190036277589
 20
0.2923484372954071
  0
LWPOLYLINE
  5
216A
330
22B0
100
AcDbEntity
  8
TEXT
100
AcDbPolyline
 90
        2
 70
     0
 43
0.0001332181640625
 10
0.7797535544090111
 20
0.3889316062407189
 10
0.7064835641746368
 20
0.3789402439360336
  0
LWPOLYLINE
  5
216E
330
22B0
100
AcDbEntity
  8
TEXT
100
AcDbPolyline
 90
        2
 70
     0
 43
0.0001332181640625
 10
0.7331271969871343
 20
0.3789402439360336
 10
0.7930753708152616
 20
0.3889316062407189
  0
LWPOLYLINE
  5
2172
330
22B0
100
AcDbEntity
  8
TEXT
100
AcDbPolyline
 90
        2
 70
     0
 43
0.0001332181640625
 10
0.7331271969871343
 20
0.2923484372954071
 10
0.7930753708152616
 20
0.3522966111235326
  0
LWPOLYLINE
  5
2176
330
22B0
100
AcDbEntity
  8
TEXT
100
AcDbPolyline
 90
        3
 70
     0
 43
0.0006660908203125
 10
0.8197190036277589
 20
0.5321411326079093
 10
0.7064835641746368
 20
0.5321411326079093
 10
0.7064835641746368
 20
0.4189056931547817
  0
LWPOLYLINE
  5
217B
330
22B0
100
AcDbEntity
  8
TEXT
100
AcDbPolyline
 90
        3
 70
     0
 43
0.0006660908203125
 10
0.8197190036277589
 20
0.5054974997954083
 10
0.7331271969871343
 20
0.5054974997954083
 10
0.7331271969871343
 20
0.4189056931547817
  0
LWPOLYLINE
  5
2180
330
22B0
100
AcDbEntity
  8
TEXT
100
AcDbPolyline
 90
        2
 70
     0
 43
0.0001332181640625
 10
0.7331271969871343
 20
0.5054974997954083
 10
0.7930753708152598
 20
0.4455493259672827
  0
LWPOLYLINE
  5
2184
330
22B0
100
AcDbEntity
  8
TEXT
100
AcDbPolyline
 90
        2
 70
     0
 43
0.0001332181640625
 10
0.7331271969871343
 20
0.4189056931547817
 10
0.7930753708152598
 20
0.4089143308500929
  0
LWPOLYLINE
  5
2188
330
22B0
100
AcDbEntity
  8
TEXT
100
AcDbPolyline
 90
        2
 70
     0
 43
0.0001332181640625
 10
0.7064835641746368
 20
0.4189056931547817
 10
0.7797535544090111
 20
0.4089143308500929
  0
LWPOLYLINE
  5
218C
330
22B0
100
AcDbEntity
  8
TEXT
100
AcDbPolyline
 90
        2
 70
     0
 43
0.0006660908203125
 10
0.7331271969871343
 20
0.3789402439360336
 10
0.7064835641746368
 20
0.3789402439360336
  0
LWPOLYLINE
  5
2190
330
22B0
100
AcDbEntity
  8
TEXT
100
AcDbPolyline
 90
        2
 70
     0
 43
0.0006660908203125
 10
0.7331271969871343
 20
0.4189056931547817
 10
0.7064835641746368
 20
0.4189056931547817
  0
LINE
  5
2194
330
22B0
100
AcDbEntity
  8
TEXT
100
AcDbLine
 10
2.221673993301134
 20
0.4678644379511403
 30
0.0
 11
2.114467719913844
 21
0.4678644379511403
 31
0.0
  0
LINE
  5
2195
330
22B0
100
AcDbEntity
  8
TEXT
100
AcDbLine
 10
2.250704891645612
 20
0.5321411326079058
 30
0.0
 11
2.115872982428553
 21
0.5321411326079058
 31
0.0
  0
ARC
  5
2196
330
22B0
100
AcDbEntity
  8
TEXT
100
AcDbCircle
 10
2.17518707882187
 20
0.3629038833448894
 30
0.0
 40
0.0676855811441166
100
AcDbArc
 50
90.0
 51
153.7768192527749
  0
LWPOLYLINE
  5
2197
330
22B0
100
AcDbEntity
  8
TEXT
100
AcDbPolyline
 90
        2
 70
     0
 43
0.0
 10
2.113435224459034
 20
0.3091590445698329
 42
0.2901071551932823
 10
2.15651115732667
 20
0.2656680996193947
 42
5.328517124445801
  0
ARC
  5
219B
330
22B0
100
AcDbEntity
  8
TEXT
100
AcDbCircle
 10
1.470055701150384
 20
0.3254604909574446
 30
0.0
 40
0.0601160179737537
100
AcDbArc
 50
180.0000000000003
 51
264.0521544866073
  0
LINE
  5
219C
330
22B0
100
AcDbEntity
  8
TEXT
100
AcDbLine
 10
1.473571056775932
 20
0.566529050202044
 30
0.0
 11
1.413528451931925
 21
0.566529050202044
 31
0.0
  0
ARC
  5
219D
330
22B0
100
AcDbEntity
  8
TEXT
100
AcDbCircle
 10
1.237796699033414
 20
0.450053673161404
 30
0.0
 40
0.0820874594465043
100
AcDbArc
 50
90.0
 51
270.0
  0
LWPOLYLINE
  5
219E
330
22B0
100
AcDbEntity
  8
TEXT
100
AcDbPolyline
 90
        2
 70
     0
 43
0.0001332181640625
 10
0.8297103659324495
 20
0.4588711423735297
 10
0.8197190036277589
 20
0.5321411326079093
  0
LWPOLYLINE
  5
21A2
330
22B0
100
AcDbEntity
  8
TEXT
100
AcDbPolyline
 90
        2
 70
     0
 43
0.0001332181640625
 10
0.8197190036277589
 20
0.5054974997954083
 10
0.8297103659324495
 20
0.4455493259672827
  0
LWPOLYLINE
  5
21A6
330
22B0
100
AcDbEntity
  8
TEXT
100
AcDbPolyline
 90
        3
 70
     0
 43
0.0006660908203125
 10
0.9729198922996364
 20
0.4189056931547817
 10
0.9729198922996364
 20
0.5321411326079093
 10
0.8596844528465105
 20
0.5321411326079093
  0
LWPOLYLINE
  5
21AB
330
22B0
100
AcDbEntity
  8
TEXT
100
AcDbPolyline
 90
        3
 70
     0
 43
0.0006660908203125
 10
0.9462762594871353
 20
0.4189056931547817
 10
0.9462762594871353
 20
0.5054974997954083
 10
0.8596844528465105
 20
0.5054974997954083
  0
LWPOLYLINE
  5
21B0
330
22B0
100
AcDbEntity
  8
TEXT
100
AcDbPolyline
 90
        2
 70
     0
 43
0.0001332181640625
 10
0.9462762594871353
 20
0.5054974997954083
 10
0.8863280856590115
 20
0.4455493259672827
  0
LWPOLYLINE
  5
21B4
330
22B0
100
AcDbEntity
  8
TEXT
100
AcDbPolyline
 90
        2
 70
     0
 43
0.0001332181640625
 10
0.8596844528465105
 20
0.5054974997954083
 10
0.8496930905418217
 20
0.4455493259672827
  0
LWPOLYLINE
  5
21B8
330
22B0
100
AcDbEntity
  8
TEXT
100
AcDbPolyline
 90
        2
 70
     0
 43
0.0001332181640625
 10
0.8596844528465105
 20
0.5321411326079093
 10
0.8496930905418217
 20
0.4588711423735297
  0
LWPOLYLINE
  5
21BC
330
22B0
100
AcDbEntity
  8
TEXT
100
AcDbPolyline
 90
        2
 70
     0
 43
0.0001332181640625
 10
0.8996499020652603
 20
0.4089143308500929
 10
0.9729198922996364
 20
0.4189056931547817
  0
LWPOLYLINE
  5
21C0
330
22B0
100
AcDbEntity
  8
TEXT
100
AcDbPolyline
 90
        2
 70
     0
 43
0.0001332181640625
 10
0.9462762594871353
 20
0.4189056931547817
 10
0.8863280856590115
 20
0.4089143308500929
  0
LWPOLYLINE
  5
21C4
330
22B0
100
AcDbEntity
  8
TEXT
100
AcDbPolyline
 90
        2
 70
     0
 43
0.0001332181640625
 10
0.9729198922996364
 20
0.3789402439360336
 10
0.8996499020652603
 20
0.3889316062407189
  0
LWPOLYLINE
  5
21C8
330
22B0
100
AcDbEntity
  8
TEXT
100
AcDbPolyline
 90
        2
 70
     0
 43
0.0001332181640625
 10
0.9462762594871353
 20
0.3789402439360336
 10
0.8863280856590115
 20
0.3889316062407189
  0
LWPOLYLINE
  5
21CC
330
22B0
100
AcDbEntity
  8
TEXT
100
AcDbPolyline
 90
        2
 70
     0
 43
0.0001332181640625
 10
0.9462762594871353
 20
0.2923484372954071
 10
0.8863280856590115
 20
0.3522966111235326
  0
LWPOLYLINE
  5
21D0
330
22B0
100
AcDbEntity
  8
TEXT
100
AcDbPolyline
 90
        3
 70
     0
 43
0.0006660908203125
 10
0.8596844528465105
 20
0.2923484372954071
 10
0.9462762594871353
 20
0.2923484372954071
 10
0.9462762594871353
 20
0.3789402439360336
  0
LWPOLYLINE
  5
21D5
330
22B0
100
AcDbEntity
  8
TEXT
100
AcDbPolyline
 90
        3
 70
     0
 43
0.0006660908203125
 10
0.8596844528465105
 20
0.265704804482906
 10
0.9729198922996364
 20
0.265704804482906
 10
0.9729198922996364
 20
0.3789402439360336
  0
LWPOLYLINE
  5
21DA
330
22B0
100
AcDbEntity
  8
TEXT
100
AcDbPolyline
 90
        5
 70
     0
 43
0.0001332181640625
 10
0.8297103659324495
 20
0.3389747947172821
 10
0.8297103659324495
 20
0.3522966111235326
 10
0.7930753708152616
 20
0.3522966111235326
 10
0.7930753708152616
 20
0.3889316062407189
 10
0.7797535544090111
 20
0.3889316062407189
  0
LWPOLYLINE
  5
21E1
330
22B0
100
AcDbEntity
  8
TEXT
100
AcDbPolyline
 90
        2
 70
     0
 43
0.0006660908203125
 10
0.8197190036277589
 20
0.2923484372954071
 10
0.8197190036277589
 20
0.265704804482906
  0
LWPOLYLINE
  5
21E5
330
22B0
100
AcDbEntity
  8
TEXT
100
AcDbPolyline
 90
        2
 70
     0
 43
0.0001332181640625
 10
0.8197190036277589
 20
0.2923484372954071
 10
0.8297103659324495
 20
0.3522966111235326
  0
LWPOLYLINE
  5
21E9
330
22B0
100
AcDbEntity
  8
TEXT
100
AcDbPolyline
 90
        2
 70
     0
 43
0.0001332181640625
 10
0.8197190036277589
 20
0.265704804482906
 10
0.8297103659324495
 20
0.3389747947172821
  0
LWPOLYLINE
  5
21ED
330
22B0
100
AcDbEntity
  8
TEXT
100
AcDbPolyline
 90
        5
 70
     0
 43
0.0001332181640625
 10
0.7797535544090111
 20
0.4089143308500929
 10
0.7930753708152598
 20
0.4089143308500929
 10
0.7930753708152598
 20
0.4455493259672827
 10
0.8297103659324495
 20
0.4455493259672827
 10
0.8297103659324495
 20
0.4588711423735297
  0
LWPOLYLINE
  5
21F4
330
22B0
100
AcDbEntity
  8
TEXT
100
AcDbPolyline
 90
        5
 70
     0
 43
0.0001332181640625
 10
0.8496930905418217
 20
0.4588711423735297
 10
0.8496930905418217
 20
0.4455493259672827
 10
0.8863280856590115
 20
0.4455493259672827
 10
0.8863280856590115
 20
0.4089143308500929
 10
0.8996499020652603
 20
0.4089143308500929
  0
LWPOLYLINE
  5
21FB
330
22B0
100
AcDbEntity
  8
TEXT
100
AcDbPolyline
 90
        2
 70
     0
 43
0.0001332181640625
 10
0.8596844528465105
 20
0.2923484372954071
 10
0.8496930905418217
 20
0.3522966111235326
  0
LWPOLYLINE
  5
21FF
330
22B0
100
AcDbEntity
  8
TEXT
100
AcDbPolyline
 90
        2
 70
     0
 43
0.0001332181640625
 10
0.8496930905418217
 20
0.3389747947172821
 10
0.8596844528465105
 20
0.265704804482906
  0
LWPOLYLINE
  5
2203
330
22B0
100
AcDbEntity
  8
TEXT
100
AcDbPolyline
 90
        2
 70
     0
 43
0.0006660908203125
 10
0.8596844528465105
 20
0.2923484372954071
 10
0.8596844528465105
 20
0.265704804482906
  0
LWPOLYLINE
  5
2207
330
22B0
100
AcDbEntity
  8
TEXT
100
AcDbPolyline
 90
        5
 70
     0
 43
0.0001332181640625
 10
0.8996499020652603
 20
0.3889316062407189
 10
0.8863280856590115
 20
0.3889316062407189
 10
0.8863280856590115
 20
0.3522966111235326
 10
0.8496930905418217
 20
0.3522966111235326
 10
0.8496930905418217
 20
0.3389747947172821
  0
LWPOLYLINE
  5
220E
330
22B0
100
AcDbEntity
  8
TEXT
100
AcDbPolyline
 90
        2
 70
     0
 43
0.0006660908203125
 10
0.9462762594871353
 20
0.4189056931547817
 10
0.9729198922996364
 20
0.4189056931547817
  0
LWPOLYLINE
  5
2212
330
22B0
100
AcDbEntity
  8
TEXT
100
AcDbPolyline
 90
        2
 70
     0
 43
0.0006660908203125
 10
0.9462762594871353
 20
0.3789402439360336
 10
0.9729198922996364
 20
0.3789402439360336
  0
LINE
  5
2216
330
22B0
100
AcDbEntity
  8
TEXT
100
AcDbLine
 10
1.243034029147661
 20
0.4678644379511403
 30
0.0
 11
1.409939683176632
 21
0.4678644379511403
 31
0.0
  0
LINE
  5
2217
330
22B0
100
AcDbEntity
  8
TEXT
100
AcDbLine
 10
1.308634165391962
 20
0.4320597163405125
 30
0.0
 11
1.243034029147661
 21
0.4320597163405125
 31
0.0
  0
LINE
  5
2218
330
22B0
100
AcDbEntity
  8
TEXT
100
AcDbLine
 10
1.155709239586909
 20
0.2656680996193947
 30
0.0
 11
1.308634165391962
 21
0.2656680996193947
 31
0.0
  0
LINE
  5
2219
330
22B0
100
AcDbEntity
  8
TEXT
100
AcDbLine
 10
1.313574539298242
 20
0.3340251059528341
 30
0.0
 11
1.155709239586907
 21
0.3340251059528341
 31
0.0
  0
LINE
  5
221A
330
22B0
100
AcDbEntity
  8
TEXT
100
AcDbLine
 10
1.237796699033413
 20
0.3679662137148987
 30
0.0
 11
1.313574539298242
 21
0.3679662137148987
 31
0.0
  0
ARC
  5
221B
330
22B0
100
AcDbEntity
  8
TEXT
100
AcDbCircle
 10
1.243034029147662
 20
0.4499620771458282
 30
0.0
 40
0.017902360805315
100
AcDbArc
 50
90.0
 51
270.0
  0
LINE
  5
221C
330
22B0
100
AcDbEntity
  8
TEXT
100
AcDbLine
 10
1.155709239586907
 20
0.3340251059528341
 30
0.0
 11
1.155709239586909
 21
0.2656680996193947
 31
0.0
  0
LINE
  5
221D
330
22B0
100
AcDbEntity
  8
TEXT
100
AcDbLine
 10
1.409939683176632
 20
0.4678644379511403
 30
0.0
 11
1.409939683176632
 21
0.3254604909574446
 31
0.0
  0
ARC
  5
221E
330
22B0
100
AcDbEntity
  8
TEXT
100
AcDbCircle
 10
1.308634165391963
 20
0.3488639079799518
 30
0.0
 40
0.0831958083605586
100
AcDbArc
 50
270.0
 51
90.0
  0
ARC
  5
221F
330
22B0
100
AcDbEntity
  8
TEXT
100
AcDbCircle
 10
1.313574539298242
 20
0.3509956598338682
 30
0.0
 40
0.0169705538810321
100
AcDbArc
 50
270.0
 51
90.0
  0
LWPOLYLINE
  5
2220
330
22B0
100
AcDbEntity
  8
TEXT
100
AcDbPolyline
 90
        2
 70
     0
 43
0.0006660908203125
 10
0.8197190036277589
 20
0.5054974997954083
 10
0.8197190036277589
 20
0.5321411326079093
  0
LWPOLYLINE
  5
2224
330
22B0
100
AcDbEntity
  8
TEXT
100
AcDbPolyline
 90
        2
 70
     0
 43
0.0006660908203125
 10
0.8596844528465105
 20
0.5054974997954083
 10
0.8596844528465105
 20
0.5321411326079093
  0
LINE
  5
2228
330
22B0
100
AcDbEntity
  8
TEXT
100
AcDbLine
 10
1.413528451931925
 20
0.5321411326079058
 30
0.0
 11
1.237796699033413
 21
0.5321411326079058
 31
0.0
  0
LINE
  5
2229
330
22B0
100
AcDbEntity
  8
TEXT
100
AcDbLine
 10
1.413528451931925
 20
0.566529050202044
 30
0.0
 11
1.413528451931925
 21
0.5321411326079058
 31
0.0
  0
LINE
  5
222A
330
22B0
100
AcDbEntity
  8
TEXT
100
AcDbLine
 10
1.604000343951777
 20
0.4312691364947852
 30
0.0
 11
1.545370022919839
 21
0.5321411326079058
 31
0.0
  0
LINE
  5
222B
330
22B0
100
AcDbEntity
  8
TEXT
100
AcDbLine
 10
1.662748906757643
 20
0.5321411326079058
 30
0.0
 11
1.604000343951777
 21
0.4312691364947852
 31
0.0
  0
LINE
  5
222C
330
22B0
100
AcDbEntity
  8
TEXT
100
AcDbLine
 10
1.759679532117384
 20
0.348055937722394
 30
0.0
 11
1.759679532117384
 21
0.6001526103467163
 31
0.0
  0
LINE
  5
222D
330
22B0
100
AcDbEntity
  8
TEXT
100
AcDbLine
 10
1.791991386255044
 20
0.5321411326079058
 30
0.0
 11
1.791991386255044
 21
0.3312769258754975
 31
0.0
  0
LINE
  5
222E
330
22B0
100
AcDbEntity
  8
TEXT
100
AcDbLine
 10
1.791991386255044
 20
0.3312769258754975
 30
0.0
 11
1.774997749370443
 21
0.3312769258754975
 31
0.0
  0
LINE
  5
222F
330
22B0
100
AcDbEntity
  8
TEXT
100
AcDbLine
 10
1.760819105613579
 20
0.2656680996193947
 30
0.0
 11
1.858822439313014
 21
0.2656680996193947
 31
0.0
  0
LINE
  5
2230
330
22B0
100
AcDbEntity
  8
TEXT
100
AcDbLine
 10
1.594400106954823
 20
0.2856266057244077
 30
0.0
 11
1.691699813048268
 21
0.4499768166596759
 31
0.0
  0
ARC
  5
2231
330
22B0
100
AcDbEntity
  8
TEXT
100
AcDbCircle
 10
1.560356547042609
 20
0.3052158218930905
 30
0.0
 40
0.0392772371940762
100
AcDbArc
 50
270.1604552698595
 51
330.0831797321295
  0
LINE
  5
2232
330
22B0
100
AcDbEntity
  8
TEXT
100
AcDbLine
 10
1.463826290656738
 20
0.2656680996193947
 30
0.0
 11
1.560466541731732
 21
0.265938738717677
 31
0.0
  0
LWPOLYLINE
  5
2233
330
22B0
100
AcDbEntity
  8
TEXT
100
AcDbPolyline
 90
        6
 70
     1
 43
0.0
 10
1.506350094231887
 20
0.4678644379511403
 10
1.476033500011679
 20
0.4678644379511403
 10
1.476033500011679
 20
0.344753439896246
 42
0.407328721240804
 10
1.487577151173156
 20
0.3329345252198599
 10
1.548198850217886
 20
0.3329345252198599
 10
1.565664190625204
 20
0.365746754263339
  0
LINE
  5
223B
330
22B0
100
AcDbEntity
  8
TEXT
100
AcDbLine
 10
1.691699813048268
 20
0.4499768166596759
 30
0.0
 11
1.691699813048268
 21
0.3172194418343195
 31
0.0
  0
ARC
  5
223C
330
22B0
100
AcDbEntity
  8
TEXT
100
AcDbCircle
 10
1.774997749370441
 20
0.3466587321189229
 30
0.0
 40
0.0153818062434269
100
AcDbArc
 50
174.7883570302258
 51
270.0
  0
LWPOLYLINE
  5
223D
330
22B0
100
AcDbEntity
  8
TEXT
100
AcDbPolyline
 90
        2
 70
     0
 43
0.0
 10
1.691699813048266
 20
0.317219441834323
 42
0.3318488747599744
 10
1.760819105613579
 20
0.2656680996193947
 42
-6.868794160588311
  0
LINE
  5
2241
330
22B0
100
AcDbEntity
  8
TEXT
100
AcDbLine
 10
1.916211508302275
 20
0.2656680996193947
 30
0.0
 11
1.983269555084115
 21
0.2656680996193947
 31
0.0
  0
LINE
  5
2242
330
22B0
100
AcDbEntity
  8
TEXT
100
AcDbLine
 10
1.916211508302275
 20
0.4603106487850304
 30
0.0
 11
1.916211508302275
 21
0.2656680996193947
 31
0.0
  0
LINE
  5
2243
330
22B0
100
AcDbEntity
  8
TEXT
100
AcDbLine
 10
1.858822439313014
 20
0.4678644379511403
 30
0.0
 11
1.908657719136161
 21
0.4678644379511403
 31
0.0
  0
LINE
  5
2244
330
22B0
100
AcDbEntity
  8
TEXT
100
AcDbLine
 10
1.858822439313014
 20
0.2656680996193947
 30
0.0
 11
1.858822439313014
 21
0.4678644379511403
 31
0.0
  0
LWPOLYLINE
  5
2245
330
22B0
100
AcDbEntity
  8
TEXT
100
AcDbPolyline
 90
        2
 70
     0
 43
0.0
 10
1.908657719136159
 20
0.4678644379511403
 42
-0.4142135623731017
 10
1.916211508302273
 20
0.4603106487850304
 42
-0.9999999999999998
  0
LINE
  5
2249
330
22B0
100
AcDbEntity
  8
TEXT
100
AcDbLine
 10
2.114467719913844
 20
0.4678644379511403
 30
0.0
 11
2.114467719913844
 21
0.3928120318769337
 31
0.0
  0
LINE
  5
224A
330
22B0
100
AcDbEntity
  8
TEXT
100
AcDbLine
 10
1.983269555084115
 20
0.4678644379511403
 30
0.0
 11
2.037403152005065
 21
0.4678644379511403
 31
0.0
  0
LINE
  5
224B
330
22B0
100
AcDbEntity
  8
TEXT
100
AcDbLine
 10
1.983269555084115
 20
0.2656680996193947
 30
0.0
 11
1.983269555084115
 21
0.4678644379511403
 31
0.0
  0
LWPOLYLINE
  5
224C
330
22B0
100
AcDbEntity
  8
TEXT
100
AcDbPolyline
 90
        2
 70
     0
 43
0.0
 10
2.037403152005063
 20
0.4678644379511403
 42
-0.4142135623731017
 10
2.044956941171176
 20
0.4603106487850304
 42
-0.9999999999999998
  0
LWPOLYLINE
  5
2250
330
22B0
100
AcDbEntity
  8
TEXT
100
AcDbPolyline
 90
        4
 70
     0
 43
0.0
 10
2.044956941171176
 20
0.4603106487850304
 10
2.044956941171176
 20
0.2656680996193947
 10
2.113435224459034
 20
0.2656680996193947
 10
2.113435224459034
 20
0.3091590445698329
 42
-1.714843617202739
  0
LINE
  5
2256
330
22B0
100
AcDbEntity
  8
TEXT
100
AcDbLine
 10
1.473571056775932
 20
0.5321411326079058
 30
0.0
 11
1.473571056775932
 21
0.566529050202044
 31
0.0
  0
LINE
  5
2257
330
22B0
100
AcDbEntity
  8
TEXT
100
AcDbLine
 10
1.545370022919839
 20
0.5321411326079058
 30
0.0
 11
1.473571056775932
 21
0.5321411326079058
 31
0.0
  0
LINE
  5
2258
330
22B0
100
AcDbEntity
  8
TEXT
100
AcDbLine
 10
1.692870819551019
 20
0.5321411326079058
 30
0.0
 11
1.662748906757643
 21
0.5321411326079058
 31
0.0
  0
LINE
  5
2259
330
22B0
100
AcDbEntity
  8
TEXT
100
AcDbLine
 10
1.692870819551019
 20
0.6001526103467163
 30
0.0
 11
1.692870819551019
 21
0.5321411326079058
 31
0.0
  0
LINE
  5
225A
330
22B0
100
AcDbEntity
  8
TEXT
100
AcDbLine
 10
1.759679532117384
 20
0.6001526103467163
 30
0.0
 11
1.692870819551019
 21
0.6001526103467163
 31
0.0
  0
LWPOLYLINE
  5
225B
330
22B0
100
AcDbEntity
  8
TEXT
100
AcDbPolyline
 90
        3
 70
     0
 43
0.0
 10
2.080091291715386
 20
0.5321411326079093
 10
1.961791132899342
 20
0.5321411326079093
 10
1.961791132899342
 20
0.5049736358470134
 42
-1.960274751411753
  0
LINE
  5
2260
330
22B0
100
AcDbEntity
  8
TEXT
100
AcDbLine
 10
1.926009442186181
 20
0.5321411326079058
 30
0.0
 11
1.791991386255044
 21
0.5321411326079058
 31
0.0
  0
LWPOLYLINE
  5
2261
330
22B0
100
AcDbEntity
  8
TEXT
100
AcDbPolyline
 90
        2
 70
     0
 43
0.0
 10
1.926009442186181
 20
0.5321411326079093
 42
-0.3328679258950098
 10
1.961791132899342
 20
0.5049736358470134
 42
6.772930709997214
  0
LINE
  5
2265
330
22B0
100
AcDbEntity
  8
TEXT
100
AcDbLine
 10
2.115872982428553
 20
0.5321411326079058
 30
0.0
 11
2.115872982428553
 21
0.5038185868382619
 31
0.0
  0
LWPOLYLINE
  5
2266
330
22B0
100
AcDbEntity
  8
TEXT
100
AcDbPolyline
 90
        2
 70
     0
 43
0.0
 10
2.080091291715386
 20
0.5321411326079093
 42
-0.3277054968067132
 10
2.115872982428551
 20
0.5038185868382655
 42
6.667889725900311
  0
LINE
  5
226A
330
22B0
100
AcDbEntity
  8
TEXT
100
AcDbLine
 10
2.329664830520653
 20
0.4269291540544784
 30
0.0
 11
2.285914059338752
 21
0.5091794300506236
 31
0.0
  0
LINE
  5
226B
330
22B0
100
AcDbEntity
  8
TEXT
100
AcDbLine
 10
2.329664830520653
 20
0.5321411326079058
 30
0.0
 11
2.329664830520653
 21
0.4269291540544784
 31
0.0
  0
LINE
  5
226C
330
22B0
100
AcDbEntity
  8
TEXT
100
AcDbLine
 10
2.557348569459022
 20
0.4562758061963677
 30
0.0
 11
2.557348569459022
 21
0.5976053383755065
 31
0.0
  0
LINE
  5
226D
330
22B0
100
AcDbEntity
  8
TEXT
100
AcDbLine
 10
2.604446728015007
 20
0.5321411326079058
 30
0.0
 11
2.557348569459022
 21
0.4562758061963677
 31
0.0
  0
LINE
  5
226E
330
22B0
100
AcDbEntity
  8
TEXT
100
AcDbLine
 10
2.61488144477893
 20
0.4222478896669322
 30
0.0
 11
2.679438560744635
 21
0.5321411326079058
 31
0.0
  0
LINE
  5
226F
330
22B0
100
AcDbEntity
  8
TEXT
100
AcDbLine
 10
2.493513578236249
 20
0.2656680996193947
 30
0.0
 11
2.55789176255487
 21
0.2656680996193947
 31
0.0
  0
LWPOLYLINE
  5
2270
330
22B0
100
AcDbEntity
  8
TEXT
100
AcDbPolyline
 90
        2
 70
     0
 43
0.0
 10
2.333604507825691
 20
0.3091590445698329
 42
-0.2901071551932486
 10
2.290528574958047
 20
0.2656680996193947
 42
-5.328517124445184
  0
ARC
  5
2274
330
22B0
100
AcDbEntity
  8
TEXT
100
AcDbCircle
 10
2.221673993301132
 20
0.439505062951143
 30
0.0
 40
0.028359375
100
AcDbArc
 50
25.78218179591245
 51
90.0
  0
LINE
  5
2275
330
22B0
100
AcDbEntity
  8
TEXT
100
AcDbLine
 10
2.257475068605255
 20
0.4305894644890081
 30
0.0
 11
2.247210308191691
 21
0.4518400040617024
 31
0.0
  0
LINE
  5
2276
330
22B0
100
AcDbEntity
  8
TEXT
100
AcDbLine
 10
2.175187078821872
 20
0.4305894644890081
 30
0.0
 11
2.257475068605255
 21
0.4305894644890081
 31
0.0
  0
LWPOLYLINE
  5
2277
330
22B0
100
AcDbEntity
  8
TEXT
100
AcDbPolyline
 90
        4
 70
     1
 43
0.0
 10
2.270406109888154
 20
0.36863207760342
 10
2.181745791228296
 20
0.36863207760342
 42
0.9999999999999998
 10
2.181745791228296
 20
0.3262335370995593
 10
2.270406109888154
 20
0.3262335370995593
 42
1.0
  0
LWPOLYLINE
  5
227D
330
22B0
100
AcDbEntity
  8
TEXT
100
AcDbPolyline
 90
        2
 70
     0
 43
0.0
 10
2.15651115732667
 20
0.2656680996193947
 10
2.290528574958047
 20
0.2656680996193947
 42
0.9999999999999998
  0
LINE
  5
2281
330
22B0
100
AcDbEntity
  8
TEXT
100
AcDbLine
 10
2.416865596943686
 20
0.4678644379511403
 30
0.0
 11
2.493513578236244
 21
0.4678644379511403
 31
0.0
  0
LINE
  5
2282
330
22B0
100
AcDbEntity
  8
TEXT
100
AcDbLine
 10
2.493513578236244
 20
0.4678644379511403
 30
0.0
 11
2.493513578236249
 21
0.2656680996193947
 31
0.0
  0
ARC
  5
2283
330
22B0
100
AcDbEntity
  8
TEXT
100
AcDbCircle
 10
2.416865596943684
 20
0.4429585626684776
 30
0.0
 40
0.0249058752826653
100
AcDbArc
 50
89.99971217465335
 51
179.9999999999985
  0
LINE
  5
2284
330
22B0
100
AcDbEntity
  8
TEXT
100
AcDbLine
 10
2.391959721661027
 20
0.2656680996193947
 30
0.0
 11
2.391959721661021
 21
0.4429586050508632
 31
0.0
  0
LWPOLYLINE
  5
2285
330
22B0
100
AcDbEntity
  8
TEXT
100
AcDbPolyline
 90
        2
 70
     0
 43
0.0
 10
2.333604507825691
 20
0.2656680996193947
 10
2.391959721661025
 20
0.2656680996193947
  0
LWPOLYLINE
  5
2289
330
22B0
100
AcDbEntity
  8
TEXT
100
AcDbPolyline
 90
        2
 70
     0
 43
0.0
 10
2.333604507825691
 20
0.3091590445698329
 10
2.333604507825691
 20
0.2656680996193947
  0
LINE
  5
228D
330
22B0
100
AcDbEntity
  8
TEXT
100
AcDbLine
 10
2.71037366814254
 20
0.2656680996193947
 30
0.0
 11
2.61488144477893
 21
0.4222478896669322
 31
0.0
  0
LINE
  5
228E
330
22B0
100
AcDbEntity
  8
TEXT
100
AcDbLine
 10
2.633795295766334
 20
0.2656680996193947
 30
0.0
 11
2.71037366814254
 21
0.2656680996193947
 31
0.0
  0
LINE
  5
228F
330
22B0
100
AcDbEntity
  8
TEXT
100
AcDbLine
 10
2.55789176255487
 20
0.397247668095575
 30
0.0
 11
2.633795295766334
 21
0.2656680996193947
 31
0.0
  0
LINE
  5
2290
330
22B0
100
AcDbEntity
  8
TEXT
100
AcDbLine
 10
2.55789176255487
 20
0.2656680996193947
 30
0.0
 11
2.55789176255487
 21
0.397247668095575
 31
0.0
  0
LINE
  5
2291
330
22B0
100
AcDbEntity
  8
TEXT
100
AcDbLine
 10
2.557348569459022
 20
0.5976053383755065
 30
0.0
 11
2.489033690909749
 21
0.5976053383755065
 31
0.0
  0
ARC
  5
2292
330
22B0
100
AcDbEntity
  8
TEXT
100
AcDbCircle
 10
2.248677951868543
 20
0.4905575654870034
 30
0.0
 40
0.0416329381542859
100
AcDbArc
 50
26.56974201007528
 51
87.20939649401342
  0
LINE
  5
2293
330
22B0
100
AcDbEntity
  8
TEXT
100
AcDbLine
 10
2.393561736820154
 20
0.5321411326079058
 30
0.0
 11
2.329664830520653
 21
0.5321411326079058
 31
0.0
  0
LINE
  5
2294
330
22B0
100
AcDbEntity
  8
TEXT
100
AcDbLine
 10
2.393561736820154
 20
0.5045934827470311
 30
0.0
 11
2.393561736820154
 21
0.5321411326079058
 31
0.0
  0
ARC
  5
2295
330
22B0
100
AcDbEntity
  8
TEXT
100
AcDbCircle
 10
2.424754553883262
 20
0.500895405325641
 30
0.0
 40
0.0314112657011332
100
AcDbArc
 50
95.88484768694724
 51
173.2388340632136
  0
LINE
  5
2296
330
22B0
100
AcDbEntity
  8
TEXT
100
AcDbLine
 10
2.489033690909744
 20
0.5321411326079058
 30
0.0
 11
2.421533973260227
 21
0.5321411326079058
 31
0.0
  0
LINE
  5
2297
330
22B0
100
AcDbEntity
  8
TEXT
100
AcDbLine
 10
2.489033690909749
 20
0.5976053383755065
 30
0.0
 11
2.489033690909744
 21
0.5321411326079058
 31
0.0
  0
LINE
  5
2298
330
22B0
100
AcDbEntity
  8
TEXT
100
AcDbLine
 10
2.679438560744635
 20
0.5321411326079058
 30
0.0
 11
2.604446728015008
 21
0.5321411326079058
 31
0.0
  0
ENDSEC
  0
SECTION
  2
OBJECTS
  0
DICTIONARY
  5
22A4
330
0
100
AcDbDictionary
  3
ACAD_GROUP
350
22A5
  3
ACAD_LAYOUT
350
22CA
  3
ACAD_MLINESTYLE
350
22A6
  3
ACAD_PLOTSETTINGS
350
22CB
  3
ACAD_PLOTSTYLENAME
350
22C8
  3
ACDBHEADERROUNDTRIPXREC
350
22D5
  3
ACDBVARIABLEDICTIONARY
350
22D2
  0
DICTIONARY
  5
22F7
330
22B0
100
AcDbDictionary
280
     1
  3
ACAD_LAYOUTSELFREF
360
22F8
  0
DICTIONARY
  5
22F5
330
22AD
100
AcDbDictionary
280
     1
  3
ACAD_LAYOUTSELFREF
360
22F6
  0
DICTIONARY
  5
22A5
102
{ACAD_REACTORS
330
22A4
102
}
330
22A4
100
AcDbDictionary
  0
DICTIONARY
  5
22CA
102
{ACAD_REACTORS
330
22A4
102
}
330
22A4
100
AcDbDictionary
  0
DICTIONARY
  5
22A6
102
{ACAD_REACTORS
330
22A4
102
}
330
22A4
100
AcDbDictionary
  3
STANDARD
350
22B3
  0
DICTIONARY
  5
22CB
102
{ACAD_REACTORS
330
22A4
102
}
330
22A4
100
AcDbDictionary
  0
ACDBDICTIONARYWDFLT
  5
22C8
102
{ACAD_REACTORS
330
22A4
102
}
330
22A4
100
AcDbDictionary
281
     1
  3
Normal
350
22C9
100
AcDbDictionaryWithDefault
340
22C9
  0
DICTIONARY
  5
22D5
102
{ACAD_REACTORS
330
22A4
102
}
330
22A4
100
AcDbDictionary
  3
CEPSNTYPE
350
22DF
  3
FINGERPRINTGUID
350
22E0
  3
HYPERLINKBASE
350
22D8
  3
INSUNITS
350
22DE
  3
LAYOUTDICT
350
22DA
  3
LWETCUNION
350
22DD
  3
PLOTSETDICT
350
22DB
  3
PLOTSTYLNAMDICT
350
22DC
  3
PSVPSCALE
350
22E2
  3
PUCSBASE
350
22E5
  3
PUCSORGBACK
350
22EB
  3
PUCSORGBOTTOM
350
22E7
  3
PUCSORGFRONT
350
22EA
  3
PUCSORGLEFT
350
22E8
  3
PUCSORGRIGHT
350
22E9
  3
PUCSORGTOP
350
22E6
  3
PUCSORTHOREF
350
22E3
  3
PUCSORTHOVIEW
350
22E4
  3
STYLESHEET
350
22D9
  3
TSTACKALIGN
350
22D6
  3
TSTACKSIZE
350
22D7
  3
UCSBASE
350
22EE
  3
UCSORGBACK
350
22F4
  3
UCSORGBOTTOM
350
22F0
  3
UCSORGFRONT
350
22F3
  3
UCSORGLEFT
350
22F1
  3
UCSORGRIGHT
350
22F2
  3
UCSORGTOP
350
22EF
  3
UCSORTHOREF
350
22EC
  3
UCSORTHOVIEW
350
22ED
  3
VERSIONGUID
350
22E1
  0
DICTIONARY
  5
22D2
102
{ACAD_REACTORS
330
22A4
102
}
330
22A4
100
AcDbDictionary
  3
DIMASSOC
350
22D3
  0
XRECORD
  5
22F8
102
{ACAD_REACTORS
330
22F7
102
}
330
22F7
100
AcDbXrecord
340
22B0
  0
XRECORD
  5
22F6
102
{ACAD_REACTORS
330
22F5
102
}
330
22F5
100
AcDbXrecord
340
22AD
  0
MLINESTYLE
  5
22B3
102
{ACAD_REACTORS
330
22A6
102
}
330
22A6
100
AcDbMlineStyle
  2
STANDARD
 70
     0
  3

 62
     0
 51
90.0
 52
90.0
 71
     2
 49
0.5
 62
   256
  6
BYLAYER
 49
-0.5
 62
   256
  6
BYLAYER
  0
ACDBPLACEHOLDER
  5
22C9
102
{ACAD_REACTORS
330
22C8
102
}
330
22C8
100
AcDbPlaceHolder
280
     0
  0
XRECORD
  5
22DF
102
{ACAD_REACTORS
330
22D5
102
}
330
22D5
100
AcDbXrecord
 90
        0
  0
XRECORD
  5
22E0
102
{ACAD_REACTORS
330
22D5
102
}
330
22D5
100
AcDbXrecord
  1
{E7E957D0-8DB3-11D6-88E6-0090279574E7}
  0
XRECORD
  5
22D8
102
{ACAD_REACTORS
330
22D5
102
}
330
22D5
100
AcDbXrecord
  1

  0
XRECORD
  5
22DE
102
{ACAD_REACTORS
330
22D5
102
}
330
22D5
100
AcDbXrecord
 90
        0
  0
XRECORD
  5
22DA
102
{ACAD_REACTORS
330
22D5
102
}
330
22D5
100
AcDbXrecord
340
22CA
  0
XRECORD
  5
22DD
102
{ACAD_REACTORS
330
22D5
102
}
330
22D5
100
AcDbXrecord
 90
    14877
  0
XRECORD
  5
22DB
102
{ACAD_REACTORS
330
22D5
102
}
330
22D5
100
AcDbXrecord
340
22CB
  0
XRECORD
  5
22DC
102
{ACAD_REACTORS
330
22D5
102
}
330
22D5
100
AcDbXrecord
340
22C8
  0
XRECORD
  5
22E2
102
{ACAD_REACTORS
330
22D5
102
}
330
22D5
100
AcDbXrecord
 40
0.0
  0
XRECORD
  5
22E5
102
{ACAD_REACTORS
330
22D5
102
}
330
22D5
100
AcDbXrecord
340
0
  0
XRECORD
  5
22EB
102
{ACAD_REACTORS
330
22D5
102
}
330
22D5
100
AcDbXrecord
 10
0.0
 20
0.0
 30
0.0
  0
XRECORD
  5
22E7
102
{ACAD_REACTORS
330
22D5
102
}
330
22D5
100
AcDbXrecord
 10
0.0
 20
0.0
 30
0.0
  0
XRECORD
  5
22EA
102
{ACAD_REACTORS
330
22D5
102
}
330
22D5
100
AcDbXrecord
 10
0.0
 20
0.0
 30
0.0
  0
XRECORD
  5
22E8
102
{ACAD_REACTORS
330
22D5
102
}
330
22D5
100
AcDbXrecord
 10
0.0
 20
0.0
 30
0.0
  0
XRECORD
  5
22E9
102
{ACAD_REACTORS
330
22D5
102
}
330
22D5
100
AcDbXrecord
 10
0.0
 20
0.0
 30
0.0
  0
XRECORD
  5
22E6
102
{ACAD_REACTORS
330
22D5
102
}
330
22D5
100
AcDbXrecord
 10
0.0
 20
0.0
 30
0.0
  0
XRECORD
  5
22E3
102
{ACAD_REACTORS
330
22D5
102
}
330
22D5
100
AcDbXrecord
340
0
  0
XRECORD
  5
22E4
102
{ACAD_REACTORS
330
22D5
102
}
330
22D5
100
AcDbXrecord
 70
     0
  0
XRECORD
  5
22D9
102
{ACAD_REACTORS
330
22D5
102
}
330
22D5
100
AcDbXrecord
  1

  0
XRECORD
  5
22D6
102
{ACAD_REACTORS
330
22D5
102
}
330
22D5
100
AcDbXrecord
 90
        1
  0
XRECORD
  5
22D7
102
{ACAD_REACTORS
330
22D5
102
}
330
22D5
100
AcDbXrecord
 90
       70
  0
XRECORD
  5
22EE
102
{ACAD_REACTORS
330
22D5
102
}
330
22D5
100
AcDbXrecord
340
0
  0
XRECORD
  5
22F4
102
{ACAD_REACTORS
330
22D5
102
}
330
22D5
100
AcDbXrecord
 10
0.0
 20
0.0
 30
0.0
  0
XRECORD
  5
22F0
102
{ACAD_REACTORS
330
22D5
102
}
330
22D5
100
AcDbXrecord
 10
0.0
 20
0.0
 30
0.0
  0
XRECORD
  5
22F3
102
{ACAD_REACTORS
330
22D5
102
}
330
22D5
100
AcDbXrecord
 10
0.0
 20
0.0
 30
0.0
  0
XRECORD
  5
22F1
102
{ACAD_REACTORS
330
22D5
102
}
330
22D5
100
AcDbXrecord
 10
0.0
 20
0.0
 30
0.0
  0
XRECORD
  5
22F2
102
{ACAD_REACTORS
330
22D5
102
}
330
22D5
100
AcDbXrecord
 10
0.0
 20
0.0
 30
0.0
  0
XRECORD
  5
22EF
102
{ACAD_REACTORS
330
22D5
102
}
330
22D5
100
AcDbXrecord
 10
0.0
 20
0.0
 30
0.0
  0
XRECORD
  5
22EC
102
{ACAD_REACTORS
330
22D5
102
}
330
22D5
100
AcDbXrecord
340
0
  0
XRECORD
  5
22ED
102
{ACAD_REACTORS
330
22D5
102
}
330
22D5
100
AcDbXrecord
 70
     0
  0
XRECORD
  5
22E1
102
{ACAD_REACTORS
330
22D5
102
}
330
22D5
100
AcDbXrecord
  1
{E7E957D2-8DB3-11D6-88E6-0090279574E7}
  0
DICTIONARYVAR
  5
22D3
102
{ACAD_REACTORS
330
22D2
102
}
330
22D2
100
DictionaryVariables
280
     0
  1
1
  0
ENDSEC
  0
EOF
