  0
SECTION
  2
HEADER
  9
$ACADVER
  1
AC1014
  9
$ACADMAINTVER
 70
     9
  9
$DWGCODEPAGE
  3
ANSI_1252
  9
$INSBASE
 10
1.666518090063521
 20
2.009039944924489
 30
0.0
  9
$EXTMIN
 10
-0.0764634891636214
 20
1.191646340841907
 30
0.0
  9
$EXTMAX
 10
3.408755832583506
 20
2.071539944924489
 30
0.0
  9
$LIMMIN
 10
0.0
 20
0.0
  9
$LIMMAX
 10
18.0
 20
12.0
  9
$ORTHOMODE
 70
     1
  9
$REGENMODE
 70
     1
  9
$FILLMODE
 70
     1
  9
$QTEXTMODE
 70
     0
  9
$MIRRTEXT
 70
     0
  9
$DRAGMODE
 70
     2
  9
$LTSCALE
 40
1.0
  9
$OSMODE
 70
    39
  9
$ATTMODE
 70
     1
  9
$TEXTSIZE
 40
0.125
  9
$TRACEWID
 40
0.05
  9
$TEXTSTYLE
  7
ROMANS
  9
$CLAYER
  8
0
  9
$CELTYPE
  6
BYLAYER
  9
$CECOLOR
 62
   256
  9
$CELTSCALE
 40
1.0
  9
$DELOBJ
 70
     1
  9
$DISPSILH
 70
     1
  9
$DIMSCALE
 40
1.0
  9
$DIMASZ
 40
0.125
  9
$DIMEXO
 40
0.125
  9
$DIMDLI
 40
0.375
  9
$DIMRND
 40
0.0
  9
$DIMDLE
 40
0.0
  9
$DIMEXE
 40
0.125
  9
$DIMTP
 40
0.0
  9
$DIMTM
 40
0.0
  9
$DIMTXT
 40
0.125
  9
$DIMCEN
 40
-0.125
  9
$DIMTSZ
 40
0.0
  9
$DIMTOL
 70
     0
  9
$DIMLIM
 70
     0
  9
$DIMTIH
 70
     1
  9
$DIMTOH
 70
     1
  9
$DIMSE1
 70
     0
  9
$DIMSE2
 70
     0
  9
$DIMTAD
 70
     0
  9
$DIMZIN
 70
     4
  9
$DIMBLK
  1

  9
$DIMASO
 70
     1
  9
$DIMSHO
 70
     1
  9
$DIMPOST
  1

  9
$DIMAPOST
  1

  9
$DIMALT
 70
     0
  9
$DIMALTD
 70
     2
  9
$DIMALTF
 40
25.4
  9
$DIMLFAC
 40
1.0
  9
$DIMTOFL
 70
     0
  9
$DIMTVP
 40
0.0
  9
$DIMTIX
 70
     1
  9
$DIMSOXD
 70
     0
  9
$DIMSAH
 70
     0
  9
$DIMBLK1
  1

  9
$DIMBLK2
  1

  9
$DIMSTYLE
  2
STANDARD
  9
$DIMCLRD
 70
     0
  9
$DIMCLRE
 70
     0
  9
$DIMCLRT
 70
     0
  9
$DIMTFAC
 40
1.0
  9
$DIMGAP
 40
0.09
  9
$DIMJUST
 70
     0
  9
$DIMSD1
 70
     0
  9
$DIMSD2
 70
     0
  9
$DIMTOLJ
 70
     1
  9
$DIMTZIN
 70
     4
  9
$DIMALTZ
 70
     0
  9
$DIMALTTZ
 70
     0
  9
$DIMFIT
 70
     3
  9
$DIMUPT
 70
     0
  9
$DIMUNIT
 70
     2
  9
$DIMDEC
 70
     3
  9
$DIMTDEC
 70
     3
  9
$DIMALTU
 70
     2
  9
$DIMALTTD
 70
     2
  9
$DIMTXSTY
  7
ROMANS
  9
$DIMAUNIT
 70
     0
  9
$LUNITS
 70
     2
  9
$LUPREC
 70
     3
  9
$SKETCHINC
 40
0.1
  9
$FILLETRAD
 40
0.03125
  9
$AUNITS
 70
     0
  9
$AUPREC
 70
     0
  9
$MENU
  1
ACAD
  9
$ELEVATION
 40
0.0
  9
$PELEVATION
 40
0.0
  9
$THICKNESS
 40
0.0
  9
$LIMCHECK
 70
     0
  9
$BLIPMODE
 70
     0
  9
$CHAMFERA
 40
0.0
  9
$CHAMFERB
 40
0.0
  9
$CHAMFERC
 40
0.0
  9
$CHAMFERD
 40
0.0
  9
$SKPOLY
 70
     0
  9
$TDCREATE
 40
2448993.524110532
  9
$TDUPDATE
 40
2452458.294953495
  9
$TDINDWG
 40
0.0007036574
  9
$TDUSRTIMER
 40
0.0007037731
  9
$USRTIMER
 70
     1
  9
$ANGBASE
 50
0.0
  9
$ANGDIR
 70
     0
  9
$PDMODE
 70
     0
  9
$PDSIZE
 40
0.0
  9
$PLINEWID
 40
0.0
  9
$COORDS
 70
     2
  9
$SPLFRAME
 70
     0
  9
$SPLINETYPE
 70
     6
  9
$SPLINESEGS
 70
     8
  9
$ATTDIA
 70
     0
  9
$ATTREQ
 70
     1
  9
$HANDLING
 70
 22529
  9
$HANDSEED
  5
1F786CD0F681A4
  9
$SURFTAB1
 70
     6
  9
$SURFTAB2
 70
     6
  9
$SURFTYPE
 70
     6
  9
$SURFU
 70
     6
  9
$SURFV
 70
     6
  9
$UCSNAME
  2

  9
$UCSORG
 10
0.0
 20
0.0
 30
0.0
  9
$UCSXDIR
 10
1.0
 20
0.0
 30
0.0
  9
$UCSYDIR
 10
0.0
 20
1.0
 30
0.0
  9
$PUCSNAME
  2

  9
$PUCSORG
 10
0.0
 20
0.0
 30
0.0
  9
$PUCSXDIR
 10
1.0
 20
0.0
 30
0.0
  9
$PUCSYDIR
 10
0.0
 20
1.0
 30
0.0
  9
$USERI1
 70
     0
  9
$USERI2
 70
     0
  9
$USERI3
 70
     0
  9
$USERI4
 70
     0
  9
$USERI5
 70
     0
  9
$USERR1
 40
0.0
  9
$USERR2
 40
0.0
  9
$USERR3
 40
0.0
  9
$USERR4
 40
0.0
  9
$USERR5
 40
0.0
  9
$WORLDVIEW
 70
     1
  9
$SHADEDGE
 70
     3
  9
$SHADEDIF
 70
    70
  9
$TILEMODE
 70
     1
  9
$MAXACTVP
 70
    16
  9
$PINSBASE
 10
1.020652587255153
 20
50.00000000000001
 30
1.429878036489774
  9
$PLIMCHECK
 70
     0
  9
$PEXTMIN
 10
1.000000000000000E+20
 20
1.000000000000000E+20
 30
1.000000000000000E+20
  9
$PEXTMAX
 10
-1.000000000000000E+20
 20
-1.000000000000000E+20
 30
-1.000000000000000E+20
  9
$PLIMMIN
 10
0.0
 20
0.0
  9
$PLIMMAX
 10
12.0
 20
9.0
  9
$UNITMODE
 70
     0
  9
$VISRETAIN
 70
     0
  9
$PLINEGEN
 70
     1
  9
$PSLTSCALE
 70
     0
  9
$TREEDEPTH
 70
  3020
  9
$PICKSTYLE
 70
     1
  9
$CMLSTYLE
  2
STANDARD
  9
$CMLJUST
 70
     0
  9
$CMLSCALE
 40
1.0
  9
$PROXYGRAPHICS
 70
     1
  9
$MEASUREMENT
 70
     0
  0
ENDSEC
  0
SECTION
  2
CLASSES
  0
CLASS
  1
LWPOLYLINE
  2
AcDbPolyline
  3
AutoCAD 2000
 90
        0
280
     0
281
     1
  0
CLASS
  1
ACDBDICTIONARYWDFLT
  2
AcDbDictionaryWithDefault
  3
AutoCAD 2000
 90
        0
280
     0
281
     0
  0
CLASS
  1
ACDBPLACEHOLDER
  2
AcDbPlaceHolder
  3
AutoCAD 2000
 90
        0
280
     0
281
     0
  0
CLASS
  1
LAYOUT
  2
AcDbLayout
  3
AutoCAD 2000
 90
        0
280
     0
281
     0
  0
CLASS
  1
DICTIONARYVAR
  2
AcDbDictionaryVar
  3
AutoCAD 2000
 90
        0
280
     0
281
     0
  0
CLASS
  1
LONG_TRANSACTION
  2
AcDbLongTransaction
  3
AutoCAD 2000
 90
        0
280
     0
281
     0
  0
CLASS
  1
LWPOLYLINE
  2
AcDbPolyline
  3
AutoCAD 2000
 90
        0
280
     0
281
     1
  0
CLASS
  1
HATCH
  2
AcDbHatch
  3
AutoCAD 2000
 90
        0
280
     0
281
     1
  0
CLASS
  1
XRECORD
  2
AcDbXrecord
  3
AutoCAD 2000
 90
        0
280
     0
281
     0
  0
ENDSEC
  0
SECTION
  2
TABLES
  0
TABLE
  2
VPORT
  5
1F786CD0F6814B
330
0
100
AcDbSymbolTable
 70
     2
  0
VPORT
  5
1F786CD0F6817F
330
1F786CD0F6814B
100
AcDbSymbolTableRecord
100
AcDbViewportTableRecord
  2
*ACTIVE
 70
     0
 10
0.0
 20
0.0
 11
1.0
 21
1.0
 12
4.642228719314688
 22
1.63156130215102
 13
0.0
 23
0.0
 14
0.015625
 24
0.015625
 15
0.0
 25
0.0
 16
0.0
 26
0.0
 36
1.0
 17
0.0
 27
0.0
 37
0.0
 40
2.282412452382126
 41
4.320930232558139
 42
50.0
 43
0.0
 44
0.0
 50
0.0
 51
0.0
 71
     0
 72
  2000
 73
     1
 74
     0
 75
     1
 76
     0
 77
     0
 78
     0
  0
ENDTAB
  0
TABLE
  2
LTYPE
  5
1F786CD0F68148
330
0
100
AcDbSymbolTable
 70
     1
  0
LTYPE
  5
1F786CD0F68155
330
1F786CD0F68148
100
AcDbSymbolTableRecord
100
AcDbLinetypeTableRecord
  2
BYBLOCK
 70
     0
  3

 72
    65
 73
     0
 40
0.0
  0
LTYPE
  5
1F786CD0F68156
330
1F786CD0F68148
100
AcDbSymbolTableRecord
100
AcDbLinetypeTableRecord
  2
BYLAYER
 70
     0
  3

 72
    65
 73
     0
 40
0.0
  0
LTYPE
  5
1F786CD0F68157
330
1F786CD0F68148
100
AcDbSymbolTableRecord
100
AcDbLinetypeTableRecord
  2
CONTINUOUS
 70
     0
  3
Solid line
 72
    65
 73
     0
 40
0.0
  0
ENDTAB
  0
TABLE
  2
LAYER
  5
1F786CD0F68145
330
0
100
AcDbSymbolTable
 70
     2
  0
LAYER
  5
1F786CD0F68152
330
1F786CD0F68145
100
AcDbSymbolTableRecord
100
AcDbLayerTableRecord
  2
0
 70
     0
 62
     7
  6
CONTINUOUS
  0
LAYER
  5
1F786CD0F68162
330
1F786CD0F68145
100
AcDbSymbolTableRecord
100
AcDbLayerTableRecord
  2
TEXT
 70
     0
 62
     3
  6
CONTINUOUS
  0
ENDTAB
  0
TABLE
  2
STYLE
  5
1F786CD0F68146
330
0
100
AcDbSymbolTable
 70
     3
  0
STYLE
  5
1F786CD0F68153
330
1F786CD0F68146
100
AcDbSymbolTableRecord
100
AcDbTextStyleTableRecord
  2
STANDARD
 70
     0
 40
0.0
 41
1.0
 50
0.0
 71
     0
 42
0.3125
  3
txt
  4

  0
STYLE
  5
1F786CD0F6815F
330
1F786CD0F68146
100
AcDbSymbolTableRecord
100
AcDbTextStyleTableRecord
  2
ITALICC
 70
     0
 40
0.0
 41
1.0
 50
0.0
 71
     0
 42
0.125
  3
italicc
  4

  0
STYLE
  5
1F786CD0F6816F
330
1F786CD0F68146
100
AcDbSymbolTableRecord
100
AcDbTextStyleTableRecord
  2
ROMANS
 70
     0
 40
0.0
 41
1.0
 50
0.0
 71
     0
 42
0.125
  3
romans.shx
  4

  0
ENDTAB
  0
TABLE
  2
VIEW
  5
1F786CD0F68149
330
0
100
AcDbSymbolTable
 70
     0
  0
ENDTAB
  0
TABLE
  2
UCS
  5
1F786CD0F6814A
330
0
100
AcDbSymbolTable
 70
     0
  0
ENDTAB
  0
TABLE
  2
APPID
  5
1F786CD0F6814C
330
0
100
AcDbSymbolTable
 70
     1
  0
APPID
  5
1F786CD0F68154
330
1F786CD0F6814C
100
AcDbSymbolTableRecord
100
AcDbRegAppTableRecord
  2
ACAD
 70
     0
  0
ENDTAB
  0
TABLE
  2
DIMSTYLE
  5
1F786CD0F6814D
330
0
100
AcDbSymbolTable
 70
     1
  0
DIMSTYLE
105
1F786CD0F68167
330
1F786CD0F6814D
100
AcDbSymbolTableRecord
100
AcDbDimStyleTableRecord
  2
STANDARD
 70
     0
  3

  4

  5

  6

  7

 40
1.0
 41
0.125
 42
0.125
 43
0.375
 44
0.125
 45
0.0
 46
0.0
 47
0.0
 48
0.0
140
0.125
141
-0.125
142
0.0
143
25.4
144
1.0
145
0.0
146
1.0
147
0.09
 71
     0
 72
     0
 73
     1
 74
     1
 75
     0
 76
     0
 77
     0
 78
     4
170
     0
171
     2
172
     0
173
     0
174
     1
175
     0
176
     0
177
     0
178
     0
270
     2
271
     3
272
     3
273
     2
274
     2
340
1F786CD0F6816F
275
     0
280
     0
281
     0
282
     0
283
     1
284
     4
285
     0
286
     0
287
     3
288
     0
  0
ENDTAB
  0
TABLE
  2
BLOCK_RECORD
  5
1F786CD0F68144
330
0
100
AcDbSymbolTable
 70
     0
  0
BLOCK_RECORD
  5
1F786CD0F6815B
102
{ACAD_XDICTIONARY
360
1F786CD0F681A2
102
}
330
1F786CD0F68144
100
AcDbSymbolTableRecord
100
AcDbBlockTableRecord
  2
*MODEL_SPACE
  0
BLOCK_RECORD
  5
1F786CD0F68158
102
{ACAD_XDICTIONARY
360
1F786CD0F681A0
102
}
330
1F786CD0F68144
100
AcDbSymbolTableRecord
100
AcDbBlockTableRecord
  2
*PAPER_SPACE
  0
ENDTAB
  0
ENDSEC
  0
SECTION
  2
BLOCKS
  0
BLOCK
  5
1F786CD0F68165
330
1F786CD0F6815B
100
AcDbEntity
  8
0
100
AcDbBlockBegin
  2
*MODEL_SPACE
 70
     0
 10
0.0
 20
0.0
 30
0.0
  3
*MODEL_SPACE
  1

  0
ENDBLK
  5
1F786CD0F68166
330
1F786CD0F6815B
100
AcDbEntity
  8
0
100
AcDbBlockEnd
  0
BLOCK
  5
1F786CD0F68163
330
1F786CD0F68158
100
AcDbEntity
 67
     1
  8
0
100
AcDbBlockBegin
  2
*PAPER_SPACE
 70
     0
 10
0.0
 20
0.0
 30
0.0
  3
*PAPER_SPACE
  1

  0
ENDBLK
  5
1F786CD0F68164
330
1F786CD0F68158
100
AcDbEntity
 67
     1
  8
0
100
AcDbBlockEnd
  0
ENDSEC
  0
SECTION
  2
ENTITIES
  0
LWPOLYLINE
  5
1F786CD0F66D73
330
1F786CD0F6815B
100
AcDbEntity
  8
0
100
AcDbPolyline
 90
        7
 70
     1
 43
0.0
 10
1.666518090063521
 20
2.061539944924489
 10
1.656518090063521
 20
2.071539944924489
 10
1.291518090063521
 20
2.071539944924489
 10
1.291518090063521
 20
2.009039944924489
 10
2.041518090063521
 20
2.009039944924489
 10
2.041518090063521
 20
2.071539944924489
 10
1.676518090063521
 20
2.071539944924489
  0
TEXT
  5
1F786CD0F68006
330
1F786CD0F6815B
100
AcDbEntity
  8
TEXT
100
AcDbText
 10
0.9135418995873314
 20
1.649664944924489
 30
0.0
 40
0.125
  1
PART #110099
  7
ITALICC
 72
     1
 11
1.666518090063521
 21
1.649664944924489
 31
0.0
100
AcDbText
  0
TEXT
  5
1F786CD0F68007
330
1F786CD0F6815B
100
AcDbEntity
  8
TEXT
100
AcDbText
 10
2.079823248313842
 20
1.202742302252114
 30
0.0
 40
0.0522247191011236
  1
Phone  1-800-328-2495
 41
1.272321428571429
 72
     5
 11
3.408755832583506
 21
1.202742302252114
 31
0.0
100
AcDbText
  0
TEXT
  5
1F786CD0F68008
330
1F786CD0F6815B
100
AcDbEntity
  8
TEXT
100
AcDbText
 10
2.079823248313842
 20
1.48251758315099
 30
0.0
 40
0.0522247191011236
  1
Stylmark  Incorporated
 41
1.221428571428573
 72
     5
 11
3.408755832583506
 21
1.48251758315099
 31
0.0
100
AcDbText
  0
TEXT
  5
1F786CD0F68009
330
1F786CD0F6815B
100
AcDbEntity
  8
TEXT
100
AcDbText
 10
2.079823248313842
 20
1.389259156184698
 30
0.0
 40
0.0522247191011236
  1
6536 Main St. N.E. * P.O. Box 32008
 41
0.8388932496075366
 72
     5
 11
3.408755832583506
 21
1.389259156184698
 31
0.0
100
AcDbText
  0
TEXT
  5
1F786CD0F6800A
330
1F786CD0F6815B
100
AcDbEntity
  8
TEXT
100
AcDbText
 10
2.079823248313842
 20
1.296000729218406
 30
0.0
 40
0.0522247191011236
  1
Minneapolis, MN 55432-0008
 41
1.11444212721585
 72
     5
 11
3.408755832583506
 21
1.296000729218406
 31
0.0
100
AcDbText
  0
LWPOLYLINE
  5
1F786CD0F6800B
330
1F786CD0F6815B
100
AcDbEntity
  8
TEXT
100
AcDbPolyline
 90
        3
 70
     0
 43
0.0006660908203125
 10
-0.0761304437534651
 20
1.316387064889549
 10
-0.0761304437534651
 20
1.203151625436421
 10
0.0371049956996572
 20
1.203151625436421
  0
LWPOLYLINE
  5
1F786CD0F68010
330
1F786CD0F6815B
100
AcDbEntity
  8
TEXT
100
AcDbPolyline
 90
        3
 70
     0
 43
0.0006660908203125
 10
-0.0494868109409676
 20
1.316387064889549
 10
-0.0494868109409676
 20
1.229795258248922
 10
0.0371049956996572
 20
1.229795258248922
  0
LWPOLYLINE
  5
1F786CD0F68015
330
1F786CD0F6815B
100
AcDbEntity
  8
TEXT
100
AcDbPolyline
 90
        2
 70
     0
 43
0.0001332181640625
 10
-0.0028604535190908
 20
1.326378427194234
 10
-0.0761304437534651
 20
1.316387064889549
  0
LWPOLYLINE
  5
1F786CD0F68019
330
1F786CD0F6815B
100
AcDbEntity
  8
TEXT
100
AcDbPolyline
 90
        2
 70
     0
 43
0.0001332181640625
 10
-0.0494868109409676
 20
1.316387064889549
 10
0.0104613628871597
 20
1.326378427194234
  0
LWPOLYLINE
  5
1F786CD0F6801D
330
1F786CD0F6815B
100
AcDbEntity
  8
TEXT
100
AcDbPolyline
 90
        2
 70
     0
 43
0.0001332181640625
 10
-0.0494868109409676
 20
1.229795258248922
 10
0.0104613628871597
 20
1.289743432077048
  0
LWPOLYLINE
  5
1F786CD0F68021
330
1F786CD0F6815B
100
AcDbEntity
  8
TEXT
100
AcDbPolyline
 90
        3
 70
     0
 43
0.0006660908203125
 10
0.0371049956996572
 20
1.469587953561424
 10
-0.0761304437534651
 20
1.469587953561424
 10
-0.0761304437534651
 20
1.356352514108297
  0
LWPOLYLINE
  5
1F786CD0F68026
330
1F786CD0F6815B
100
AcDbEntity
  8
TEXT
100
AcDbPolyline
 90
        3
 70
     0
 43
0.0006660908203125
 10
0.0371049956996572
 20
1.442944320748923
 10
-0.0494868109409676
 20
1.442944320748923
 10
-0.0494868109409676
 20
1.356352514108297
  0
LWPOLYLINE
  5
1F786CD0F6802B
330
1F786CD0F6815B
100
AcDbEntity
  8
TEXT
100
AcDbPolyline
 90
        2
 70
     0
 43
0.0001332181640625
 10
-0.0494868109409676
 20
1.442944320748923
 10
0.0104613628871579
 20
1.382996146920798
  0
LWPOLYLINE
  5
1F786CD0F6802F
330
1F786CD0F6815B
100
AcDbEntity
  8
TEXT
100
AcDbPolyline
 90
        2
 70
     0
 43
0.0001332181640625
 10
-0.0494868109409676
 20
1.356352514108297
 10
0.0104613628871579
 20
1.346361151803608
  0
LWPOLYLINE
  5
1F786CD0F68033
330
1F786CD0F6815B
100
AcDbEntity
  8
TEXT
100
AcDbPolyline
 90
        2
 70
     0
 43
0.0001332181640625
 10
-0.0761304437534651
 20
1.356352514108297
 10
-0.0028604535190908
 20
1.346361151803608
  0
LWPOLYLINE
  5
1F786CD0F68037
330
1F786CD0F6815B
100
AcDbEntity
  8
TEXT
100
AcDbPolyline
 90
        2
 70
     0
 43
0.0006660908203125
 10
-0.0494868109409676
 20
1.316387064889549
 10
-0.0761304437534651
 20
1.316387064889549
  0
LWPOLYLINE
  5
1F786CD0F6803B
330
1F786CD0F6815B
100
AcDbEntity
  8
TEXT
100
AcDbPolyline
 90
        2
 70
     0
 43
0.0006660908203125
 10
-0.0494868109409676
 20
1.356352514108297
 10
-0.0761304437534651
 20
1.356352514108297
  0
LINE
  5
1F786CD0F6803F
330
1F786CD0F6815B
100
AcDbEntity
  8
TEXT
100
AcDbLine
 10
1.439059985373032
 20
1.405311258904655
 30
0.0
 11
1.331853711985742
 21
1.405311258904655
 31
0.0
  0
LINE
  5
1F786CD0F68040
330
1F786CD0F6815B
100
AcDbEntity
  8
TEXT
100
AcDbLine
 10
1.46809088371751
 20
1.469587953561421
 30
0.0
 11
1.333258974500451
 21
1.469587953561421
 31
0.0
  0
ARC
  5
1F786CD0F68041
330
1F786CD0F6815B
100
AcDbEntity
  8
TEXT
100
AcDbCircle
 10
1.392573070893768
 20
1.300350704298404
 30
0.0
 40
0.0676855811441166
100
AcDbArc
 50
90.0
 51
153.7768192527749
  0
LWPOLYLINE
  5
1F786CD0F68042
330
1F786CD0F6815B
100
AcDbEntity
  8
TEXT
100
AcDbPolyline
 90
        2
 70
     0
 43
0.0
 10
1.330821216530932
 20
1.246605865523348
 42
0.2901071551932823
 10
1.373897149398568
 20
1.20311492057291
 42
5.328517124445801
  0
ARC
  5
1F786CD0F68046
330
1F786CD0F6815B
100
AcDbEntity
  8
TEXT
100
AcDbCircle
 10
0.6874416932222829
 20
1.262907311910959
 30
0.0
 40
0.0601160179737537
100
AcDbArc
 50
180.0000000000003
 51
264.0521544866073
  0
LINE
  5
1F786CD0F68047
330
1F786CD0F6815B
100
AcDbEntity
  8
TEXT
100
AcDbLine
 10
0.6909570488478308
 20
1.503975871155559
 30
0.0
 11
0.6309144440038237
 21
1.503975871155559
 31
0.0
  0
ARC
  5
1F786CD0F68048
330
1F786CD0F6815B
100
AcDbEntity
  8
TEXT
100
AcDbCircle
 10
0.4551826911053123
 20
1.387500494114919
 30
0.0
 40
0.0820874594465043
100
AcDbArc
 50
90.0
 51
270.0
  0
LWPOLYLINE
  5
1F786CD0F68049
330
1F786CD0F6815B
100
AcDbEntity
  8
TEXT
100
AcDbPolyline
 90
        2
 70
     0
 43
0.0001332181640625
 10
0.0470963580043478
 20
1.396317963327045
 10
0.0371049956996572
 20
1.469587953561424
  0
LWPOLYLINE
  5
1F786CD0F6804D
330
1F786CD0F6815B
100
AcDbEntity
  8
TEXT
100
AcDbPolyline
 90
        2
 70
     0
 43
0.0001332181640625
 10
0.0371049956996572
 20
1.442944320748923
 10
0.0470963580043478
 20
1.382996146920798
  0
LWPOLYLINE
  5
1F786CD0F68051
330
1F786CD0F6815B
100
AcDbEntity
  8
TEXT
100
AcDbPolyline
 90
        3
 70
     0
 43
0.0006660908203125
 10
0.1903058843715346
 20
1.356352514108297
 10
0.1903058843715346
 20
1.469587953561424
 10
0.0770704449184088
 20
1.469587953561424
  0
LWPOLYLINE
  5
1F786CD0F68056
330
1F786CD0F6815B
100
AcDbEntity
  8
TEXT
100
AcDbPolyline
 90
        3
 70
     0
 43
0.0006660908203125
 10
0.1636622515590336
 20
1.356352514108297
 10
0.1636622515590336
 20
1.442944320748923
 10
0.0770704449184088
 20
1.442944320748923
  0
LWPOLYLINE
  5
1F786CD0F6805B
330
1F786CD0F6815B
100
AcDbEntity
  8
TEXT
100
AcDbPolyline
 90
        2
 70
     0
 43
0.0001332181640625
 10
0.1636622515590336
 20
1.442944320748923
 10
0.1037140777309098
 20
1.382996146920798
  0
LWPOLYLINE
  5
1F786CD0F6805F
330
1F786CD0F6815B
100
AcDbEntity
  8
TEXT
100
AcDbPolyline
 90
        2
 70
     0
 43
0.0001332181640625
 10
0.0770704449184088
 20
1.442944320748923
 10
0.06707908261372
 20
1.382996146920798
  0
LWPOLYLINE
  5
1F786CD0F68063
330
1F786CD0F6815B
100
AcDbEntity
  8
TEXT
100
AcDbPolyline
 90
        2
 70
     0
 43
0.0001332181640625
 10
0.0770704449184088
 20
1.469587953561424
 10
0.06707908261372
 20
1.396317963327045
  0
LWPOLYLINE
  5
1F786CD0F68067
330
1F786CD0F6815B
100
AcDbEntity
  8
TEXT
100
AcDbPolyline
 90
        2
 70
     0
 43
0.0001332181640625
 10
0.1170358941371585
 20
1.346361151803608
 10
0.1903058843715346
 20
1.356352514108297
  0
LWPOLYLINE
  5
1F786CD0F6806B
330
1F786CD0F6815B
100
AcDbEntity
  8
TEXT
100
AcDbPolyline
 90
        2
 70
     0
 43
0.0001332181640625
 10
0.1636622515590336
 20
1.356352514108297
 10
0.1037140777309098
 20
1.346361151803608
  0
LWPOLYLINE
  5
1F786CD0F6806F
330
1F786CD0F6815B
100
AcDbEntity
  8
TEXT
100
AcDbPolyline
 90
        2
 70
     0
 43
0.0001332181640625
 10
0.1903058843715346
 20
1.316387064889549
 10
0.1170358941371585
 20
1.326378427194234
  0
LWPOLYLINE
  5
1F786CD0F68073
330
1F786CD0F6815B
100
AcDbEntity
  8
TEXT
100
AcDbPolyline
 90
        2
 70
     0
 43
0.0001332181640625
 10
0.1636622515590336
 20
1.316387064889549
 10
0.1037140777309098
 20
1.326378427194234
  0
LWPOLYLINE
  5
1F786CD0F68077
330
1F786CD0F6815B
100
AcDbEntity
  8
TEXT
100
AcDbPolyline
 90
        2
 70
     0
 43
0.0001332181640625
 10
0.1636622515590336
 20
1.229795258248922
 10
0.1037140777309098
 20
1.289743432077048
  0
LWPOLYLINE
  5
1F786CD0F6807B
330
1F786CD0F6815B
100
AcDbEntity
  8
TEXT
100
AcDbPolyline
 90
        3
 70
     0
 43
0.0006660908203125
 10
0.0770704449184088
 20
1.229795258248922
 10
0.1636622515590336
 20
1.229795258248922
 10
0.1636622515590336
 20
1.316387064889549
  0
LWPOLYLINE
  5
1F786CD0F68080
330
1F786CD0F6815B
100
AcDbEntity
  8
TEXT
100
AcDbPolyline
 90
        3
 70
     0
 43
0.0006660908203125
 10
0.0770704449184088
 20
1.203151625436421
 10
0.1903058843715346
 20
1.203151625436421
 10
0.1903058843715346
 20
1.316387064889549
  0
LWPOLYLINE
  5
1F786CD0F68085
330
1F786CD0F6815B
100
AcDbEntity
  8
TEXT
100
AcDbPolyline
 90
        5
 70
     0
 43
0.0001332181640625
 10
0.0470963580043478
 20
1.276421615670797
 10
0.0470963580043478
 20
1.289743432077048
 10
0.0104613628871597
 20
1.289743432077048
 10
0.0104613628871597
 20
1.326378427194234
 10
-0.0028604535190908
 20
1.326378427194234
  0
LWPOLYLINE
  5
1F786CD0F6808C
330
1F786CD0F6815B
100
AcDbEntity
  8
TEXT
100
AcDbPolyline
 90
        2
 70
     0
 43
0.0006660908203125
 10
0.0371049956996572
 20
1.229795258248922
 10
0.0371049956996572
 20
1.203151625436421
  0
LWPOLYLINE
  5
1F786CD0F68090
330
1F786CD0F6815B
100
AcDbEntity
  8
TEXT
100
AcDbPolyline
 90
        2
 70
     0
 43
0.0001332181640625
 10
0.0371049956996572
 20
1.229795258248922
 10
0.0470963580043478
 20
1.289743432077048
  0
LWPOLYLINE
  5
1F786CD0F68094
330
1F786CD0F6815B
100
AcDbEntity
  8
TEXT
100
AcDbPolyline
 90
        2
 70
     0
 43
0.0001332181640625
 10
0.0371049956996572
 20
1.203151625436421
 10
0.0470963580043478
 20
1.276421615670797
  0
LWPOLYLINE
  5
1F786CD0F68098
330
1F786CD0F6815B
100
AcDbEntity
  8
TEXT
100
AcDbPolyline
 90
        5
 70
     0
 43
0.0001332181640625
 10
-0.0028604535190908
 20
1.346361151803608
 10
0.0104613628871579
 20
1.346361151803608
 10
0.0104613628871579
 20
1.382996146920798
 10
0.0470963580043478
 20
1.382996146920798
 10
0.0470963580043478
 20
1.396317963327045
  0
LWPOLYLINE
  5
1F786CD0F6809F
330
1F786CD0F6815B
100
AcDbEntity
  8
TEXT
100
AcDbPolyline
 90
        5
 70
     0
 43
0.0001332181640625
 10
0.06707908261372
 20
1.396317963327045
 10
0.06707908261372
 20
1.382996146920798
 10
0.1037140777309098
 20
1.382996146920798
 10
0.1037140777309098
 20
1.346361151803608
 10
0.1170358941371585
 20
1.346361151803608
  0
LWPOLYLINE
  5
1F786CD0F680A6
330
1F786CD0F6815B
100
AcDbEntity
  8
TEXT
100
AcDbPolyline
 90
        2
 70
     0
 43
0.0001332181640625
 10
0.0770704449184088
 20
1.229795258248922
 10
0.06707908261372
 20
1.289743432077048
  0
LWPOLYLINE
  5
1F786CD0F680AA
330
1F786CD0F6815B
100
AcDbEntity
  8
TEXT
100
AcDbPolyline
 90
        2
 70
     0
 43
0.0001332181640625
 10
0.06707908261372
 20
1.276421615670797
 10
0.0770704449184088
 20
1.203151625436421
  0
LWPOLYLINE
  5
1F786CD0F680AE
330
1F786CD0F6815B
100
AcDbEntity
  8
TEXT
100
AcDbPolyline
 90
        2
 70
     0
 43
0.0006660908203125
 10
0.0770704449184088
 20
1.229795258248922
 10
0.0770704449184088
 20
1.203151625436421
  0
LWPOLYLINE
  5
1F786CD0F680B2
330
1F786CD0F6815B
100
AcDbEntity
  8
TEXT
100
AcDbPolyline
 90
        5
 70
     0
 43
0.0001332181640625
 10
0.1170358941371585
 20
1.326378427194234
 10
0.1037140777309098
 20
1.326378427194234
 10
0.1037140777309098
 20
1.289743432077048
 10
0.06707908261372
 20
1.289743432077048
 10
0.06707908261372
 20
1.276421615670797
  0
LWPOLYLINE
  5
1F786CD0F680B9
330
1F786CD0F6815B
100
AcDbEntity
  8
TEXT
100
AcDbPolyline
 90
        2
 70
     0
 43
0.0006660908203125
 10
0.1636622515590336
 20
1.356352514108297
 10
0.1903058843715346
 20
1.356352514108297
  0
LWPOLYLINE
  5
1F786CD0F680BD
330
1F786CD0F6815B
100
AcDbEntity
  8
TEXT
100
AcDbPolyline
 90
        2
 70
     0
 43
0.0006660908203125
 10
0.1636622515590336
 20
1.316387064889549
 10
0.1903058843715346
 20
1.316387064889549
  0
LINE
  5
1F786CD0F680C1
330
1F786CD0F6815B
100
AcDbEntity
  8
TEXT
100
AcDbLine
 10
0.4604200212195595
 20
1.405311258904655
 30
0.0
 11
0.6273256752485308
 21
1.405311258904655
 31
0.0
  0
LINE
  5
1F786CD0F680C2
330
1F786CD0F6815B
100
AcDbEntity
  8
TEXT
100
AcDbLine
 10
0.5260201574638606
 20
1.369506537294027
 30
0.0
 11
0.4604200212195595
 21
1.369506537294027
 31
0.0
  0
LINE
  5
1F786CD0F680C3
330
1F786CD0F6815B
100
AcDbEntity
  8
TEXT
100
AcDbLine
 10
0.3730952316588079
 20
1.20311492057291
 30
0.0
 11
0.5260201574638606
 21
1.20311492057291
 31
0.0
  0
LINE
  5
1F786CD0F680C4
330
1F786CD0F6815B
100
AcDbEntity
  8
TEXT
100
AcDbLine
 10
0.5309605313701402
 20
1.271471926906349
 30
0.0
 11
0.3730952316588061
 21
1.271471926906349
 31
0.0
  0
LINE
  5
1F786CD0F680C5
330
1F786CD0F6815B
100
AcDbEntity
  8
TEXT
100
AcDbLine
 10
0.4551826911053114
 20
1.305413034668414
 30
0.0
 11
0.5309605313701402
 21
1.305413034668414
 31
0.0
  0
ARC
  5
1F786CD0F680C6
330
1F786CD0F6815B
100
AcDbEntity
  8
TEXT
100
AcDbCircle
 10
0.4604200212195604
 20
1.387408898099343
 30
0.0
 40
0.017902360805315
100
AcDbArc
 50
90.0
 51
270.0
  0
LINE
  5
1F786CD0F680C7
330
1F786CD0F6815B
100
AcDbEntity
  8
TEXT
100
AcDbLine
 10
0.3730952316588061
 20
1.271471926906349
 30
0.0
 11
0.3730952316588079
 21
1.20311492057291
 31
0.0
  0
LINE
  5
1F786CD0F680C8
330
1F786CD0F6815B
100
AcDbEntity
  8
TEXT
100
AcDbLine
 10
0.6273256752485308
 20
1.405311258904655
 30
0.0
 11
0.6273256752485308
 21
1.262907311910959
 31
0.0
  0
ARC
  5
1F786CD0F680C9
330
1F786CD0F6815B
100
AcDbEntity
  8
TEXT
100
AcDbCircle
 10
0.5260201574638615
 20
1.286310728933467
 30
0.0
 40
0.0831958083605586
100
AcDbArc
 50
270.0
 51
90.0
  0
ARC
  5
1F786CD0F680CA
330
1F786CD0F6815B
100
AcDbEntity
  8
TEXT
100
AcDbCircle
 10
0.5309605313701411
 20
1.288442480787383
 30
0.0
 40
0.0169705538810321
100
AcDbArc
 50
270.0
 51
90.0
  0
LWPOLYLINE
  5
1F786CD0F680CB
330
1F786CD0F6815B
100
AcDbEntity
  8
TEXT
100
AcDbPolyline
 90
        2
 70
     0
 43
0.0006660908203125
 10
0.0371049956996572
 20
1.442944320748923
 10
0.0371049956996572
 20
1.469587953561424
  0
LWPOLYLINE
  5
1F786CD0F680CF
330
1F786CD0F6815B
100
AcDbEntity
  8
TEXT
100
AcDbPolyline
 90
        2
 70
     0
 43
0.0006660908203125
 10
0.0770704449184088
 20
1.442944320748923
 10
0.0770704449184088
 20
1.469587953561424
  0
LINE
  5
1F786CD0F680D3
330
1F786CD0F6815B
100
AcDbEntity
  8
TEXT
100
AcDbLine
 10
0.6309144440038237
 20
1.469587953561421
 30
0.0
 11
0.4551826911053114
 21
1.469587953561421
 31
0.0
  0
LINE
  5
1F786CD0F680D4
330
1F786CD0F6815B
100
AcDbEntity
  8
TEXT
100
AcDbLine
 10
0.6309144440038237
 20
1.503975871155559
 30
0.0
 11
0.6309144440038237
 21
1.469587953561421
 31
0.0
  0
LINE
  5
1F786CD0F680D5
330
1F786CD0F6815B
100
AcDbEntity
  8
TEXT
100
AcDbLine
 10
0.8213863360236759
 20
1.3687159574483
 30
0.0
 11
0.7627560149917381
 21
1.469587953561421
 31
0.0
  0
LINE
  5
1F786CD0F680D6
330
1F786CD0F6815B
100
AcDbEntity
  8
TEXT
100
AcDbLine
 10
0.8801348988295414
 20
1.469587953561421
 30
0.0
 11
0.8213863360236759
 21
1.3687159574483
 31
0.0
  0
LINE
  5
1F786CD0F680D7
330
1F786CD0F6815B
100
AcDbEntity
  8
TEXT
100
AcDbLine
 10
0.9770655241892827
 20
1.285502758675909
 30
0.0
 11
0.9770655241892827
 21
1.537599431300231
 31
0.0
  0
LINE
  5
1F786CD0F680D8
330
1F786CD0F6815B
100
AcDbEntity
  8
TEXT
100
AcDbLine
 10
1.009377378326942
 20
1.469587953561421
 30
0.0
 11
1.009377378326942
 21
1.268723746829012
 31
0.0
  0
LINE
  5
1F786CD0F680D9
330
1F786CD0F6815B
100
AcDbEntity
  8
TEXT
100
AcDbLine
 10
1.009377378326942
 20
1.268723746829012
 30
0.0
 11
0.9923837414423415
 21
1.268723746829012
 31
0.0
  0
LINE
  5
1F786CD0F680DA
330
1F786CD0F6815B
100
AcDbEntity
  8
TEXT
100
AcDbLine
 10
0.9782050976854774
 20
1.20311492057291
 30
0.0
 11
1.076208431384912
 21
1.20311492057291
 31
0.0
  0
LINE
  5
1F786CD0F680DB
330
1F786CD0F6815B
100
AcDbEntity
  8
TEXT
100
AcDbLine
 10
0.8117860990267216
 20
1.223073426677923
 30
0.0
 11
0.9090858051201662
 21
1.387423637613191
 31
0.0
  0
ARC
  5
1F786CD0F680DC
330
1F786CD0F6815B
100
AcDbEntity
  8
TEXT
100
AcDbCircle
 10
0.7777425391145077
 20
1.242662642846605
 30
0.0
 40
0.0392772371940762
100
AcDbArc
 50
270.1604552698595
 51
330.0831797321295
  0
LINE
  5
1F786CD0F680DD
330
1F786CD0F6815B
100
AcDbEntity
  8
TEXT
100
AcDbLine
 10
0.6812122827286365
 20
1.20311492057291
 30
0.0
 11
0.7778525338036309
 21
1.203385559671192
 31
0.0
  0
LWPOLYLINE
  5
1F786CD0F680DE
330
1F786CD0F6815B
100
AcDbEntity
  8
TEXT
100
AcDbPolyline
 90
        6
 70
     1
 43
0.0
 10
0.7237360863037861
 20
1.405311258904655
 10
0.6934194920835779
 20
1.405311258904655
 10
0.6934194920835779
 20
1.282200260849761
 42
0.407328721240804
 10
0.7049631432450543
 20
1.270381346173375
 10
0.7655848422897851
 20
1.270381346173375
 10
0.7830501826971031
 20
1.303193575216854
  0
LINE
  5
1F786CD0F680E6
330
1F786CD0F6815B
100
AcDbEntity
  8
TEXT
100
AcDbLine
 10
0.9090858051201662
 20
1.387423637613191
 30
0.0
 11
0.9090858051201662
 21
1.254666262787834
 31
0.0
  0
ARC
  5
1F786CD0F680E7
330
1F786CD0F6815B
100
AcDbEntity
  8
TEXT
100
AcDbCircle
 10
0.9923837414423397
 20
1.284105553072438
 30
0.0
 40
0.0153818062434269
100
AcDbArc
 50
174.7883570302258
 51
270.0
  0
LWPOLYLINE
  5
1F786CD0F680E8
330
1F786CD0F6815B
100
AcDbEntity
  8
TEXT
100
AcDbPolyline
 90
        2
 70
     0
 43
0.0
 10
0.9090858051201644
 20
1.254666262787838
 42
0.3318488747599744
 10
0.9782050976854774
 20
1.20311492057291
 42
-6.868794160588311
  0
LINE
  5
1F786CD0F680EC
330
1F786CD0F6815B
100
AcDbEntity
  8
TEXT
100
AcDbLine
 10
1.133597500374173
 20
1.20311492057291
 30
0.0
 11
1.200655547156013
 21
1.20311492057291
 31
0.0
  0
LINE
  5
1F786CD0F680ED
330
1F786CD0F6815B
100
AcDbEntity
  8
TEXT
100
AcDbLine
 10
1.133597500374173
 20
1.397757469738545
 30
0.0
 11
1.133597500374173
 21
1.20311492057291
 31
0.0
  0
LINE
  5
1F786CD0F680EE
330
1F786CD0F6815B
100
AcDbEntity
  8
TEXT
100
AcDbLine
 10
1.076208431384912
 20
1.405311258904655
 30
0.0
 11
1.126043711208059
 21
1.405311258904655
 31
0.0
  0
LINE
  5
1F786CD0F680EF
330
1F786CD0F6815B
100
AcDbEntity
  8
TEXT
100
AcDbLine
 10
1.076208431384912
 20
1.20311492057291
 30
0.0
 11
1.076208431384912
 21
1.405311258904655
 31
0.0
  0
LWPOLYLINE
  5
1F786CD0F680F0
330
1F786CD0F6815B
100
AcDbEntity
  8
TEXT
100
AcDbPolyline
 90
        2
 70
     0
 43
0.0
 10
1.126043711208057
 20
1.405311258904655
 42
-0.4142135623731017
 10
1.133597500374171
 20
1.397757469738545
 42
-0.9999999999999998
  0
LINE
  5
1F786CD0F680F4
330
1F786CD0F6815B
100
AcDbEntity
  8
TEXT
100
AcDbLine
 10
1.331853711985742
 20
1.405311258904655
 30
0.0
 11
1.331853711985742
 21
1.330258852830449
 31
0.0
  0
LINE
  5
1F786CD0F680F5
330
1F786CD0F6815B
100
AcDbEntity
  8
TEXT
100
AcDbLine
 10
1.200655547156013
 20
1.405311258904655
 30
0.0
 11
1.254789144076963
 21
1.405311258904655
 31
0.0
  0
LINE
  5
1F786CD0F680F6
330
1F786CD0F6815B
100
AcDbEntity
  8
TEXT
100
AcDbLine
 10
1.200655547156013
 20
1.20311492057291
 30
0.0
 11
1.200655547156013
 21
1.405311258904655
 31
0.0
  0
LWPOLYLINE
  5
1F786CD0F680F7
330
1F786CD0F6815B
100
AcDbEntity
  8
TEXT
100
AcDbPolyline
 90
        2
 70
     0
 43
0.0
 10
1.254789144076961
 20
1.405311258904655
 42
-0.4142135623731017
 10
1.262342933243075
 20
1.397757469738545
 42
-0.9999999999999998
  0
LWPOLYLINE
  5
1F786CD0F680FB
330
1F786CD0F6815B
100
AcDbEntity
  8
TEXT
100
AcDbPolyline
 90
        4
 70
     0
 43
0.0
 10
1.262342933243075
 20
1.397757469738545
 10
1.262342933243075
 20
1.20311492057291
 10
1.330821216530932
 20
1.20311492057291
 10
1.330821216530932
 20
1.246605865523348
 42
-1.714843617202739
  0
LINE
  5
1F786CD0F68101
330
1F786CD0F6815B
100
AcDbEntity
  8
TEXT
100
AcDbLine
 10
0.6909570488478308
 20
1.469587953561421
 30
0.0
 11
0.6909570488478308
 21
1.503975871155559
 31
0.0
  0
LINE
  5
1F786CD0F68102
330
1F786CD0F6815B
100
AcDbEntity
  8
TEXT
100
AcDbLine
 10
0.7627560149917381
 20
1.469587953561421
 30
0.0
 11
0.6909570488478308
 21
1.469587953561421
 31
0.0
  0
LINE
  5
1F786CD0F68103
330
1F786CD0F6815B
100
AcDbEntity
  8
TEXT
100
AcDbLine
 10
0.9102568116229177
 20
1.469587953561421
 30
0.0
 11
0.8801348988295414
 21
1.469587953561421
 31
0.0
  0
LINE
  5
1F786CD0F68104
330
1F786CD0F6815B
100
AcDbEntity
  8
TEXT
100
AcDbLine
 10
0.9102568116229177
 20
1.537599431300231
 30
0.0
 11
0.9102568116229177
 21
1.469587953561421
 31
0.0
  0
LINE
  5
1F786CD0F68105
330
1F786CD0F6815B
100
AcDbEntity
  8
TEXT
100
AcDbLine
 10
0.9770655241892827
 20
1.537599431300231
 30
0.0
 11
0.9102568116229177
 21
1.537599431300231
 31
0.0
  0
LWPOLYLINE
  5
1F786CD0F68106
330
1F786CD0F6815B
100
AcDbEntity
  8
TEXT
100
AcDbPolyline
 90
        3
 70
     0
 43
0.0
 10
1.297477283787284
 20
1.469587953561424
 10
1.17917712497124
 20
1.469587953561424
 10
1.17917712497124
 20
1.442420456800528
 42
-1.960274751411753
  0
LINE
  5
1F786CD0F6810B
330
1F786CD0F6815B
100
AcDbEntity
  8
TEXT
100
AcDbLine
 10
1.143395434258079
 20
1.469587953561421
 30
0.0
 11
1.009377378326942
 21
1.469587953561421
 31
0.0
  0
LWPOLYLINE
  5
1F786CD0F6810C
330
1F786CD0F6815B
100
AcDbEntity
  8
TEXT
100
AcDbPolyline
 90
        2
 70
     0
 43
0.0
 10
1.143395434258079
 20
1.469587953561424
 42
-0.3328679258950098
 10
1.17917712497124
 20
1.442420456800528
 42
6.772930709997214
  0
LINE
  5
1F786CD0F68110
330
1F786CD0F6815B
100
AcDbEntity
  8
TEXT
100
AcDbLine
 10
1.333258974500451
 20
1.469587953561421
 30
0.0
 11
1.333258974500451
 21
1.441265407791777
 31
0.0
  0
LWPOLYLINE
  5
1F786CD0F68111
330
1F786CD0F6815B
100
AcDbEntity
  8
TEXT
100
AcDbPolyline
 90
        2
 70
     0
 43
0.0
 10
1.297477283787284
 20
1.469587953561424
 42
-0.3277054968067132
 10
1.333258974500449
 20
1.44126540779178
 42
6.667889725900311
  0
LINE
  5
1F786CD0F68115
330
1F786CD0F6815B
100
AcDbEntity
  8
TEXT
100
AcDbLine
 10
1.547050822592551
 20
1.364375975007993
 30
0.0
 11
1.50330005141065
 21
1.446626251004138
 31
0.0
  0
LINE
  5
1F786CD0F68116
330
1F786CD0F6815B
100
AcDbEntity
  8
TEXT
100
AcDbLine
 10
1.547050822592551
 20
1.469587953561421
 30
0.0
 11
1.547050822592551
 21
1.364375975007993
 31
0.0
  0
LINE
  5
1F786CD0F68117
330
1F786CD0F6815B
100
AcDbEntity
  8
TEXT
100
AcDbLine
 10
1.77473456153092
 20
1.393722627149883
 30
0.0
 11
1.77473456153092
 21
1.535052159329021
 31
0.0
  0
LINE
  5
1F786CD0F68118
330
1F786CD0F6815B
100
AcDbEntity
  8
TEXT
100
AcDbLine
 10
1.821832720086905
 20
1.469587953561421
 30
0.0
 11
1.77473456153092
 21
1.393722627149883
 31
0.0
  0
LINE
  5
1F786CD0F68119
330
1F786CD0F6815B
100
AcDbEntity
  8
TEXT
100
AcDbLine
 10
1.832267436850828
 20
1.359694710620447
 30
0.0
 11
1.896824552816533
 21
1.469587953561421
 31
0.0
  0
LINE
  5
1F786CD0F6811A
330
1F786CD0F6815B
100
AcDbEntity
  8
TEXT
100
AcDbLine
 10
1.710899570308147
 20
1.20311492057291
 30
0.0
 11
1.775277754626768
 21
1.20311492057291
 31
0.0
  0
LWPOLYLINE
  5
1F786CD0F6811B
330
1F786CD0F6815B
100
AcDbEntity
  8
TEXT
100
AcDbPolyline
 90
        2
 70
     0
 43
0.0
 10
1.550990499897589
 20
1.246605865523348
 42
-0.2901071551932486
 10
1.507914567029945
 20
1.20311492057291
 42
-5.328517124445184
  0
ARC
  5
1F786CD0F6811F
330
1F786CD0F6815B
100
AcDbEntity
  8
TEXT
100
AcDbCircle
 10
1.43905998537303
 20
1.376951883904658
 30
0.0
 40
0.028359375
100
AcDbArc
 50
25.78218179591245
 51
90.0
  0
LINE
  5
1F786CD0F68120
330
1F786CD0F6815B
100
AcDbEntity
  8
TEXT
100
AcDbLine
 10
1.474861060677153
 20
1.368036285442523
 30
0.0
 11
1.464596300263589
 21
1.389286825015217
 31
0.0
  0
LINE
  5
1F786CD0F68121
330
1F786CD0F6815B
100
AcDbEntity
  8
TEXT
100
AcDbLine
 10
1.39257307089377
 20
1.368036285442523
 30
0.0
 11
1.474861060677153
 21
1.368036285442523
 31
0.0
  0
LWPOLYLINE
  5
1F786CD0F68122
330
1F786CD0F6815B
100
AcDbEntity
  8
TEXT
100
AcDbPolyline
 90
        4
 70
     1
 43
0.0
 10
1.487792101960052
 20
1.306078898556935
 10
1.399131783300194
 20
1.306078898556935
 42
0.9999999999999998
 10
1.399131783300194
 20
1.263680358053074
 10
1.487792101960052
 20
1.263680358053074
 42
1.0
  0
LWPOLYLINE
  5
1F786CD0F68128
330
1F786CD0F6815B
100
AcDbEntity
  8
TEXT
100
AcDbPolyline
 90
        2
 70
     0
 43
0.0
 10
1.373897149398568
 20
1.20311492057291
 10
1.507914567029945
 20
1.20311492057291
 42
0.9999999999999998
  0
LINE
  5
1F786CD0F6812C
330
1F786CD0F6815B
100
AcDbEntity
  8
TEXT
100
AcDbLine
 10
1.634251589015584
 20
1.405311258904655
 30
0.0
 11
1.710899570308142
 21
1.405311258904655
 31
0.0
  0
LINE
  5
1F786CD0F6812D
330
1F786CD0F6815B
100
AcDbEntity
  8
TEXT
100
AcDbLine
 10
1.710899570308142
 20
1.405311258904655
 30
0.0
 11
1.710899570308147
 21
1.20311492057291
 31
0.0
  0
ARC
  5
1F786CD0F6812E
330
1F786CD0F6815B
100
AcDbEntity
  8
TEXT
100
AcDbCircle
 10
1.634251589015582
 20
1.380405383621992
 30
0.0
 40
0.0249058752826653
100
AcDbArc
 50
89.99971217465335
 51
179.9999999999985
  0
LINE
  5
1F786CD0F6812F
330
1F786CD0F6815B
100
AcDbEntity
  8
TEXT
100
AcDbLine
 10
1.609345713732925
 20
1.20311492057291
 30
0.0
 11
1.60934571373292
 21
1.380405426004378
 31
0.0
  0
LWPOLYLINE
  5
1F786CD0F68130
330
1F786CD0F6815B
100
AcDbEntity
  8
TEXT
100
AcDbPolyline
 90
        2
 70
     0
 43
0.0
 10
1.550990499897589
 20
1.20311492057291
 10
1.609345713732923
 20
1.20311492057291
  0
LWPOLYLINE
  5
1F786CD0F68134
330
1F786CD0F6815B
100
AcDbEntity
  8
TEXT
100
AcDbPolyline
 90
        2
 70
     0
 43
0.0
 10
1.550990499897589
 20
1.246605865523348
 10
1.550990499897589
 20
1.20311492057291
  0
LINE
  5
1F786CD0F68138
330
1F786CD0F6815B
100
AcDbEntity
  8
TEXT
100
AcDbLine
 10
1.927759660214438
 20
1.20311492057291
 30
0.0
 11
1.832267436850828
 21
1.359694710620447
 31
0.0
  0
LINE
  5
1F786CD0F68139
330
1F786CD0F6815B
100
AcDbEntity
  8
TEXT
100
AcDbLine
 10
1.851181287838232
 20
1.20311492057291
 30
0.0
 11
1.927759660214438
 21
1.20311492057291
 31
0.0
  0
LINE
  5
1F786CD0F6813A
330
1F786CD0F6815B
100
AcDbEntity
  8
TEXT
100
AcDbLine
 10
1.775277754626768
 20
1.33469448904909
 30
0.0
 11
1.851181287838232
 21
1.20311492057291
 31
0.0
  0
LINE
  5
1F786CD0F6813B
330
1F786CD0F6815B
100
AcDbEntity
  8
TEXT
100
AcDbLine
 10
1.775277754626768
 20
1.20311492057291
 30
0.0
 11
1.775277754626768
 21
1.33469448904909
 31
0.0
  0
LINE
  5
1F786CD0F6813C
330
1F786CD0F6815B
100
AcDbEntity
  8
TEXT
100
AcDbLine
 10
1.77473456153092
 20
1.535052159329021
 30
0.0
 11
1.706419682981647
 21
1.535052159329021
 31
0.0
  0
ARC
  5
1F786CD0F6813D
330
1F786CD0F6815B
100
AcDbEntity
  8
TEXT
100
AcDbCircle
 10
1.466063943940441
 20
1.428004386440518
 30
0.0
 40
0.0416329381542859
100
AcDbArc
 50
26.56974201007528
 51
87.20939649401342
  0
LINE
  5
1F786CD0F6813E
330
1F786CD0F6815B
100
AcDbEntity
  8
TEXT
100
AcDbLine
 10
1.610947728892052
 20
1.469587953561421
 30
0.0
 11
1.547050822592551
 21
1.469587953561421
 31
0.0
  0
LINE
  5
1F786CD0F6813F
330
1F786CD0F6815B
100
AcDbEntity
  8
TEXT
100
AcDbLine
 10
1.610947728892052
 20
1.442040303700546
 30
0.0
 11
1.610947728892052
 21
1.469587953561421
 31
0.0
  0
ARC
  5
1F786CD0F68140
330
1F786CD0F6815B
100
AcDbEntity
  8
TEXT
100
AcDbCircle
 10
1.64214054595516
 20
1.438342226279156
 30
0.0
 40
0.0314112657011332
100
AcDbArc
 50
95.88484768694724
 51
173.2388340632136
  0
LINE
  5
1F786CD0F68141
330
1F786CD0F6815B
100
AcDbEntity
  8
TEXT
100
AcDbLine
 10
1.706419682981642
 20
1.469587953561421
 30
0.0
 11
1.638919965332125
 21
1.469587953561421
 31
0.0
  0
LINE
  5
1F786CD0F68142
330
1F786CD0F6815B
100
AcDbEntity
  8
TEXT
100
AcDbLine
 10
1.706419682981647
 20
1.535052159329021
 30
0.0
 11
1.706419682981642
 21
1.469587953561421
 31
0.0
  0
LINE
  5
1F786CD0F68143
330
1F786CD0F6815B
100
AcDbEntity
  8
TEXT
100
AcDbLine
 10
1.896824552816533
 20
1.469587953561421
 30
0.0
 11
1.821832720086907
 21
1.469587953561421
 31
0.0
  0
ENDSEC
  0
SECTION
  2
OBJECTS
  0
DICTIONARY
  5
1F786CD0F6814F
330
0
100
AcDbDictionary
  3
ACAD_GROUP
350
1F786CD0F68150
  3
ACAD_LAYOUT
350
1F786CD0F68175
  3
ACAD_MLINESTYLE
350
1F786CD0F68151
  3
ACAD_PLOTSETTINGS
350
1F786CD0F68176
  3
ACAD_PLOTSTYLENAME
350
1F786CD0F68173
  3
ACDBHEADERROUNDTRIPXREC
350
1F786CD0F68180
  3
ACDBVARIABLEDICTIONARY
350
1F786CD0F6817D
  0
DICTIONARY
  5
1F786CD0F681A2
330
1F786CD0F6815B
100
AcDbDictionary
280
     1
  3
ACAD_LAYOUTSELFREF
360
1F786CD0F681A3
  0
DICTIONARY
  5
1F786CD0F681A0
330
1F786CD0F68158
100
AcDbDictionary
280
     1
  3
ACAD_LAYOUTSELFREF
360
1F786CD0F681A1
  0
DICTIONARY
  5
1F786CD0F68150
102
{ACAD_REACTORS
330
1F786CD0F6814F
102
}
330
1F786CD0F6814F
100
AcDbDictionary
  0
DICTIONARY
  5
1F786CD0F68175
102
{ACAD_REACTORS
330
1F786CD0F6814F
102
}
330
1F786CD0F6814F
100
AcDbDictionary
  0
DICTIONARY
  5
1F786CD0F68151
102
{ACAD_REACTORS
330
1F786CD0F6814F
102
}
330
1F786CD0F6814F
100
AcDbDictionary
  3
STANDARD
350
1F786CD0F6815E
  0
DICTIONARY
  5
1F786CD0F68176
102
{ACAD_REACTORS
330
1F786CD0F6814F
102
}
330
1F786CD0F6814F
100
AcDbDictionary
  0
ACDBDICTIONARYWDFLT
  5
1F786CD0F68173
102
{ACAD_REACTORS
330
1F786CD0F6814F
102
}
330
1F786CD0F6814F
100
AcDbDictionary
281
     1
  3
Normal
350
1F786CD0F68174
100
AcDbDictionaryWithDefault
340
1F786CD0F68174
  0
DICTIONARY
  5
1F786CD0F68180
102
{ACAD_REACTORS
330
1F786CD0F6814F
102
}
330
1F786CD0F6814F
100
AcDbDictionary
  3
CEPSNTYPE
350
1F786CD0F6818A
  3
FINGERPRINTGUID
350
1F786CD0F6818B
  3
HYPERLINKBASE
350
1F786CD0F68183
  3
INSUNITS
350
1F786CD0F68189
  3
LAYOUTDICT
350
1F786CD0F68185
  3
LWETCUNION
350
1F786CD0F68188
  3
PLOTSETDICT
350
1F786CD0F68186
  3
PLOTSTYLNAMDICT
350
1F786CD0F68187
  3
PSVPSCALE
350
1F786CD0F6818D
  3
PUCSBASE
350
1F786CD0F68190
  3
PUCSORGBACK
350
1F786CD0F68196
  3
PUCSORGBOTTOM
350
1F786CD0F68192
  3
PUCSORGFRONT
350
1F786CD0F68195
  3
PUCSORGLEFT
350
1F786CD0F68193
  3
PUCSORGRIGHT
350
1F786CD0F68194
  3
PUCSORGTOP
350
1F786CD0F68191
  3
PUCSORTHOREF
350
1F786CD0F6818E
  3
PUCSORTHOVIEW
350
1F786CD0F6818F
  3
STYLESHEET
350
1F786CD0F68184
  3
TSTACKALIGN
350
1F786CD0F68181
  3
TSTACKSIZE
350
1F786CD0F68182
  3
UCSBASE
350
1F786CD0F68199
  3
UCSORGBACK
350
1F786CD0F6819F
  3
UCSORGBOTTOM
350
1F786CD0F6819B
  3
UCSORGFRONT
350
1F786CD0F6819E
  3
UCSORGLEFT
350
1F786CD0F6819C
  3
UCSORGRIGHT
350
1F786CD0F6819D
  3
UCSORGTOP
350
1F786CD0F6819A
  3
UCSORTHOREF
350
1F786CD0F68197
  3
UCSORTHOVIEW
350
1F786CD0F68198
  3
VERSIONGUID
350
1F786CD0F6818C
  0
DICTIONARY
  5
1F786CD0F6817D
102
{ACAD_REACTORS
330
1F786CD0F6814F
102
}
330
1F786CD0F6814F
100
AcDbDictionary
  3
DIMASSOC
350
1F786CD0F6817E
  0
XRECORD
  5
1F786CD0F681A3
102
{ACAD_REACTORS
330
1F786CD0F681A2
102
}
330
1F786CD0F681A2
100
AcDbXrecord
340
1F786CD0F6815B
  0
XRECORD
  5
1F786CD0F681A1
102
{ACAD_REACTORS
330
1F786CD0F681A0
102
}
330
1F786CD0F681A0
100
AcDbXrecord
340
1F786CD0F68158
  0
MLINESTYLE
  5
1F786CD0F6815E
102
{ACAD_REACTORS
330
1F786CD0F68151
102
}
330
1F786CD0F68151
100
AcDbMlineStyle
  2
STANDARD
 70
     0
  3

 62
     0
 51
90.0
 52
90.0
 71
     2
 49
0.5
 62
   256
  6
BYLAYER
 49
-0.5
 62
   256
  6
BYLAYER
  0
ACDBPLACEHOLDER
  5
1F786CD0F68174
102
{ACAD_REACTORS
330
1F786CD0F68173
102
}
330
1F786CD0F68173
100
AcDbPlaceHolder
280
     0
  0
XRECORD
  5
1F786CD0F6818A
102
{ACAD_REACTORS
330
1F786CD0F68180
102
}
330
1F786CD0F68180
100
AcDbXrecord
 90
        0
  0
XRECORD
  5
1F786CD0F6818B
102
{ACAD_REACTORS
330
1F786CD0F68180
102
}
330
1F786CD0F68180
100
AcDbXrecord
  1
{E3CF8E00-8DB3-11D6-88E6-0090279574E7}
  0
XRECORD
  5
1F786CD0F68183
102
{ACAD_REACTORS
330
1F786CD0F68180
102
}
330
1F786CD0F68180
100
AcDbXrecord
  1

  0
XRECORD
  5
1F786CD0F68189
102
{ACAD_REACTORS
330
1F786CD0F68180
102
}
330
1F786CD0F68180
100
AcDbXrecord
 90
        0
  0
XRECORD
  5
1F786CD0F68185
102
{ACAD_REACTORS
330
1F786CD0F68180
102
}
330
1F786CD0F68180
100
AcDbXrecord
340
1F786CD0F68175
  0
XRECORD
  5
1F786CD0F68188
102
{ACAD_REACTORS
330
1F786CD0F68180
102
}
330
1F786CD0F68180
100
AcDbXrecord
 90
    14877
  0
XRECORD
  5
1F786CD0F68186
102
{ACAD_REACTORS
330
1F786CD0F68180
102
}
330
1F786CD0F68180
100
AcDbXrecord
340
1F786CD0F68176
  0
XRECORD
  5
1F786CD0F68187
102
{ACAD_REACTORS
330
1F786CD0F68180
102
}
330
1F786CD0F68180
100
AcDbXrecord
340
1F786CD0F68173
  0
XRECORD
  5
1F786CD0F6818D
102
{ACAD_REACTORS
330
1F786CD0F68180
102
}
330
1F786CD0F68180
100
AcDbXrecord
 40
0.0
  0
XRECORD
  5
1F786CD0F68190
102
{ACAD_REACTORS
330
1F786CD0F68180
102
}
330
1F786CD0F68180
100
AcDbXrecord
340
0
  0
XRECORD
  5
1F786CD0F68196
102
{ACAD_REACTORS
330
1F786CD0F68180
102
}
330
1F786CD0F68180
100
AcDbXrecord
 10
0.0
 20
0.0
 30
0.0
  0
XRECORD
  5
1F786CD0F68192
102
{ACAD_REACTORS
330
1F786CD0F68180
102
}
330
1F786CD0F68180
100
AcDbXrecord
 10
0.0
 20
0.0
 30
0.0
  0
XRECORD
  5
1F786CD0F68195
102
{ACAD_REACTORS
330
1F786CD0F68180
102
}
330
1F786CD0F68180
100
AcDbXrecord
 10
0.0
 20
0.0
 30
0.0
  0
XRECORD
  5
1F786CD0F68193
102
{ACAD_REACTORS
330
1F786CD0F68180
102
}
330
1F786CD0F68180
100
AcDbXrecord
 10
0.0
 20
0.0
 30
0.0
  0
XRECORD
  5
1F786CD0F68194
102
{ACAD_REACTORS
330
1F786CD0F68180
102
}
330
1F786CD0F68180
100
AcDbXrecord
 10
0.0
 20
0.0
 30
0.0
  0
XRECORD
  5
1F786CD0F68191
102
{ACAD_REACTORS
330
1F786CD0F68180
102
}
330
1F786CD0F68180
100
AcDbXrecord
 10
0.0
 20
0.0
 30
0.0
  0
XRECORD
  5
1F786CD0F6818E
102
{ACAD_REACTORS
330
1F786CD0F68180
102
}
330
1F786CD0F68180
100
AcDbXrecord
340
0
  0
XRECORD
  5
1F786CD0F6818F
102
{ACAD_REACTORS
330
1F786CD0F68180
102
}
330
1F786CD0F68180
100
AcDbXrecord
 70
     0
  0
XRECORD
  5
1F786CD0F68184
102
{ACAD_REACTORS
330
1F786CD0F68180
102
}
330
1F786CD0F68180
100
AcDbXrecord
  1

  0
XRECORD
  5
1F786CD0F68181
102
{ACAD_REACTORS
330
1F786CD0F68180
102
}
330
1F786CD0F68180
100
AcDbXrecord
 90
        1
  0
XRECORD
  5
1F786CD0F68182
102
{ACAD_REACTORS
330
1F786CD0F68180
102
}
330
1F786CD0F68180
100
AcDbXrecord
 90
       70
  0
XRECORD
  5
1F786CD0F68199
102
{ACAD_REACTORS
330
1F786CD0F68180
102
}
330
1F786CD0F68180
100
AcDbXrecord
340
0
  0
XRECORD
  5
1F786CD0F6819F
102
{ACAD_REACTORS
330
1F786CD0F68180
102
}
330
1F786CD0F68180
100
AcDbXrecord
 10
0.0
 20
0.0
 30
0.0
  0
XRECORD
  5
1F786CD0F6819B
102
{ACAD_REACTORS
330
1F786CD0F68180
102
}
330
1F786CD0F68180
100
AcDbXrecord
 10
0.0
 20
0.0
 30
0.0
  0
XRECORD
  5
1F786CD0F6819E
102
{ACAD_REACTORS
330
1F786CD0F68180
102
}
330
1F786CD0F68180
100
AcDbXrecord
 10
0.0
 20
0.0
 30
0.0
  0
XRECORD
  5
1F786CD0F6819C
102
{ACAD_REACTORS
330
1F786CD0F68180
102
}
330
1F786CD0F68180
100
AcDbXrecord
 10
0.0
 20
0.0
 30
0.0
  0
XRECORD
  5
1F786CD0F6819D
102
{ACAD_REACTORS
330
1F786CD0F68180
102
}
330
1F786CD0F68180
100
AcDbXrecord
 10
0.0
 20
0.0
 30
0.0
  0
XRECORD
  5
1F786CD0F6819A
102
{ACAD_REACTORS
330
1F786CD0F68180
102
}
330
1F786CD0F68180
100
AcDbXrecord
 10
0.0
 20
0.0
 30
0.0
  0
XRECORD
  5
1F786CD0F68197
102
{ACAD_REACTORS
330
1F786CD0F68180
102
}
330
1F786CD0F68180
100
AcDbXrecord
340
0
  0
XRECORD
  5
1F786CD0F68198
102
{ACAD_REACTORS
330
1F786CD0F68180
102
}
330
1F786CD0F68180
100
AcDbXrecord
 70
     0
  0
XRECORD
  5
1F786CD0F6818C
102
{ACAD_REACTORS
330
1F786CD0F68180
102
}
330
1F786CD0F68180
100
AcDbXrecord
  1
{E3CF8E02-8DB3-11D6-88E6-0090279574E7}
  0
DICTIONARYVAR
  5
1F786CD0F6817E
102
{ACAD_REACTORS
330
1F786CD0F6817D
102
}
330
1F786CD0F6817D
100
DictionaryVariables
280
     0
  1
1
  0
ENDSEC
  0
EOF
