  0
SECTION
  2
HEADER
  9
$ACADVER
  1
AC1014
  9
$ACADMAINTVER
 70
     9
  9
$DWGCODEPAGE
  3
ANSI_1252
  9
$INSBASE
 10
2.5625
 20
2.046875
 30
0.0
  9
$EXTMIN
 10
0.8195184207728567
 20
0.8701063959174186
 30
0.0
  9
$EXTMAX
 10
4.304737742519985
 20
2.063055217280199
 30
0.0
  9
$LIMMIN
 10
0.0
 20
0.0
  9
$LIMMAX
 10
18.0
 20
12.0
  9
$ORTHOMODE
 70
     1
  9
$REGENMODE
 70
     1
  9
$FILLMODE
 70
     1
  9
$QTEXTMODE
 70
     0
  9
$MIRRTEXT
 70
     0
  9
$DRAGMODE
 70
     2
  9
$LTSCALE
 40
1.0
  9
$OSMODE
 70
    39
  9
$ATTMODE
 70
     1
  9
$TEXTSIZE
 40
0.125
  9
$TRACEWID
 40
0.05
  9
$TEXTSTYLE
  7
ROMANS
  9
$CLAYER
  8
0
  9
$CELTYPE
  6
BYLAYER
  9
$CECOLOR
 62
   256
  9
$CELTSCALE
 40
1.0
  9
$DELOBJ
 70
     1
  9
$DISPSILH
 70
     1
  9
$DIMSCALE
 40
1.0
  9
$DIMASZ
 40
0.125
  9
$DIMEXO
 40
0.125
  9
$DIMDLI
 40
0.375
  9
$DIMRND
 40
0.0
  9
$DIMDLE
 40
0.0
  9
$DIMEXE
 40
0.125
  9
$DIMTP
 40
0.0
  9
$DIMTM
 40
0.0
  9
$DIMTXT
 40
0.125
  9
$DIMCEN
 40
-0.125
  9
$DIMTSZ
 40
0.0
  9
$DIMTOL
 70
     0
  9
$DIMLIM
 70
     0
  9
$DIMTIH
 70
     1
  9
$DIMTOH
 70
     1
  9
$DIMSE1
 70
     0
  9
$DIMSE2
 70
     0
  9
$DIMTAD
 70
     0
  9
$DIMZIN
 70
     4
  9
$DIMBLK
  1

  9
$DIMASO
 70
     1
  9
$DIMSHO
 70
     1
  9
$DIMPOST
  1

  9
$DIMAPOST
  1

  9
$DIMALT
 70
     0
  9
$DIMALTD
 70
     2
  9
$DIMALTF
 40
25.4
  9
$DIMLFAC
 40
1.0
  9
$DIMTOFL
 70
     0
  9
$DIMTVP
 40
0.0
  9
$DIMTIX
 70
     1
  9
$DIMSOXD
 70
     0
  9
$DIMSAH
 70
     0
  9
$DIMBLK1
  1

  9
$DIMBLK2
  1

  9
$DIMSTYLE
  2
STANDARD
  9
$DIMCLRD
 70
     0
  9
$DIMCLRE
 70
     0
  9
$DIMCLRT
 70
     0
  9
$DIMTFAC
 40
1.0
  9
$DIMGAP
 40
0.09
  9
$DIMJUST
 70
     0
  9
$DIMSD1
 70
     0
  9
$DIMSD2
 70
     0
  9
$DIMTOLJ
 70
     1
  9
$DIMTZIN
 70
     4
  9
$DIMALTZ
 70
     0
  9
$DIMALTTZ
 70
     0
  9
$DIMFIT
 70
     3
  9
$DIMUPT
 70
     0
  9
$DIMUNIT
 70
     2
  9
$DIMDEC
 70
     3
  9
$DIMTDEC
 70
     3
  9
$DIMALTU
 70
     2
  9
$DIMALTTD
 70
     2
  9
$DIMTXSTY
  7
ROMANS
  9
$DIMAUNIT
 70
     0
  9
$LUNITS
 70
     2
  9
$LUPREC
 70
     3
  9
$SKETCHINC
 40
0.1
  9
$FILLETRAD
 40
0.03125
  9
$AUNITS
 70
     0
  9
$AUPREC
 70
     0
  9
$MENU
  1
ACAD
  9
$ELEVATION
 40
0.0
  9
$PELEVATION
 40
0.0
  9
$THICKNESS
 40
0.0
  9
$LIMCHECK
 70
     0
  9
$BLIPMODE
 70
     0
  9
$CHAMFERA
 40
0.0
  9
$CHAMFERB
 40
0.0
  9
$CHAMFERC
 40
0.0
  9
$CHAMFERD
 40
0.0
  9
$SKPOLY
 70
     0
  9
$TDCREATE
 40
2448993.486665278
  9
$TDUPDATE
 40
2452458.294871203
  9
$TDINDWG
 40
0.0006932639
  9
$TDUSRTIMER
 40
0.0006932639
  9
$USRTIMER
 70
     1
  9
$ANGBASE
 50
0.0
  9
$ANGDIR
 70
     0
  9
$PDMODE
 70
     0
  9
$PDSIZE
 40
0.0
  9
$PLINEWID
 40
0.0
  9
$COORDS
 70
     2
  9
$SPLFRAME
 70
     0
  9
$SPLINETYPE
 70
     6
  9
$SPLINESEGS
 70
     8
  9
$ATTDIA
 70
     0
  9
$ATTREQ
 70
     1
  9
$HANDLING
 70
 22529
  9
$HANDSEED
  5
FBB8E97DFA49D
  9
$SURFTAB1
 70
     6
  9
$SURFTAB2
 70
     6
  9
$SURFTYPE
 70
     6
  9
$SURFU
 70
     6
  9
$SURFV
 70
     6
  9
$UCSNAME
  2

  9
$UCSORG
 10
0.0
 20
0.0
 30
0.0
  9
$UCSXDIR
 10
1.0
 20
0.0
 30
0.0
  9
$UCSYDIR
 10
0.0
 20
1.0
 30
0.0
  9
$PUCSNAME
  2

  9
$PUCSORG
 10
0.0
 20
0.0
 30
0.0
  9
$PUCSXDIR
 10
1.0
 20
0.0
 30
0.0
  9
$PUCSYDIR
 10
0.0
 20
1.0
 30
0.0
  9
$USERI1
 70
     0
  9
$USERI2
 70
     0
  9
$USERI3
 70
     0
  9
$USERI4
 70
     0
  9
$USERI5
 70
     0
  9
$USERR1
 40
0.0
  9
$USERR2
 40
0.0
  9
$USERR3
 40
0.0
  9
$USERR4
 40
0.0
  9
$USERR5
 40
0.0
  9
$WORLDVIEW
 70
     1
  9
$SHADEDGE
 70
     3
  9
$SHADEDIF
 70
    70
  9
$TILEMODE
 70
     1
  9
$MAXACTVP
 70
    16
  9
$PINSBASE
 10
1.441100536558999
 20
50.00000000000001
 30
1.466463421257374
  9
$PLIMCHECK
 70
     0
  9
$PEXTMIN
 10
1.000000000000000E+20
 20
1.000000000000000E+20
 30
1.000000000000000E+20
  9
$PEXTMAX
 10
-1.000000000000000E+20
 20
-1.000000000000000E+20
 30
-1.000000000000000E+20
  9
$PLIMMIN
 10
0.0
 20
0.0
  9
$PLIMMAX
 10
12.0
 20
9.0
  9
$UNITMODE
 70
     0
  9
$VISRETAIN
 70
     0
  9
$PLINEGEN
 70
     1
  9
$PSLTSCALE
 70
     0
  9
$TREEDEPTH
 70
  3020
  9
$PICKSTYLE
 70
     1
  9
$CMLSTYLE
  2
STANDARD
  9
$CMLJUST
 70
     0
  9
$CMLSCALE
 40
1.0
  9
$PROXYGRAPHICS
 70
     1
  9
$MEASUREMENT
 70
     0
  0
ENDSEC
  0
SECTION
  2
CLASSES
  0
CLASS
  1
LWPOLYLINE
  2
AcDbPolyline
  3
AutoCAD 2000
 90
        0
280
     0
281
     1
  0
CLASS
  1
ACDBDICTIONARYWDFLT
  2
AcDbDictionaryWithDefault
  3
AutoCAD 2000
 90
        0
280
     0
281
     0
  0
CLASS
  1
ACDBPLACEHOLDER
  2
AcDbPlaceHolder
  3
AutoCAD 2000
 90
        0
280
     0
281
     0
  0
CLASS
  1
LAYOUT
  2
AcDbLayout
  3
AutoCAD 2000
 90
        0
280
     0
281
     0
  0
CLASS
  1
DICTIONARYVAR
  2
AcDbDictionaryVar
  3
AutoCAD 2000
 90
        0
280
     0
281
     0
  0
CLASS
  1
LONG_TRANSACTION
  2
AcDbLongTransaction
  3
AutoCAD 2000
 90
        0
280
     0
281
     0
  0
CLASS
  1
LWPOLYLINE
  2
AcDbPolyline
  3
AutoCAD 2000
 90
        0
280
     0
281
     1
  0
CLASS
  1
HATCH
  2
AcDbHatch
  3
AutoCAD 2000
 90
        0
280
     0
281
     1
  0
CLASS
  1
XRECORD
  2
AcDbXrecord
  3
AutoCAD 2000
 90
        0
280
     0
281
     0
  0
ENDSEC
  0
SECTION
  2
TABLES
  0
TABLE
  2
VPORT
  5
FBB8E97DFA444
330
0
100
AcDbSymbolTable
 70
     2
  0
VPORT
  5
FBB8E97DFA478
330
FBB8E97DFA444
100
AcDbSymbolTableRecord
100
AcDbViewportTableRecord
  2
*ACTIVE
 70
     0
 10
0.0
 20
0.0
 11
1.0
 21
1.0
 12
5.53903468771193
 22
1.466308616411765
 13
0.0
 23
0.0
 14
0.015625
 24
0.015625
 15
0.0
 25
0.0
 16
0.0
 26
0.0
 36
1.0
 17
0.0
 27
0.0
 37
0.0
 40
2.282647215150728
 41
4.320930232558139
 42
50.0
 43
0.0
 44
0.0
 50
0.0
 51
0.0
 71
     0
 72
  2000
 73
     1
 74
     0
 75
     1
 76
     0
 77
     0
 78
     0
  0
ENDTAB
  0
TABLE
  2
LTYPE
  5
FBB8E97DFA441
330
0
100
AcDbSymbolTable
 70
     1
  0
LTYPE
  5
FBB8E97DFA44E
330
FBB8E97DFA441
100
AcDbSymbolTableRecord
100
AcDbLinetypeTableRecord
  2
BYBLOCK
 70
     0
  3

 72
    65
 73
     0
 40
0.0
  0
LTYPE
  5
FBB8E97DFA44F
330
FBB8E97DFA441
100
AcDbSymbolTableRecord
100
AcDbLinetypeTableRecord
  2
BYLAYER
 70
     0
  3

 72
    65
 73
     0
 40
0.0
  0
LTYPE
  5
FBB8E97DFA450
330
FBB8E97DFA441
100
AcDbSymbolTableRecord
100
AcDbLinetypeTableRecord
  2
CONTINUOUS
 70
     0
  3
Solid line
 72
    65
 73
     0
 40
0.0
  0
ENDTAB
  0
TABLE
  2
LAYER
  5
FBB8E97DFA43E
330
0
100
AcDbSymbolTable
 70
     2
  0
LAYER
  5
FBB8E97DFA44B
330
FBB8E97DFA43E
100
AcDbSymbolTableRecord
100
AcDbLayerTableRecord
  2
0
 70
     0
 62
     7
  6
CONTINUOUS
  0
LAYER
  5
FBB8E97DFA45B
330
FBB8E97DFA43E
100
AcDbSymbolTableRecord
100
AcDbLayerTableRecord
  2
TEXT
 70
     0
 62
     3
  6
CONTINUOUS
  0
ENDTAB
  0
TABLE
  2
STYLE
  5
FBB8E97DFA43F
330
0
100
AcDbSymbolTable
 70
     3
  0
STYLE
  5
FBB8E97DFA44C
330
FBB8E97DFA43F
100
AcDbSymbolTableRecord
100
AcDbTextStyleTableRecord
  2
STANDARD
 70
     0
 40
0.0
 41
1.0
 50
0.0
 71
     0
 42
0.3125
  3
txt
  4

  0
STYLE
  5
FBB8E97DFA458
330
FBB8E97DFA43F
100
AcDbSymbolTableRecord
100
AcDbTextStyleTableRecord
  2
ITALICC
 70
     0
 40
0.0
 41
1.0
 50
0.0
 71
     0
 42
0.125
  3
italicc
  4

  0
STYLE
  5
FBB8E97DFA468
330
FBB8E97DFA43F
100
AcDbSymbolTableRecord
100
AcDbTextStyleTableRecord
  2
ROMANS
 70
     0
 40
0.0
 41
1.0
 50
0.0
 71
     0
 42
0.125
  3
romans.shx
  4

  0
ENDTAB
  0
TABLE
  2
VIEW
  5
FBB8E97DFA442
330
0
100
AcDbSymbolTable
 70
     0
  0
ENDTAB
  0
TABLE
  2
UCS
  5
FBB8E97DFA443
330
0
100
AcDbSymbolTable
 70
     0
  0
ENDTAB
  0
TABLE
  2
APPID
  5
FBB8E97DFA445
330
0
100
AcDbSymbolTable
 70
     1
  0
APPID
  5
FBB8E97DFA44D
330
FBB8E97DFA445
100
AcDbSymbolTableRecord
100
AcDbRegAppTableRecord
  2
ACAD
 70
     0
  0
ENDTAB
  0
TABLE
  2
DIMSTYLE
  5
FBB8E97DFA446
330
0
100
AcDbSymbolTable
 70
     1
  0
DIMSTYLE
105
FBB8E97DFA460
330
FBB8E97DFA446
100
AcDbSymbolTableRecord
100
AcDbDimStyleTableRecord
  2
STANDARD
 70
     0
  3

  4

  5

  6

  7

 40
1.0
 41
0.125
 42
0.125
 43
0.375
 44
0.125
 45
0.0
 46
0.0
 47
0.0
 48
0.0
140
0.125
141
-0.125
142
0.0
143
25.4
144
1.0
145
0.0
146
1.0
147
0.09
 71
     0
 72
     0
 73
     1
 74
     1
 75
     0
 76
     0
 77
     0
 78
     4
170
     0
171
     2
172
     0
173
     0
174
     1
175
     0
176
     0
177
     0
178
     0
270
     2
271
     3
272
     3
273
     2
274
     2
340
FBB8E97DFA468
275
     0
280
     0
281
     0
282
     0
283
     1
284
     4
285
     0
286
     0
287
     3
288
     0
  0
ENDTAB
  0
TABLE
  2
BLOCK_RECORD
  5
FBB8E97DFA43D
330
0
100
AcDbSymbolTable
 70
     0
  0
BLOCK_RECORD
  5
FBB8E97DFA454
102
{ACAD_XDICTIONARY
360
FBB8E97DFA49B
102
}
330
FBB8E97DFA43D
100
AcDbSymbolTableRecord
100
AcDbBlockTableRecord
  2
*MODEL_SPACE
  0
BLOCK_RECORD
  5
FBB8E97DFA451
102
{ACAD_XDICTIONARY
360
FBB8E97DFA499
102
}
330
FBB8E97DFA43D
100
AcDbSymbolTableRecord
100
AcDbBlockTableRecord
  2
*PAPER_SPACE
  0
ENDTAB
  0
ENDSEC
  0
SECTION
  2
BLOCKS
  0
BLOCK
  5
FBB8E97DFA45E
330
FBB8E97DFA454
100
AcDbEntity
  8
0
100
AcDbBlockBegin
  2
*MODEL_SPACE
 70
     0
 10
0.0
 20
0.0
 30
0.0
  3
*MODEL_SPACE
  1

  0
ENDBLK
  5
FBB8E97DFA45F
330
FBB8E97DFA454
100
AcDbEntity
  8
0
100
AcDbBlockEnd
  0
BLOCK
  5
FBB8E97DFA45C
330
FBB8E97DFA451
100
AcDbEntity
 67
     1
  8
0
100
AcDbBlockBegin
  2
*PAPER_SPACE
 70
     0
 10
0.0
 20
0.0
 30
0.0
  3
*PAPER_SPACE
  1

  0
ENDBLK
  5
FBB8E97DFA45D
330
FBB8E97DFA451
100
AcDbEntity
 67
     1
  8
0
100
AcDbBlockEnd
  0
ENDSEC
  0
SECTION
  2
ENTITIES
  0
LWPOLYLINE
  5
FBB8E97DF8E83
330
FBB8E97DFA454
100
AcDbEntity
  8
0
100
AcDbPolyline
 90
       27
 70
     1
 43
0.0
 10
2.609375
 20
1.906249999999999
 10
2.587499999999999
 20
1.90625
 10
2.587499999999999
 20
1.984375
 10
2.90625
 20
1.984375
 10
2.90625
 20
1.96875
 10
2.96875
 20
1.96875
 42
0.4142135623730951
 10
2.890625
 20
2.046875
 10
2.234375
 20
2.046875
 42
0.4142135623730951
 10
2.15625
 20
1.96875
 10
2.21875
 20
1.96875
 10
2.21875
 20
1.984375
 10
2.27125
 20
1.984374999999999
 10
2.28125
 20
1.994374999999999
 10
2.291249999999999
 20
1.984375
 10
2.5375
 20
1.984375
 10
2.5375
 20
1.90625
 10
2.515625
 20
1.90625
 10
2.5375
 20
1.812499999999999
 10
2.515625
 20
1.812499999999999
 10
2.5375
 20
1.71875
 10
2.515625
 20
1.71875
 10
2.547454514804177
 20
1.605159077773218
 42
0.7583057392117843
 10
2.577545485195822
 20
1.605159077773218
 10
2.609375
 20
1.71875
 10
2.587499999999999
 20
1.71875
 10
2.609375
 20
1.812499999999999
 10
2.587499999999999
 20
1.812499999999999
  0
TEXT
  5
FBB8E97DFA2FF
330
FBB8E97DFA454
100
AcDbEntity
  8
TEXT
100
AcDbText
 10
1.809523809523809
 20
1.328125
 30
0.0
 40
0.125
  1
PART #110093
  7
ITALICC
 72
     1
 11
2.5625
 21
1.328125
 31
0.0
100
AcDbText
  0
TEXT
  5
FBB8E97DFA300
330
FBB8E97DFA454
100
AcDbEntity
  8
TEXT
100
AcDbText
 10
2.97580515825032
 20
0.8812023573276251
 30
0.0
 40
0.0522247191011236
  1
Phone  1-800-328-2495
 41
1.272321428571429
 72
     5
 11
4.304737742519984
 21
0.8812023573276251
 31
0.0
100
AcDbText
  0
TEXT
  5
FBB8E97DFA301
330
FBB8E97DFA454
100
AcDbEntity
  8
TEXT
100
AcDbText
 10
2.97580515825032
 20
1.160977638226501
 30
0.0
 40
0.0522247191011236
  1
Stylmark  Incorporated
 41
1.221428571428573
 72
     5
 11
4.304737742519984
 21
1.160977638226501
 31
0.0
100
AcDbText
  0
TEXT
  5
FBB8E97DFA302
330
FBB8E97DFA454
100
AcDbEntity
  8
TEXT
100
AcDbText
 10
2.97580515825032
 20
1.067719211260209
 30
0.0
 40
0.0522247191011236
  1
6536 Main St. N.E. * P.O. Box 32008
 41
0.8388932496075366
 72
     5
 11
4.304737742519984
 21
1.067719211260209
 31
0.0
100
AcDbText
  0
TEXT
  5
FBB8E97DFA303
330
FBB8E97DFA454
100
AcDbEntity
  8
TEXT
100
AcDbText
 10
2.97580515825032
 20
0.9744607842939172
 30
0.0
 40
0.0522247191011236
  1
Minneapolis, MN 55432-0008
 41
1.11444212721585
 72
     5
 11
4.304737742519984
 21
0.9744607842939172
 31
0.0
100
AcDbText
  0
LWPOLYLINE
  5
FBB8E97DFA304
330
FBB8E97DFA454
100
AcDbEntity
  8
TEXT
100
AcDbPolyline
 90
        3
 70
     0
 43
0.0006660908203125
 10
0.8198514661830129
 20
0.9948471199650599
 10
0.8198514661830129
 20
0.8816116805119323
 10
0.9330869056361352
 20
0.8816116805119323
  0
LWPOLYLINE
  5
FBB8E97DFA309
330
FBB8E97DFA454
100
AcDbEntity
  8
TEXT
100
AcDbPolyline
 90
        3
 70
     0
 43
0.0006660908203125
 10
0.8464950989955104
 20
0.9948471199650599
 10
0.8464950989955104
 20
0.9082553133244333
 10
0.9330869056361352
 20
0.9082553133244333
  0
LWPOLYLINE
  5
FBB8E97DFA30E
330
FBB8E97DFA454
100
AcDbEntity
  8
TEXT
100
AcDbPolyline
 90
        2
 70
     0
 43
0.0001332181640625
 10
0.8931214564173872
 20
1.004838482269745
 10
0.8198514661830129
 20
0.9948471199650599
  0
LWPOLYLINE
  5
FBB8E97DFA312
330
FBB8E97DFA454
100
AcDbEntity
  8
TEXT
100
AcDbPolyline
 90
        2
 70
     0
 43
0.0001332181640625
 10
0.8464950989955104
 20
0.9948471199650599
 10
0.9064432728236377
 20
1.004838482269745
  0
LWPOLYLINE
  5
FBB8E97DFA316
330
FBB8E97DFA454
100
AcDbEntity
  8
TEXT
100
AcDbPolyline
 90
        2
 70
     0
 43
0.0001332181640625
 10
0.8464950989955104
 20
0.9082553133244333
 10
0.9064432728236377
 20
0.9682034871525589
  0
LWPOLYLINE
  5
FBB8E97DFA31A
330
FBB8E97DFA454
100
AcDbEntity
  8
TEXT
100
AcDbPolyline
 90
        3
 70
     0
 43
0.0006660908203125
 10
0.9330869056361352
 20
1.148048008636935
 10
0.8198514661830129
 20
1.148048008636935
 10
0.8198514661830129
 20
1.034812569183807
  0
LWPOLYLINE
  5
FBB8E97DFA31F
330
FBB8E97DFA454
100
AcDbEntity
  8
TEXT
100
AcDbPolyline
 90
        3
 70
     0
 43
0.0006660908203125
 10
0.9330869056361352
 20
1.121404375824434
 10
0.8464950989955104
 20
1.121404375824434
 10
0.8464950989955104
 20
1.034812569183807
  0
LWPOLYLINE
  5
FBB8E97DFA324
330
FBB8E97DFA454
100
AcDbEntity
  8
TEXT
100
AcDbPolyline
 90
        2
 70
     0
 43
0.0001332181640625
 10
0.8464950989955104
 20
1.121404375824434
 10
0.906443272823636
 20
1.061456201996308
  0
LWPOLYLINE
  5
FBB8E97DFA328
330
FBB8E97DFA454
100
AcDbEntity
  8
TEXT
100
AcDbPolyline
 90
        2
 70
     0
 43
0.0001332181640625
 10
0.8464950989955104
 20
1.034812569183807
 10
0.906443272823636
 20
1.024821206879119
  0
LWPOLYLINE
  5
FBB8E97DFA32C
330
FBB8E97DFA454
100
AcDbEntity
  8
TEXT
100
AcDbPolyline
 90
        2
 70
     0
 43
0.0001332181640625
 10
0.8198514661830129
 20
1.034812569183807
 10
0.8931214564173872
 20
1.024821206879119
  0
LWPOLYLINE
  5
FBB8E97DFA330
330
FBB8E97DFA454
100
AcDbEntity
  8
TEXT
100
AcDbPolyline
 90
        2
 70
     0
 43
0.0006660908203125
 10
0.8464950989955104
 20
0.9948471199650599
 10
0.8198514661830129
 20
0.9948471199650599
  0
LWPOLYLINE
  5
FBB8E97DFA334
330
FBB8E97DFA454
100
AcDbEntity
  8
TEXT
100
AcDbPolyline
 90
        2
 70
     0
 43
0.0006660908203125
 10
0.8464950989955104
 20
1.034812569183807
 10
0.8198514661830129
 20
1.034812569183807
  0
LINE
  5
FBB8E97DFA338
330
FBB8E97DFA454
100
AcDbEntity
  8
TEXT
100
AcDbLine
 10
2.33504189530951
 20
1.083771313980166
 30
0.0
 11
2.227835621922221
 21
1.083771313980166
 31
0.0
  0
LINE
  5
FBB8E97DFA339
330
FBB8E97DFA454
100
AcDbEntity
  8
TEXT
100
AcDbLine
 10
2.364072793653988
 20
1.148048008636932
 30
0.0
 11
2.229240884436929
 21
1.148048008636932
 31
0.0
  0
ARC
  5
FBB8E97DFA33A
330
FBB8E97DFA454
100
AcDbEntity
  8
TEXT
100
AcDbCircle
 10
2.288554980830246
 20
0.9788107593739157
 30
0.0
 40
0.0676855811441166
100
AcDbArc
 50
90.0
 51
153.7768192527749
  0
LWPOLYLINE
  5
FBB8E97DFA33B
330
FBB8E97DFA454
100
AcDbEntity
  8
TEXT
100
AcDbPolyline
 90
        2
 70
     0
 43
0.0
 10
2.226803126467411
 20
0.9250659205988592
 42
0.2901071551932823
 10
2.269879059335046
 20
0.881574975648421
 42
5.328517124445801
  0
ARC
  5
FBB8E97DFA33F
330
FBB8E97DFA454
100
AcDbEntity
  8
TEXT
100
AcDbCircle
 10
1.58342360315876
 20
0.9413673669864708
 30
0.0
 40
0.0601160179737537
100
AcDbArc
 50
180.0000000000003
 51
264.0521544866073
  0
LINE
  5
FBB8E97DFA340
330
FBB8E97DFA454
100
AcDbEntity
  8
TEXT
100
AcDbLine
 10
1.586938958784308
 20
1.18243592623107
 30
0.0
 11
1.526896353940301
 21
1.18243592623107
 31
0.0
  0
ARC
  5
FBB8E97DFA341
330
FBB8E97DFA454
100
AcDbEntity
  8
TEXT
100
AcDbCircle
 10
1.35116460104179
 20
1.06596054919043
 30
0.0
 40
0.0820874594465043
100
AcDbArc
 50
90.0
 51
270.0
  0
LWPOLYLINE
  5
FBB8E97DFA342
330
FBB8E97DFA454
100
AcDbEntity
  8
TEXT
100
AcDbPolyline
 90
        2
 70
     0
 43
0.0001332181640625
 10
0.9430782679408258
 20
1.074778018402555
 10
0.9330869056361352
 20
1.148048008636935
  0
LWPOLYLINE
  5
FBB8E97DFA346
330
FBB8E97DFA454
100
AcDbEntity
  8
TEXT
100
AcDbPolyline
 90
        2
 70
     0
 43
0.0001332181640625
 10
0.9330869056361352
 20
1.121404375824434
 10
0.9430782679408258
 20
1.061456201996308
  0
LWPOLYLINE
  5
FBB8E97DFA34A
330
FBB8E97DFA454
100
AcDbEntity
  8
TEXT
100
AcDbPolyline
 90
        3
 70
     0
 43
0.0006660908203125
 10
1.086287794308012
 20
1.034812569183807
 10
1.086287794308012
 20
1.148048008636935
 10
0.9730523548548868
 20
1.148048008636935
  0
LWPOLYLINE
  5
FBB8E97DFA34F
330
FBB8E97DFA454
100
AcDbEntity
  8
TEXT
100
AcDbPolyline
 90
        3
 70
     0
 43
0.0006660908203125
 10
1.059644161495511
 20
1.034812569183807
 10
1.059644161495511
 20
1.121404375824434
 10
0.9730523548548868
 20
1.121404375824434
  0
LWPOLYLINE
  5
FBB8E97DFA354
330
FBB8E97DFA454
100
AcDbEntity
  8
TEXT
100
AcDbPolyline
 90
        2
 70
     0
 43
0.0001332181640625
 10
1.059644161495511
 20
1.121404375824434
 10
0.9996959876673878
 20
1.061456201996308
  0
LWPOLYLINE
  5
FBB8E97DFA358
330
FBB8E97DFA454
100
AcDbEntity
  8
TEXT
100
AcDbPolyline
 90
        2
 70
     0
 43
0.0001332181640625
 10
0.9730523548548868
 20
1.121404375824434
 10
0.963060992550198
 20
1.061456201996308
  0
LWPOLYLINE
  5
FBB8E97DFA35C
330
FBB8E97DFA454
100
AcDbEntity
  8
TEXT
100
AcDbPolyline
 90
        2
 70
     0
 43
0.0001332181640625
 10
0.9730523548548868
 20
1.148048008636935
 10
0.963060992550198
 20
1.074778018402555
  0
LWPOLYLINE
  5
FBB8E97DFA360
330
FBB8E97DFA454
100
AcDbEntity
  8
TEXT
100
AcDbPolyline
 90
        2
 70
     0
 43
0.0001332181640625
 10
1.013017804073636
 20
1.024821206879119
 10
1.086287794308012
 20
1.034812569183807
  0
LWPOLYLINE
  5
FBB8E97DFA364
330
FBB8E97DFA454
100
AcDbEntity
  8
TEXT
100
AcDbPolyline
 90
        2
 70
     0
 43
0.0001332181640625
 10
1.059644161495511
 20
1.034812569183807
 10
0.9996959876673878
 20
1.024821206879119
  0
LWPOLYLINE
  5
FBB8E97DFA368
330
FBB8E97DFA454
100
AcDbEntity
  8
TEXT
100
AcDbPolyline
 90
        2
 70
     0
 43
0.0001332181640625
 10
1.086287794308012
 20
0.9948471199650599
 10
1.013017804073636
 20
1.004838482269745
  0
LWPOLYLINE
  5
FBB8E97DFA36C
330
FBB8E97DFA454
100
AcDbEntity
  8
TEXT
100
AcDbPolyline
 90
        2
 70
     0
 43
0.0001332181640625
 10
1.059644161495511
 20
0.9948471199650599
 10
0.9996959876673878
 20
1.004838482269745
  0
LWPOLYLINE
  5
FBB8E97DFA370
330
FBB8E97DFA454
100
AcDbEntity
  8
TEXT
100
AcDbPolyline
 90
        2
 70
     0
 43
0.0001332181640625
 10
1.059644161495511
 20
0.9082553133244333
 10
0.9996959876673878
 20
0.9682034871525589
  0
LWPOLYLINE
  5
FBB8E97DFA374
330
FBB8E97DFA454
100
AcDbEntity
  8
TEXT
100
AcDbPolyline
 90
        3
 70
     0
 43
0.0006660908203125
 10
0.9730523548548868
 20
0.9082553133244333
 10
1.059644161495511
 20
0.9082553133244333
 10
1.059644161495511
 20
0.9948471199650599
  0
LWPOLYLINE
  5
FBB8E97DFA379
330
FBB8E97DFA454
100
AcDbEntity
  8
TEXT
100
AcDbPolyline
 90
        3
 70
     0
 43
0.0006660908203125
 10
0.9730523548548868
 20
0.8816116805119323
 10
1.086287794308012
 20
0.8816116805119323
 10
1.086287794308012
 20
0.9948471199650599
  0
LWPOLYLINE
  5
FBB8E97DFA37E
330
FBB8E97DFA454
100
AcDbEntity
  8
TEXT
100
AcDbPolyline
 90
        5
 70
     0
 43
0.0001332181640625
 10
0.9430782679408258
 20
0.9548816707463084
 10
0.9430782679408258
 20
0.9682034871525589
 10
0.9064432728236377
 20
0.9682034871525589
 10
0.9064432728236377
 20
1.004838482269745
 10
0.8931214564173872
 20
1.004838482269745
  0
LWPOLYLINE
  5
FBB8E97DFA385
330
FBB8E97DFA454
100
AcDbEntity
  8
TEXT
100
AcDbPolyline
 90
        2
 70
     0
 43
0.0006660908203125
 10
0.9330869056361352
 20
0.9082553133244333
 10
0.9330869056361352
 20
0.8816116805119323
  0
LWPOLYLINE
  5
FBB8E97DFA389
330
FBB8E97DFA454
100
AcDbEntity
  8
TEXT
100
AcDbPolyline
 90
        2
 70
     0
 43
0.0001332181640625
 10
0.9330869056361352
 20
0.9082553133244333
 10
0.9430782679408258
 20
0.9682034871525589
  0
LWPOLYLINE
  5
FBB8E97DFA38D
330
FBB8E97DFA454
100
AcDbEntity
  8
TEXT
100
AcDbPolyline
 90
        2
 70
     0
 43
0.0001332181640625
 10
0.9330869056361352
 20
0.8816116805119323
 10
0.9430782679408258
 20
0.9548816707463084
  0
LWPOLYLINE
  5
FBB8E97DFA391
330
FBB8E97DFA454
100
AcDbEntity
  8
TEXT
100
AcDbPolyline
 90
        5
 70
     0
 43
0.0001332181640625
 10
0.8931214564173872
 20
1.024821206879119
 10
0.906443272823636
 20
1.024821206879119
 10
0.906443272823636
 20
1.061456201996308
 10
0.9430782679408258
 20
1.061456201996308
 10
0.9430782679408258
 20
1.074778018402555
  0
LWPOLYLINE
  5
FBB8E97DFA398
330
FBB8E97DFA454
100
AcDbEntity
  8
TEXT
100
AcDbPolyline
 90
        5
 70
     0
 43
0.0001332181640625
 10
0.963060992550198
 20
1.074778018402555
 10
0.963060992550198
 20
1.061456201996308
 10
0.9996959876673878
 20
1.061456201996308
 10
0.9996959876673878
 20
1.024821206879119
 10
1.013017804073636
 20
1.024821206879119
  0
LWPOLYLINE
  5
FBB8E97DFA39F
330
FBB8E97DFA454
100
AcDbEntity
  8
TEXT
100
AcDbPolyline
 90
        2
 70
     0
 43
0.0001332181640625
 10
0.9730523548548868
 20
0.9082553133244333
 10
0.963060992550198
 20
0.9682034871525589
  0
LWPOLYLINE
  5
FBB8E97DFA3A3
330
FBB8E97DFA454
100
AcDbEntity
  8
TEXT
100
AcDbPolyline
 90
        2
 70
     0
 43
0.0001332181640625
 10
0.963060992550198
 20
0.9548816707463084
 10
0.9730523548548868
 20
0.8816116805119323
  0
LWPOLYLINE
  5
FBB8E97DFA3A7
330
FBB8E97DFA454
100
AcDbEntity
  8
TEXT
100
AcDbPolyline
 90
        2
 70
     0
 43
0.0006660908203125
 10
0.9730523548548868
 20
0.9082553133244333
 10
0.9730523548548868
 20
0.8816116805119323
  0
LWPOLYLINE
  5
FBB8E97DFA3AB
330
FBB8E97DFA454
100
AcDbEntity
  8
TEXT
100
AcDbPolyline
 90
        5
 70
     0
 43
0.0001332181640625
 10
1.013017804073636
 20
1.004838482269745
 10
0.9996959876673878
 20
1.004838482269745
 10
0.9996959876673878
 20
0.9682034871525589
 10
0.963060992550198
 20
0.9682034871525589
 10
0.963060992550198
 20
0.9548816707463084
  0
LWPOLYLINE
  5
FBB8E97DFA3B2
330
FBB8E97DFA454
100
AcDbEntity
  8
TEXT
100
AcDbPolyline
 90
        2
 70
     0
 43
0.0006660908203125
 10
1.059644161495511
 20
1.034812569183807
 10
1.086287794308012
 20
1.034812569183807
  0
LWPOLYLINE
  5
FBB8E97DFA3B6
330
FBB8E97DFA454
100
AcDbEntity
  8
TEXT
100
AcDbPolyline
 90
        2
 70
     0
 43
0.0006660908203125
 10
1.059644161495511
 20
0.9948471199650599
 10
1.086287794308012
 20
0.9948471199650599
  0
LINE
  5
FBB8E97DFA3BA
330
FBB8E97DFA454
100
AcDbEntity
  8
TEXT
100
AcDbLine
 10
1.356401931156037
 20
1.083771313980166
 30
0.0
 11
1.523307585185008
 21
1.083771313980166
 31
0.0
  0
LINE
  5
FBB8E97DFA3BB
330
FBB8E97DFA454
100
AcDbEntity
  8
TEXT
100
AcDbLine
 10
1.422002067400338
 20
1.047966592369538
 30
0.0
 11
1.356401931156037
 21
1.047966592369538
 31
0.0
  0
LINE
  5
FBB8E97DFA3BC
330
FBB8E97DFA454
100
AcDbEntity
  8
TEXT
100
AcDbLine
 10
1.269077141595285
 20
0.881574975648421
 30
0.0
 11
1.422002067400338
 21
0.881574975648421
 31
0.0
  0
LINE
  5
FBB8E97DFA3BD
330
FBB8E97DFA454
100
AcDbEntity
  8
TEXT
100
AcDbLine
 10
1.426942441306618
 20
0.9499319819818603
 30
0.0
 11
1.269077141595284
 21
0.9499319819818603
 31
0.0
  0
LINE
  5
FBB8E97DFA3BE
330
FBB8E97DFA454
100
AcDbEntity
  8
TEXT
100
AcDbLine
 10
1.351164601041789
 20
0.983873089743925
 30
0.0
 11
1.426942441306618
 21
0.983873089743925
 31
0.0
  0
ARC
  5
FBB8E97DFA3BF
330
FBB8E97DFA454
100
AcDbEntity
  8
TEXT
100
AcDbCircle
 10
1.356401931156038
 20
1.065868953174854
 30
0.0
 40
0.017902360805315
100
AcDbArc
 50
90.0
 51
270.0
  0
LINE
  5
FBB8E97DFA3C0
330
FBB8E97DFA454
100
AcDbEntity
  8
TEXT
100
AcDbLine
 10
1.269077141595284
 20
0.9499319819818603
 30
0.0
 11
1.269077141595285
 21
0.881574975648421
 31
0.0
  0
LINE
  5
FBB8E97DFA3C1
330
FBB8E97DFA454
100
AcDbEntity
  8
TEXT
100
AcDbLine
 10
1.523307585185008
 20
1.083771313980166
 30
0.0
 11
1.523307585185008
 21
0.9413673669864708
 31
0.0
  0
ARC
  5
FBB8E97DFA3C2
330
FBB8E97DFA454
100
AcDbEntity
  8
TEXT
100
AcDbCircle
 10
1.422002067400339
 20
0.9647707840089781
 30
0.0
 40
0.0831958083605586
100
AcDbArc
 50
270.0
 51
90.0
  0
ARC
  5
FBB8E97DFA3C3
330
FBB8E97DFA454
100
AcDbEntity
  8
TEXT
100
AcDbCircle
 10
1.426942441306619
 20
0.9669025358628944
 30
0.0
 40
0.0169705538810321
100
AcDbArc
 50
270.0
 51
90.0
  0
LWPOLYLINE
  5
FBB8E97DFA3C4
330
FBB8E97DFA454
100
AcDbEntity
  8
TEXT
100
AcDbPolyline
 90
        2
 70
     0
 43
0.0006660908203125
 10
0.9330869056361352
 20
1.121404375824434
 10
0.9330869056361352
 20
1.148048008636935
  0
LWPOLYLINE
  5
FBB8E97DFA3C8
330
FBB8E97DFA454
100
AcDbEntity
  8
TEXT
100
AcDbPolyline
 90
        2
 70
     0
 43
0.0006660908203125
 10
0.9730523548548868
 20
1.121404375824434
 10
0.9730523548548868
 20
1.148048008636935
  0
LINE
  5
FBB8E97DFA3CC
330
FBB8E97DFA454
100
AcDbEntity
  8
TEXT
100
AcDbLine
 10
1.526896353940301
 20
1.148048008636932
 30
0.0
 11
1.351164601041789
 21
1.148048008636932
 31
0.0
  0
LINE
  5
FBB8E97DFA3CD
330
FBB8E97DFA454
100
AcDbEntity
  8
TEXT
100
AcDbLine
 10
1.526896353940301
 20
1.18243592623107
 30
0.0
 11
1.526896353940301
 21
1.148048008636932
 31
0.0
  0
LINE
  5
FBB8E97DFA3CE
330
FBB8E97DFA454
100
AcDbEntity
  8
TEXT
100
AcDbLine
 10
1.717368245960154
 20
1.047176012523811
 30
0.0
 11
1.658737924928216
 21
1.148048008636932
 31
0.0
  0
LINE
  5
FBB8E97DFA3CF
330
FBB8E97DFA454
100
AcDbEntity
  8
TEXT
100
AcDbLine
 10
1.776116808766019
 20
1.148048008636932
 30
0.0
 11
1.717368245960154
 21
1.047176012523811
 31
0.0
  0
LINE
  5
FBB8E97DFA3D0
330
FBB8E97DFA454
100
AcDbEntity
  8
TEXT
100
AcDbLine
 10
1.87304743412576
 20
0.9639628137514202
 30
0.0
 11
1.87304743412576
 21
1.216059486375742
 31
0.0
  0
LINE
  5
FBB8E97DFA3D1
330
FBB8E97DFA454
100
AcDbEntity
  8
TEXT
100
AcDbLine
 10
1.90535928826342
 20
1.148048008636932
 30
0.0
 11
1.90535928826342
 21
0.9471838019045238
 31
0.0
  0
LINE
  5
FBB8E97DFA3D2
330
FBB8E97DFA454
100
AcDbEntity
  8
TEXT
100
AcDbLine
 10
1.90535928826342
 20
0.9471838019045238
 30
0.0
 11
1.888365651378819
 21
0.9471838019045238
 31
0.0
  0
LINE
  5
FBB8E97DFA3D3
330
FBB8E97DFA454
100
AcDbEntity
  8
TEXT
100
AcDbLine
 10
1.874187007621955
 20
0.881574975648421
 30
0.0
 11
1.97219034132139
 21
0.881574975648421
 31
0.0
  0
LINE
  5
FBB8E97DFA3D4
330
FBB8E97DFA454
100
AcDbEntity
  8
TEXT
100
AcDbLine
 10
1.707768008963199
 20
0.9015334817534339
 30
0.0
 11
1.805067715056644
 21
1.065883692688702
 31
0.0
  0
ARC
  5
FBB8E97DFA3D5
330
FBB8E97DFA454
100
AcDbEntity
  8
TEXT
100
AcDbCircle
 10
1.673724449050985
 20
0.9211226979221168
 30
0.0
 40
0.0392772371940762
100
AcDbArc
 50
270.1604552698595
 51
330.0831797321295
  0
LINE
  5
FBB8E97DFA3D6
330
FBB8E97DFA454
100
AcDbEntity
  8
TEXT
100
AcDbLine
 10
1.577194192665114
 20
0.881574975648421
 30
0.0
 11
1.673834443740108
 21
0.8818456147467033
 31
0.0
  0
LWPOLYLINE
  5
FBB8E97DFA3D7
330
FBB8E97DFA454
100
AcDbEntity
  8
TEXT
100
AcDbPolyline
 90
        6
 70
     1
 43
0.0
 10
1.619717996240264
 20
1.083771313980166
 10
1.589401402020055
 20
1.083771313980166
 10
1.589401402020055
 20
0.9606603159252722
 42
0.407328721240804
 10
1.600945053181532
 20
0.9488414012488862
 10
1.661566752226263
 20
0.9488414012488862
 10
1.679032092633581
 20
0.9816536302923653
  0
LINE
  5
FBB8E97DFA3DF
330
FBB8E97DFA454
100
AcDbEntity
  8
TEXT
100
AcDbLine
 10
1.805067715056644
 20
1.065883692688702
 30
0.0
 11
1.805067715056644
 21
0.9331263178633458
 31
0.0
  0
ARC
  5
FBB8E97DFA3E0
330
FBB8E97DFA454
100
AcDbEntity
  8
TEXT
100
AcDbCircle
 10
1.888365651378817
 20
0.9625656081479492
 30
0.0
 40
0.0153818062434269
100
AcDbArc
 50
174.7883570302258
 51
270.0
  0
LWPOLYLINE
  5
FBB8E97DFA3E1
330
FBB8E97DFA454
100
AcDbEntity
  8
TEXT
100
AcDbPolyline
 90
        2
 70
     0
 43
0.0
 10
1.805067715056642
 20
0.9331263178633493
 42
0.3318488747599744
 10
1.874187007621955
 20
0.881574975648421
 42
-6.868794160588311
  0
LINE
  5
FBB8E97DFA3E5
330
FBB8E97DFA454
100
AcDbEntity
  8
TEXT
100
AcDbLine
 10
2.029579410310651
 20
0.881574975648421
 30
0.0
 11
2.096637457092491
 21
0.881574975648421
 31
0.0
  0
LINE
  5
FBB8E97DFA3E6
330
FBB8E97DFA454
100
AcDbEntity
  8
TEXT
100
AcDbLine
 10
2.029579410310651
 20
1.076217524814056
 30
0.0
 11
2.029579410310651
 21
0.881574975648421
 31
0.0
  0
LINE
  5
FBB8E97DFA3E7
330
FBB8E97DFA454
100
AcDbEntity
  8
TEXT
100
AcDbLine
 10
1.97219034132139
 20
1.083771313980166
 30
0.0
 11
2.022025621144537
 21
1.083771313980166
 31
0.0
  0
LINE
  5
FBB8E97DFA3E8
330
FBB8E97DFA454
100
AcDbEntity
  8
TEXT
100
AcDbLine
 10
1.97219034132139
 20
0.881574975648421
 30
0.0
 11
1.97219034132139
 21
1.083771313980166
 31
0.0
  0
LWPOLYLINE
  5
FBB8E97DFA3E9
330
FBB8E97DFA454
100
AcDbEntity
  8
TEXT
100
AcDbPolyline
 90
        2
 70
     0
 43
0.0
 10
2.022025621144535
 20
1.083771313980166
 42
-0.4142135623731017
 10
2.029579410310649
 20
1.076217524814056
 42
-0.9999999999999998
  0
LINE
  5
FBB8E97DFA3ED
330
FBB8E97DFA454
100
AcDbEntity
  8
TEXT
100
AcDbLine
 10
2.227835621922221
 20
1.083771313980166
 30
0.0
 11
2.227835621922221
 21
1.008718907905959
 31
0.0
  0
LINE
  5
FBB8E97DFA3EE
330
FBB8E97DFA454
100
AcDbEntity
  8
TEXT
100
AcDbLine
 10
2.096637457092491
 20
1.083771313980166
 30
0.0
 11
2.150771054013441
 21
1.083771313980166
 31
0.0
  0
LINE
  5
FBB8E97DFA3EF
330
FBB8E97DFA454
100
AcDbEntity
  8
TEXT
100
AcDbLine
 10
2.096637457092491
 20
0.881574975648421
 30
0.0
 11
2.096637457092491
 21
1.083771313980166
 31
0.0
  0
LWPOLYLINE
  5
FBB8E97DFA3F0
330
FBB8E97DFA454
100
AcDbEntity
  8
TEXT
100
AcDbPolyline
 90
        2
 70
     0
 43
0.0
 10
2.150771054013439
 20
1.083771313980166
 42
-0.4142135623731017
 10
2.158324843179553
 20
1.076217524814056
 42
-0.9999999999999998
  0
LWPOLYLINE
  5
FBB8E97DFA3F4
330
FBB8E97DFA454
100
AcDbEntity
  8
TEXT
100
AcDbPolyline
 90
        4
 70
     0
 43
0.0
 10
2.158324843179553
 20
1.076217524814056
 10
2.158324843179553
 20
0.881574975648421
 10
2.226803126467411
 20
0.881574975648421
 10
2.226803126467411
 20
0.9250659205988592
 42
-1.714843617202739
  0
LINE
  5
FBB8E97DFA3FA
330
FBB8E97DFA454
100
AcDbEntity
  8
TEXT
100
AcDbLine
 10
1.586938958784308
 20
1.148048008636932
 30
0.0
 11
1.586938958784308
 21
1.18243592623107
 31
0.0
  0
LINE
  5
FBB8E97DFA3FB
330
FBB8E97DFA454
100
AcDbEntity
  8
TEXT
100
AcDbLine
 10
1.658737924928216
 20
1.148048008636932
 30
0.0
 11
1.586938958784308
 21
1.148048008636932
 31
0.0
  0
LINE
  5
FBB8E97DFA3FC
330
FBB8E97DFA454
100
AcDbEntity
  8
TEXT
100
AcDbLine
 10
1.806238721559395
 20
1.148048008636932
 30
0.0
 11
1.776116808766019
 21
1.148048008636932
 31
0.0
  0
LINE
  5
FBB8E97DFA3FD
330
FBB8E97DFA454
100
AcDbEntity
  8
TEXT
100
AcDbLine
 10
1.806238721559395
 20
1.216059486375742
 30
0.0
 11
1.806238721559395
 21
1.148048008636932
 31
0.0
  0
LINE
  5
FBB8E97DFA3FE
330
FBB8E97DFA454
100
AcDbEntity
  8
TEXT
100
AcDbLine
 10
1.87304743412576
 20
1.216059486375742
 30
0.0
 11
1.806238721559395
 21
1.216059486375742
 31
0.0
  0
LWPOLYLINE
  5
FBB8E97DFA3FF
330
FBB8E97DFA454
100
AcDbEntity
  8
TEXT
100
AcDbPolyline
 90
        3
 70
     0
 43
0.0
 10
2.193459193723763
 20
1.148048008636935
 10
2.075159034907718
 20
1.148048008636935
 10
2.075159034907718
 20
1.120880511876039
 42
-1.960274751411753
  0
LINE
  5
FBB8E97DFA404
330
FBB8E97DFA454
100
AcDbEntity
  8
TEXT
100
AcDbLine
 10
2.039377344194557
 20
1.148048008636932
 30
0.0
 11
1.90535928826342
 21
1.148048008636932
 31
0.0
  0
LWPOLYLINE
  5
FBB8E97DFA405
330
FBB8E97DFA454
100
AcDbEntity
  8
TEXT
100
AcDbPolyline
 90
        2
 70
     0
 43
0.0
 10
2.039377344194557
 20
1.148048008636935
 42
-0.3328679258950098
 10
2.075159034907718
 20
1.120880511876039
 42
6.772930709997214
  0
LINE
  5
FBB8E97DFA409
330
FBB8E97DFA454
100
AcDbEntity
  8
TEXT
100
AcDbLine
 10
2.229240884436929
 20
1.148048008636932
 30
0.0
 11
2.229240884436929
 21
1.119725462867288
 31
0.0
  0
LWPOLYLINE
  5
FBB8E97DFA40A
330
FBB8E97DFA454
100
AcDbEntity
  8
TEXT
100
AcDbPolyline
 90
        2
 70
     0
 43
0.0
 10
2.193459193723763
 20
1.148048008636935
 42
-0.3277054968067132
 10
2.229240884436928
 20
1.119725462867291
 42
6.667889725900311
  0
LINE
  5
FBB8E97DFA40E
330
FBB8E97DFA454
100
AcDbEntity
  8
TEXT
100
AcDbLine
 10
2.443032732529029
 20
1.042836030083504
 30
0.0
 11
2.399281961347128
 21
1.125086306079649
 31
0.0
  0
LINE
  5
FBB8E97DFA40F
330
FBB8E97DFA454
100
AcDbEntity
  8
TEXT
100
AcDbLine
 10
2.443032732529029
 20
1.148048008636932
 30
0.0
 11
2.443032732529029
 21
1.042836030083504
 31
0.0
  0
LINE
  5
FBB8E97DFA410
330
FBB8E97DFA454
100
AcDbEntity
  8
TEXT
100
AcDbLine
 10
2.670716471467398
 20
1.072182682225393
 30
0.0
 11
2.670716471467398
 21
1.213512214404532
 31
0.0
  0
LINE
  5
FBB8E97DFA411
330
FBB8E97DFA454
100
AcDbEntity
  8
TEXT
100
AcDbLine
 10
2.717814630023383
 20
1.148048008636932
 30
0.0
 11
2.670716471467398
 21
1.072182682225393
 31
0.0
  0
LINE
  5
FBB8E97DFA412
330
FBB8E97DFA454
100
AcDbEntity
  8
TEXT
100
AcDbLine
 10
2.728249346787306
 20
1.038154765695958
 30
0.0
 11
2.792806462753011
 21
1.148048008636932
 31
0.0
  0
LINE
  5
FBB8E97DFA413
330
FBB8E97DFA454
100
AcDbEntity
  8
TEXT
100
AcDbLine
 10
2.606881480244625
 20
0.881574975648421
 30
0.0
 11
2.671259664563246
 21
0.881574975648421
 31
0.0
  0
LWPOLYLINE
  5
FBB8E97DFA414
330
FBB8E97DFA454
100
AcDbEntity
  8
TEXT
100
AcDbPolyline
 90
        2
 70
     0
 43
0.0
 10
2.446972409834067
 20
0.9250659205988592
 42
-0.2901071551932486
 10
2.403896476966423
 20
0.881574975648421
 42
-5.328517124445184
  0
ARC
  5
FBB8E97DFA418
330
FBB8E97DFA454
100
AcDbEntity
  8
TEXT
100
AcDbCircle
 10
2.335041895309508
 20
1.055411938980169
 30
0.0
 40
0.028359375
100
AcDbArc
 50
25.78218179591245
 51
90.0
  0
LINE
  5
FBB8E97DFA419
330
FBB8E97DFA454
100
AcDbEntity
  8
TEXT
100
AcDbLine
 10
2.370842970613631
 20
1.046496340518034
 30
0.0
 11
2.360578210200067
 21
1.067746880090728
 31
0.0
  0
LINE
  5
FBB8E97DFA41A
330
FBB8E97DFA454
100
AcDbEntity
  8
TEXT
100
AcDbLine
 10
2.288554980830248
 20
1.046496340518034
 30
0.0
 11
2.370842970613631
 21
1.046496340518034
 31
0.0
  0
LWPOLYLINE
  5
FBB8E97DFA41B
330
FBB8E97DFA454
100
AcDbEntity
  8
TEXT
100
AcDbPolyline
 90
        4
 70
     1
 43
0.0
 10
2.38377401189653
 20
0.9845389536324463
 10
2.295113693236672
 20
0.9845389536324463
 42
0.9999999999999998
 10
2.295113693236672
 20
0.9421404131285855
 10
2.38377401189653
 20
0.9421404131285855
 42
1.0
  0
LWPOLYLINE
  5
FBB8E97DFA421
330
FBB8E97DFA454
100
AcDbEntity
  8
TEXT
100
AcDbPolyline
 90
        2
 70
     0
 43
0.0
 10
2.269879059335046
 20
0.881574975648421
 10
2.403896476966423
 20
0.881574975648421
 42
0.9999999999999998
  0
LINE
  5
FBB8E97DFA425
330
FBB8E97DFA454
100
AcDbEntity
  8
TEXT
100
AcDbLine
 10
2.530233498952062
 20
1.083771313980166
 30
0.0
 11
2.60688148024462
 21
1.083771313980166
 31
0.0
  0
LINE
  5
FBB8E97DFA426
330
FBB8E97DFA454
100
AcDbEntity
  8
TEXT
100
AcDbLine
 10
2.60688148024462
 20
1.083771313980166
 30
0.0
 11
2.606881480244625
 21
0.881574975648421
 31
0.0
  0
ARC
  5
FBB8E97DFA427
330
FBB8E97DFA454
100
AcDbEntity
  8
TEXT
100
AcDbCircle
 10
2.53023349895206
 20
1.058865438697503
 30
0.0
 40
0.0249058752826653
100
AcDbArc
 50
89.99971217465335
 51
179.9999999999985
  0
LINE
  5
FBB8E97DFA428
330
FBB8E97DFA454
100
AcDbEntity
  8
TEXT
100
AcDbLine
 10
2.505327623669403
 20
0.881574975648421
 30
0.0
 11
2.505327623669398
 21
1.058865481079889
 31
0.0
  0
LWPOLYLINE
  5
FBB8E97DFA429
330
FBB8E97DFA454
100
AcDbEntity
  8
TEXT
100
AcDbPolyline
 90
        2
 70
     0
 43
0.0
 10
2.446972409834067
 20
0.881574975648421
 10
2.505327623669401
 20
0.881574975648421
  0
LWPOLYLINE
  5
FBB8E97DFA42D
330
FBB8E97DFA454
100
AcDbEntity
  8
TEXT
100
AcDbPolyline
 90
        2
 70
     0
 43
0.0
 10
2.446972409834067
 20
0.9250659205988592
 10
2.446972409834067
 20
0.881574975648421
  0
LINE
  5
FBB8E97DFA431
330
FBB8E97DFA454
100
AcDbEntity
  8
TEXT
100
AcDbLine
 10
2.823741570150916
 20
0.881574975648421
 30
0.0
 11
2.728249346787306
 21
1.038154765695958
 31
0.0
  0
LINE
  5
FBB8E97DFA432
330
FBB8E97DFA454
100
AcDbEntity
  8
TEXT
100
AcDbLine
 10
2.74716319777471
 20
0.881574975648421
 30
0.0
 11
2.823741570150916
 21
0.881574975648421
 31
0.0
  0
LINE
  5
FBB8E97DFA433
330
FBB8E97DFA454
100
AcDbEntity
  8
TEXT
100
AcDbLine
 10
2.671259664563246
 20
1.013154544124601
 30
0.0
 11
2.74716319777471
 21
0.881574975648421
 31
0.0
  0
LINE
  5
FBB8E97DFA434
330
FBB8E97DFA454
100
AcDbEntity
  8
TEXT
100
AcDbLine
 10
2.671259664563246
 20
0.881574975648421
 30
0.0
 11
2.671259664563246
 21
1.013154544124601
 31
0.0
  0
LINE
  5
FBB8E97DFA435
330
FBB8E97DFA454
100
AcDbEntity
  8
TEXT
100
AcDbLine
 10
2.670716471467398
 20
1.213512214404532
 30
0.0
 11
2.602401592918125
 21
1.213512214404532
 31
0.0
  0
ARC
  5
FBB8E97DFA436
330
FBB8E97DFA454
100
AcDbEntity
  8
TEXT
100
AcDbCircle
 10
2.362045853876919
 20
1.106464441516029
 30
0.0
 40
0.0416329381542859
100
AcDbArc
 50
26.56974201007528
 51
87.20939649401342
  0
LINE
  5
FBB8E97DFA437
330
FBB8E97DFA454
100
AcDbEntity
  8
TEXT
100
AcDbLine
 10
2.50692963882853
 20
1.148048008636932
 30
0.0
 11
2.443032732529029
 21
1.148048008636932
 31
0.0
  0
LINE
  5
FBB8E97DFA438
330
FBB8E97DFA454
100
AcDbEntity
  8
TEXT
100
AcDbLine
 10
2.50692963882853
 20
1.120500358776057
 30
0.0
 11
2.50692963882853
 21
1.148048008636932
 31
0.0
  0
ARC
  5
FBB8E97DFA439
330
FBB8E97DFA454
100
AcDbEntity
  8
TEXT
100
AcDbCircle
 10
2.538122455891638
 20
1.116802281354667
 30
0.0
 40
0.0314112657011332
100
AcDbArc
 50
95.88484768694724
 51
173.2388340632136
  0
LINE
  5
FBB8E97DFA43A
330
FBB8E97DFA454
100
AcDbEntity
  8
TEXT
100
AcDbLine
 10
2.60240159291812
 20
1.148048008636932
 30
0.0
 11
2.534901875268603
 21
1.148048008636932
 31
0.0
  0
LINE
  5
FBB8E97DFA43B
330
FBB8E97DFA454
100
AcDbEntity
  8
TEXT
100
AcDbLine
 10
2.602401592918125
 20
1.213512214404532
 30
0.0
 11
2.60240159291812
 21
1.148048008636932
 31
0.0
  0
LINE
  5
FBB8E97DFA43C
330
FBB8E97DFA454
100
AcDbEntity
  8
TEXT
100
AcDbLine
 10
2.792806462753011
 20
1.148048008636932
 30
0.0
 11
2.717814630023385
 21
1.148048008636932
 31
0.0
  0
ENDSEC
  0
SECTION
  2
OBJECTS
  0
DICTIONARY
  5
FBB8E97DFA448
330
0
100
AcDbDictionary
  3
ACAD_GROUP
350
FBB8E97DFA449
  3
ACAD_LAYOUT
350
FBB8E97DFA46E
  3
ACAD_MLINESTYLE
350
FBB8E97DFA44A
  3
ACAD_PLOTSETTINGS
350
FBB8E97DFA46F
  3
ACAD_PLOTSTYLENAME
350
FBB8E97DFA46C
  3
ACDBHEADERROUNDTRIPXREC
350
FBB8E97DFA479
  3
ACDBVARIABLEDICTIONARY
350
FBB8E97DFA476
  0
DICTIONARY
  5
FBB8E97DFA49B
330
FBB8E97DFA454
100
AcDbDictionary
280
     1
  3
ACAD_LAYOUTSELFREF
360
FBB8E97DFA49C
  0
DICTIONARY
  5
FBB8E97DFA499
330
FBB8E97DFA451
100
AcDbDictionary
280
     1
  3
ACAD_LAYOUTSELFREF
360
FBB8E97DFA49A
  0
DICTIONARY
  5
FBB8E97DFA449
102
{ACAD_REACTORS
330
FBB8E97DFA448
102
}
330
FBB8E97DFA448
100
AcDbDictionary
  0
DICTIONARY
  5
FBB8E97DFA46E
102
{ACAD_REACTORS
330
FBB8E97DFA448
102
}
330
FBB8E97DFA448
100
AcDbDictionary
  0
DICTIONARY
  5
FBB8E97DFA44A
102
{ACAD_REACTORS
330
FBB8E97DFA448
102
}
330
FBB8E97DFA448
100
AcDbDictionary
  3
STANDARD
350
FBB8E97DFA457
  0
DICTIONARY
  5
FBB8E97DFA46F
102
{ACAD_REACTORS
330
FBB8E97DFA448
102
}
330
FBB8E97DFA448
100
AcDbDictionary
  0
ACDBDICTIONARYWDFLT
  5
FBB8E97DFA46C
102
{ACAD_REACTORS
330
FBB8E97DFA448
102
}
330
FBB8E97DFA448
100
AcDbDictionary
281
     1
  3
Normal
350
FBB8E97DFA46D
100
AcDbDictionaryWithDefault
340
FBB8E97DFA46D
  0
DICTIONARY
  5
FBB8E97DFA479
102
{ACAD_REACTORS
330
FBB8E97DFA448
102
}
330
FBB8E97DFA448
100
AcDbDictionary
  3
CEPSNTYPE
350
FBB8E97DFA483
  3
FINGERPRINTGUID
350
FBB8E97DFA484
  3
HYPERLINKBASE
350
FBB8E97DFA47C
  3
INSUNITS
350
FBB8E97DFA482
  3
LAYOUTDICT
350
FBB8E97DFA47E
  3
LWETCUNION
350
FBB8E97DFA481
  3
PLOTSETDICT
350
FBB8E97DFA47F
  3
PLOTSTYLNAMDICT
350
FBB8E97DFA480
  3
PSVPSCALE
350
FBB8E97DFA486
  3
PUCSBASE
350
FBB8E97DFA489
  3
PUCSORGBACK
350
FBB8E97DFA48F
  3
PUCSORGBOTTOM
350
FBB8E97DFA48B
  3
PUCSORGFRONT
350
FBB8E97DFA48E
  3
PUCSORGLEFT
350
FBB8E97DFA48C
  3
PUCSORGRIGHT
350
FBB8E97DFA48D
  3
PUCSORGTOP
350
FBB8E97DFA48A
  3
PUCSORTHOREF
350
FBB8E97DFA487
  3
PUCSORTHOVIEW
350
FBB8E97DFA488
  3
STYLESHEET
350
FBB8E97DFA47D
  3
TSTACKALIGN
350
FBB8E97DFA47A
  3
TSTACKSIZE
350
FBB8E97DFA47B
  3
UCSBASE
350
FBB8E97DFA492
  3
UCSORGBACK
350
FBB8E97DFA498
  3
UCSORGBOTTOM
350
FBB8E97DFA494
  3
UCSORGFRONT
350
FBB8E97DFA497
  3
UCSORGLEFT
350
FBB8E97DFA495
  3
UCSORGRIGHT
350
FBB8E97DFA496
  3
UCSORGTOP
350
FBB8E97DFA493
  3
UCSORTHOREF
350
FBB8E97DFA490
  3
UCSORTHOVIEW
350
FBB8E97DFA491
  3
VERSIONGUID
350
FBB8E97DFA485
  0
DICTIONARY
  5
FBB8E97DFA476
102
{ACAD_REACTORS
330
FBB8E97DFA448
102
}
330
FBB8E97DFA448
100
AcDbDictionary
  3
DIMASSOC
350
FBB8E97DFA477
  0
XRECORD
  5
FBB8E97DFA49C
102
{ACAD_REACTORS
330
FBB8E97DFA49B
102
}
330
FBB8E97DFA49B
100
AcDbXrecord
340
FBB8E97DFA454
  0
XRECORD
  5
FBB8E97DFA49A
102
{ACAD_REACTORS
330
FBB8E97DFA499
102
}
330
FBB8E97DFA499
100
AcDbXrecord
340
FBB8E97DFA451
  0
MLINESTYLE
  5
FBB8E97DFA457
102
{ACAD_REACTORS
330
FBB8E97DFA44A
102
}
330
FBB8E97DFA44A
100
AcDbMlineStyle
  2
STANDARD
 70
     0
  3

 62
     0
 51
90.0
 52
90.0
 71
     2
 49
0.5
 62
   256
  6
BYLAYER
 49
-0.5
 62
   256
  6
BYLAYER
  0
ACDBPLACEHOLDER
  5
FBB8E97DFA46D
102
{ACAD_REACTORS
330
FBB8E97DFA46C
102
}
330
FBB8E97DFA46C
100
AcDbPlaceHolder
280
     0
  0
XRECORD
  5
FBB8E97DFA483
102
{ACAD_REACTORS
330
FBB8E97DFA479
102
}
330
FBB8E97DFA479
100
AcDbXrecord
 90
        0
  0
XRECORD
  5
FBB8E97DFA484
102
{ACAD_REACTORS
330
FBB8E97DFA479
102
}
330
FBB8E97DFA479
100
AcDbXrecord
  1
{DE811850-8DB3-11D6-88E6-0090279574E7}
  0
XRECORD
  5
FBB8E97DFA47C
102
{ACAD_REACTORS
330
FBB8E97DFA479
102
}
330
FBB8E97DFA479
100
AcDbXrecord
  1

  0
XRECORD
  5
FBB8E97DFA482
102
{ACAD_REACTORS
330
FBB8E97DFA479
102
}
330
FBB8E97DFA479
100
AcDbXrecord
 90
        0
  0
XRECORD
  5
FBB8E97DFA47E
102
{ACAD_REACTORS
330
FBB8E97DFA479
102
}
330
FBB8E97DFA479
100
AcDbXrecord
340
FBB8E97DFA46E
  0
XRECORD
  5
FBB8E97DFA481
102
{ACAD_REACTORS
330
FBB8E97DFA479
102
}
330
FBB8E97DFA479
100
AcDbXrecord
 90
    14877
  0
XRECORD
  5
FBB8E97DFA47F
102
{ACAD_REACTORS
330
FBB8E97DFA479
102
}
330
FBB8E97DFA479
100
AcDbXrecord
340
FBB8E97DFA46F
  0
XRECORD
  5
FBB8E97DFA480
102
{ACAD_REACTORS
330
FBB8E97DFA479
102
}
330
FBB8E97DFA479
100
AcDbXrecord
340
FBB8E97DFA46C
  0
XRECORD
  5
FBB8E97DFA486
102
{ACAD_REACTORS
330
FBB8E97DFA479
102
}
330
FBB8E97DFA479
100
AcDbXrecord
 40
0.0
  0
XRECORD
  5
FBB8E97DFA489
102
{ACAD_REACTORS
330
FBB8E97DFA479
102
}
330
FBB8E97DFA479
100
AcDbXrecord
340
0
  0
XRECORD
  5
FBB8E97DFA48F
102
{ACAD_REACTORS
330
FBB8E97DFA479
102
}
330
FBB8E97DFA479
100
AcDbXrecord
 10
0.0
 20
0.0
 30
0.0
  0
XRECORD
  5
FBB8E97DFA48B
102
{ACAD_REACTORS
330
FBB8E97DFA479
102
}
330
FBB8E97DFA479
100
AcDbXrecord
 10
0.0
 20
0.0
 30
0.0
  0
XRECORD
  5
FBB8E97DFA48E
102
{ACAD_REACTORS
330
FBB8E97DFA479
102
}
330
FBB8E97DFA479
100
AcDbXrecord
 10
0.0
 20
0.0
 30
0.0
  0
XRECORD
  5
FBB8E97DFA48C
102
{ACAD_REACTORS
330
FBB8E97DFA479
102
}
330
FBB8E97DFA479
100
AcDbXrecord
 10
0.0
 20
0.0
 30
0.0
  0
XRECORD
  5
FBB8E97DFA48D
102
{ACAD_REACTORS
330
FBB8E97DFA479
102
}
330
FBB8E97DFA479
100
AcDbXrecord
 10
0.0
 20
0.0
 30
0.0
  0
XRECORD
  5
FBB8E97DFA48A
102
{ACAD_REACTORS
330
FBB8E97DFA479
102
}
330
FBB8E97DFA479
100
AcDbXrecord
 10
0.0
 20
0.0
 30
0.0
  0
XRECORD
  5
FBB8E97DFA487
102
{ACAD_REACTORS
330
FBB8E97DFA479
102
}
330
FBB8E97DFA479
100
AcDbXrecord
340
0
  0
XRECORD
  5
FBB8E97DFA488
102
{ACAD_REACTORS
330
FBB8E97DFA479
102
}
330
FBB8E97DFA479
100
AcDbXrecord
 70
     0
  0
XRECORD
  5
FBB8E97DFA47D
102
{ACAD_REACTORS
330
FBB8E97DFA479
102
}
330
FBB8E97DFA479
100
AcDbXrecord
  1

  0
XRECORD
  5
FBB8E97DFA47A
102
{ACAD_REACTORS
330
FBB8E97DFA479
102
}
330
FBB8E97DFA479
100
AcDbXrecord
 90
        1
  0
XRECORD
  5
FBB8E97DFA47B
102
{ACAD_REACTORS
330
FBB8E97DFA479
102
}
330
FBB8E97DFA479
100
AcDbXrecord
 90
       70
  0
XRECORD
  5
FBB8E97DFA492
102
{ACAD_REACTORS
330
FBB8E97DFA479
102
}
330
FBB8E97DFA479
100
AcDbXrecord
340
0
  0
XRECORD
  5
FBB8E97DFA498
102
{ACAD_REACTORS
330
FBB8E97DFA479
102
}
330
FBB8E97DFA479
100
AcDbXrecord
 10
0.0
 20
0.0
 30
0.0
  0
XRECORD
  5
FBB8E97DFA494
102
{ACAD_REACTORS
330
FBB8E97DFA479
102
}
330
FBB8E97DFA479
100
AcDbXrecord
 10
0.0
 20
0.0
 30
0.0
  0
XRECORD
  5
FBB8E97DFA497
102
{ACAD_REACTORS
330
FBB8E97DFA479
102
}
330
FBB8E97DFA479
100
AcDbXrecord
 10
0.0
 20
0.0
 30
0.0
  0
XRECORD
  5
FBB8E97DFA495
102
{ACAD_REACTORS
330
FBB8E97DFA479
102
}
330
FBB8E97DFA479
100
AcDbXrecord
 10
0.0
 20
0.0
 30
0.0
  0
XRECORD
  5
FBB8E97DFA496
102
{ACAD_REACTORS
330
FBB8E97DFA479
102
}
330
FBB8E97DFA479
100
AcDbXrecord
 10
0.0
 20
0.0
 30
0.0
  0
XRECORD
  5
FBB8E97DFA493
102
{ACAD_REACTORS
330
FBB8E97DFA479
102
}
330
FBB8E97DFA479
100
AcDbXrecord
 10
0.0
 20
0.0
 30
0.0
  0
XRECORD
  5
FBB8E97DFA490
102
{ACAD_REACTORS
330
FBB8E97DFA479
102
}
330
FBB8E97DFA479
100
AcDbXrecord
340
0
  0
XRECORD
  5
FBB8E97DFA491
102
{ACAD_REACTORS
330
FBB8E97DFA479
102
}
330
FBB8E97DFA479
100
AcDbXrecord
 70
     0
  0
XRECORD
  5
FBB8E97DFA485
102
{ACAD_REACTORS
330
FBB8E97DFA479
102
}
330
FBB8E97DFA479
100
AcDbXrecord
  1
{DE811852-8DB3-11D6-88E6-0090279574E7}
  0
DICTIONARYVAR
  5
FBB8E97DFA477
102
{ACAD_REACTORS
330
FBB8E97DFA476
102
}
330
FBB8E97DFA476
100
DictionaryVariables
280
     0
  1
1
  0
ENDSEC
  0
EOF
