  0
SECTION
  2
HEADER
  9
$ACADVER
  1
AC1014
  9
$ACADMAINTVER
 70
     9
  9
$DWGCODEPAGE
  3
ANSI_1252
  9
$INSBASE
 10
2.640422265987024
 20
1.926673567977915
 30
0.0
  9
$EXTMIN
 10
0.8974406867598816
 20
1.187404963895334
 30
0.0
  9
$EXTMAX
 10
4.382660008507011
 20
2.301673567977915
 30
0.0
  9
$LIMMIN
 10
0.0
 20
0.0
  9
$LIMMAX
 10
18.0
 20
12.0
  9
$ORTHOMODE
 70
     1
  9
$REGENMODE
 70
     1
  9
$FILLMODE
 70
     1
  9
$QTEXTMODE
 70
     0
  9
$MIRRTEXT
 70
     0
  9
$DRAGMODE
 70
     2
  9
$LTSCALE
 40
1.0
  9
$OSMODE
 70
    39
  9
$ATTMODE
 70
     1
  9
$TEXTSIZE
 40
0.125
  9
$TRACEWID
 40
0.05
  9
$TEXTSTYLE
  7
ROMANS
  9
$CLAYER
  8
0
  9
$CELTYPE
  6
BYLAYER
  9
$CECOLOR
 62
   256
  9
$CELTSCALE
 40
1.0
  9
$DELOBJ
 70
     1
  9
$DISPSILH
 70
     1
  9
$DIMSCALE
 40
1.0
  9
$DIMASZ
 40
0.125
  9
$DIMEXO
 40
0.125
  9
$DIMDLI
 40
0.375
  9
$DIMRND
 40
0.0
  9
$DIMDLE
 40
0.0
  9
$DIMEXE
 40
0.125
  9
$DIMTP
 40
0.0
  9
$DIMTM
 40
0.0
  9
$DIMTXT
 40
0.125
  9
$DIMCEN
 40
-0.125
  9
$DIMTSZ
 40
0.0
  9
$DIMTOL
 70
     0
  9
$DIMLIM
 70
     0
  9
$DIMTIH
 70
     1
  9
$DIMTOH
 70
     1
  9
$DIMSE1
 70
     0
  9
$DIMSE2
 70
     0
  9
$DIMTAD
 70
     0
  9
$DIMZIN
 70
     4
  9
$DIMBLK
  1

  9
$DIMASO
 70
     1
  9
$DIMSHO
 70
     1
  9
$DIMPOST
  1

  9
$DIMAPOST
  1

  9
$DIMALT
 70
     0
  9
$DIMALTD
 70
     2
  9
$DIMALTF
 40
25.4
  9
$DIMLFAC
 40
1.0
  9
$DIMTOFL
 70
     0
  9
$DIMTVP
 40
0.0
  9
$DIMTIX
 70
     1
  9
$DIMSOXD
 70
     0
  9
$DIMSAH
 70
     0
  9
$DIMBLK1
  1

  9
$DIMBLK2
  1

  9
$DIMSTYLE
  2
STANDARD
  9
$DIMCLRD
 70
     0
  9
$DIMCLRE
 70
     0
  9
$DIMCLRT
 70
     0
  9
$DIMTFAC
 40
1.0
  9
$DIMGAP
 40
0.09
  9
$DIMJUST
 70
     0
  9
$DIMSD1
 70
     0
  9
$DIMSD2
 70
     0
  9
$DIMTOLJ
 70
     1
  9
$DIMTZIN
 70
     4
  9
$DIMALTZ
 70
     0
  9
$DIMALTTZ
 70
     0
  9
$DIMFIT
 70
     3
  9
$DIMUPT
 70
     0
  9
$DIMUNIT
 70
     2
  9
$DIMDEC
 70
     3
  9
$DIMTDEC
 70
     3
  9
$DIMALTU
 70
     2
  9
$DIMALTTD
 70
     2
  9
$DIMTXSTY
  7
ROMANS
  9
$DIMAUNIT
 70
     0
  9
$LUNITS
 70
     2
  9
$LUPREC
 70
     3
  9
$SKETCHINC
 40
0.1
  9
$FILLETRAD
 40
0.03125
  9
$AUNITS
 70
     0
  9
$AUPREC
 70
     0
  9
$MENU
  1
ACAD
  9
$ELEVATION
 40
0.0
  9
$PELEVATION
 40
0.0
  9
$THICKNESS
 40
0.0
  9
$LIMCHECK
 70
     0
  9
$BLIPMODE
 70
     0
  9
$CHAMFERA
 40
0.0
  9
$CHAMFERB
 40
0.0
  9
$CHAMFERC
 40
0.0
  9
$CHAMFERD
 40
0.0
  9
$SKPOLY
 70
     0
  9
$TDCREATE
 40
2448993.485833101
  9
$TDUPDATE
 40
2452458.294791921
  9
$TDINDWG
 40
0.0025219907
  9
$TDUSRTIMER
 40
0.0025219907
  9
$USRTIMER
 70
     1
  9
$ANGBASE
 50
0.0
  9
$ANGDIR
 70
     0
  9
$PDMODE
 70
     0
  9
$PDSIZE
 40
0.0
  9
$PLINEWID
 40
0.0
  9
$COORDS
 70
     2
  9
$SPLFRAME
 70
     0
  9
$SPLINETYPE
 70
     6
  9
$SPLINESEGS
 70
     8
  9
$ATTDIA
 70
     0
  9
$ATTREQ
 70
     1
  9
$HANDLING
 70
 22529
  9
$HANDSEED
  5
7DDC74BEFD961
  9
$SURFTAB1
 70
     6
  9
$SURFTAB2
 70
     6
  9
$SURFTYPE
 70
     6
  9
$SURFU
 70
     6
  9
$SURFV
 70
     6
  9
$UCSNAME
  2

  9
$UCSORG
 10
0.0
 20
0.0
 30
0.0
  9
$UCSXDIR
 10
1.0
 20
0.0
 30
0.0
  9
$UCSYDIR
 10
0.0
 20
1.0
 30
0.0
  9
$PUCSNAME
  2

  9
$PUCSORG
 10
0.0
 20
0.0
 30
0.0
  9
$PUCSXDIR
 10
1.0
 20
0.0
 30
0.0
  9
$PUCSYDIR
 10
0.0
 20
1.0
 30
0.0
  9
$USERI1
 70
     0
  9
$USERI2
 70
     0
  9
$USERI3
 70
     0
  9
$USERI4
 70
     0
  9
$USERI5
 70
     0
  9
$USERR1
 40
0.0
  9
$USERR2
 40
0.0
  9
$USERR3
 40
0.0
  9
$USERR4
 40
0.0
  9
$USERR5
 40
0.0
  9
$WORLDVIEW
 70
     1
  9
$SHADEDGE
 70
     3
  9
$SHADEDIF
 70
    70
  9
$TILEMODE
 70
     1
  9
$MAXACTVP
 70
    16
  9
$PINSBASE
 10
1.422820194713615
 20
50.00000000000001
 30
1.734756082150139
  9
$PLIMCHECK
 70
     0
  9
$PEXTMIN
 10
1.000000000000000E+20
 20
1.000000000000000E+20
 30
1.000000000000000E+20
  9
$PEXTMAX
 10
-1.000000000000000E+20
 20
-1.000000000000000E+20
 30
-1.000000000000000E+20
  9
$PLIMMIN
 10
0.0
 20
0.0
  9
$PLIMMAX
 10
12.0
 20
9.0
  9
$UNITMODE
 70
     0
  9
$VISRETAIN
 70
     0
  9
$PLINEGEN
 70
     1
  9
$PSLTSCALE
 70
     0
  9
$TREEDEPTH
 70
  3020
  9
$PICKSTYLE
 70
     1
  9
$CMLSTYLE
  2
STANDARD
  9
$CMLJUST
 70
     0
  9
$CMLSCALE
 40
1.0
  9
$PROXYGRAPHICS
 70
     1
  9
$MEASUREMENT
 70
     0
  0
ENDSEC
  0
SECTION
  2
CLASSES
  0
CLASS
  1
LWPOLYLINE
  2
AcDbPolyline
  3
AutoCAD 2000
 90
        0
280
     0
281
     1
  0
CLASS
  1
ACDBDICTIONARYWDFLT
  2
AcDbDictionaryWithDefault
  3
AutoCAD 2000
 90
        0
280
     0
281
     0
  0
CLASS
  1
ACDBPLACEHOLDER
  2
AcDbPlaceHolder
  3
AutoCAD 2000
 90
        0
280
     0
281
     0
  0
CLASS
  1
LAYOUT
  2
AcDbLayout
  3
AutoCAD 2000
 90
        0
280
     0
281
     0
  0
CLASS
  1
DICTIONARYVAR
  2
AcDbDictionaryVar
  3
AutoCAD 2000
 90
        0
280
     0
281
     0
  0
CLASS
  1
LONG_TRANSACTION
  2
AcDbLongTransaction
  3
AutoCAD 2000
 90
        0
280
     0
281
     0
  0
CLASS
  1
LWPOLYLINE
  2
AcDbPolyline
  3
AutoCAD 2000
 90
        0
280
     0
281
     1
  0
CLASS
  1
HATCH
  2
AcDbHatch
  3
AutoCAD 2000
 90
        0
280
     0
281
     1
  0
CLASS
  1
XRECORD
  2
AcDbXrecord
  3
AutoCAD 2000
 90
        0
280
     0
281
     0
  0
ENDSEC
  0
SECTION
  2
TABLES
  0
TABLE
  2
VPORT
  5
7DDC74BEFD908
330
0
100
AcDbSymbolTable
 70
     2
  0
VPORT
  5
7DDC74BEFD93C
330
7DDC74BEFD908
100
AcDbSymbolTableRecord
100
AcDbViewportTableRecord
  2
*ACTIVE
 70
     0
 10
0.0
 20
0.0
 11
1.0
 21
1.0
 12
5.615938984676458
 22
1.744628929235773
 13
0.0
 23
0.0
 14
0.015625
 24
0.015625
 15
0.0
 25
0.0
 16
0.0
 26
0.0
 36
1.0
 17
0.0
 27
0.0
 37
0.0
 40
2.282647215150728
 41
4.320930232558139
 42
50.0
 43
0.0
 44
0.0
 50
0.0
 51
0.0
 71
     0
 72
  2000
 73
     1
 74
     0
 75
     1
 76
     0
 77
     0
 78
     0
  0
ENDTAB
  0
TABLE
  2
LTYPE
  5
7DDC74BEFD905
330
0
100
AcDbSymbolTable
 70
     1
  0
LTYPE
  5
7DDC74BEFD912
330
7DDC74BEFD905
100
AcDbSymbolTableRecord
100
AcDbLinetypeTableRecord
  2
BYBLOCK
 70
     0
  3

 72
    65
 73
     0
 40
0.0
  0
LTYPE
  5
7DDC74BEFD913
330
7DDC74BEFD905
100
AcDbSymbolTableRecord
100
AcDbLinetypeTableRecord
  2
BYLAYER
 70
     0
  3

 72
    65
 73
     0
 40
0.0
  0
LTYPE
  5
7DDC74BEFD914
330
7DDC74BEFD905
100
AcDbSymbolTableRecord
100
AcDbLinetypeTableRecord
  2
CONTINUOUS
 70
     0
  3
Solid line
 72
    65
 73
     0
 40
0.0
  0
ENDTAB
  0
TABLE
  2
LAYER
  5
7DDC74BEFD902
330
0
100
AcDbSymbolTable
 70
     2
  0
LAYER
  5
7DDC74BEFD90F
330
7DDC74BEFD902
100
AcDbSymbolTableRecord
100
AcDbLayerTableRecord
  2
0
 70
     0
 62
     7
  6
CONTINUOUS
  0
LAYER
  5
7DDC74BEFD91F
330
7DDC74BEFD902
100
AcDbSymbolTableRecord
100
AcDbLayerTableRecord
  2
TEXT
 70
     0
 62
     3
  6
CONTINUOUS
  0
ENDTAB
  0
TABLE
  2
STYLE
  5
7DDC74BEFD903
330
0
100
AcDbSymbolTable
 70
     3
  0
STYLE
  5
7DDC74BEFD910
330
7DDC74BEFD903
100
AcDbSymbolTableRecord
100
AcDbTextStyleTableRecord
  2
STANDARD
 70
     0
 40
0.0
 41
1.0
 50
0.0
 71
     0
 42
0.3125
  3
txt
  4

  0
STYLE
  5
7DDC74BEFD91C
330
7DDC74BEFD903
100
AcDbSymbolTableRecord
100
AcDbTextStyleTableRecord
  2
ITALICC
 70
     0
 40
0.0
 41
1.0
 50
0.0
 71
     0
 42
0.125
  3
italicc
  4

  0
STYLE
  5
7DDC74BEFD92C
330
7DDC74BEFD903
100
AcDbSymbolTableRecord
100
AcDbTextStyleTableRecord
  2
ROMANS
 70
     0
 40
0.0
 41
1.0
 50
0.0
 71
     0
 42
0.125
  3
romans.shx
  4

  0
ENDTAB
  0
TABLE
  2
VIEW
  5
7DDC74BEFD906
330
0
100
AcDbSymbolTable
 70
     0
  0
ENDTAB
  0
TABLE
  2
UCS
  5
7DDC74BEFD907
330
0
100
AcDbSymbolTable
 70
     0
  0
ENDTAB
  0
TABLE
  2
APPID
  5
7DDC74BEFD909
330
0
100
AcDbSymbolTable
 70
     1
  0
APPID
  5
7DDC74BEFD911
330
7DDC74BEFD909
100
AcDbSymbolTableRecord
100
AcDbRegAppTableRecord
  2
ACAD
 70
     0
  0
ENDTAB
  0
TABLE
  2
DIMSTYLE
  5
7DDC74BEFD90A
330
0
100
AcDbSymbolTable
 70
     1
  0
DIMSTYLE
105
7DDC74BEFD924
330
7DDC74BEFD90A
100
AcDbSymbolTableRecord
100
AcDbDimStyleTableRecord
  2
STANDARD
 70
     0
  3

  4

  5

  6

  7

 40
1.0
 41
0.125
 42
0.125
 43
0.375
 44
0.125
 45
0.0
 46
0.0
 47
0.0
 48
0.0
140
0.125
141
-0.125
142
0.0
143
25.4
144
1.0
145
0.0
146
1.0
147
0.09
 71
     0
 72
     0
 73
     1
 74
     1
 75
     0
 76
     0
 77
     0
 78
     4
170
     0
171
     2
172
     0
173
     0
174
     1
175
     0
176
     0
177
     0
178
     0
270
     2
271
     3
272
     3
273
     2
274
     2
340
7DDC74BEFD92C
275
     0
280
     0
281
     0
282
     0
283
     1
284
     4
285
     0
286
     0
287
     3
288
     0
  0
ENDTAB
  0
TABLE
  2
BLOCK_RECORD
  5
7DDC74BEFD901
330
0
100
AcDbSymbolTable
 70
     0
  0
BLOCK_RECORD
  5
7DDC74BEFD918
102
{ACAD_XDICTIONARY
360
7DDC74BEFD95F
102
}
330
7DDC74BEFD901
100
AcDbSymbolTableRecord
100
AcDbBlockTableRecord
  2
*MODEL_SPACE
  0
BLOCK_RECORD
  5
7DDC74BEFD915
102
{ACAD_XDICTIONARY
360
7DDC74BEFD95D
102
}
330
7DDC74BEFD901
100
AcDbSymbolTableRecord
100
AcDbBlockTableRecord
  2
*PAPER_SPACE
  0
ENDTAB
  0
ENDSEC
  0
SECTION
  2
BLOCKS
  0
BLOCK
  5
7DDC74BEFD922
330
7DDC74BEFD918
100
AcDbEntity
  8
0
100
AcDbBlockBegin
  2
*MODEL_SPACE
 70
     0
 10
0.0
 20
0.0
 30
0.0
  3
*MODEL_SPACE
  1

  0
ENDBLK
  5
7DDC74BEFD923
330
7DDC74BEFD918
100
AcDbEntity
  8
0
100
AcDbBlockEnd
  0
BLOCK
  5
7DDC74BEFD920
330
7DDC74BEFD915
100
AcDbEntity
 67
     1
  8
0
100
AcDbBlockBegin
  2
*PAPER_SPACE
 70
     0
 10
0.0
 20
0.0
 30
0.0
  3
*PAPER_SPACE
  1

  0
ENDBLK
  5
7DDC74BEFD921
330
7DDC74BEFD915
100
AcDbEntity
 67
     1
  8
0
100
AcDbBlockEnd
  0
ENDSEC
  0
SECTION
  2
ENTITIES
  0
LWPOLYLINE
  5
7DDC74BEFC394
330
7DDC74BEFD918
100
AcDbEntity
  8
0
100
AcDbPolyline
 90
        6
 70
     1
 43
0.0
 10
2.202922265987024
 20
1.926673567977915
 10
3.077922265987024
 20
1.926673567977915
 10
3.077922265987024
 20
2.051673567977915
 10
2.265422265987024
 20
2.051673567977915
 10
2.265422265987024
 20
2.270423567977915
 42
1.0
 10
2.202922265987024
 20
2.270423567977915
  0
TEXT
  5
7DDC74BEFD7C3
330
7DDC74BEFD918
100
AcDbEntity
  8
TEXT
100
AcDbText
 10
1.887446075510834
 20
1.645423567977915
 30
0.0
 40
0.125
  1
PART #110090
  7
ITALICC
 72
     1
 11
2.640422265987024
 21
1.645423567977915
 31
0.0
100
AcDbText
  0
TEXT
  5
7DDC74BEFD7C4
330
7DDC74BEFD918
100
AcDbEntity
  8
TEXT
100
AcDbText
 10
3.053727424237345
 20
1.19850092530554
 30
0.0
 40
0.0522247191011236
  1
Phone  1-800-328-2495
 41
1.27232142857143
 72
     5
 11
4.382660008507009
 21
1.19850092530554
 31
0.0
100
AcDbText
  0
TEXT
  5
7DDC74BEFD7C5
330
7DDC74BEFD918
100
AcDbEntity
  8
TEXT
100
AcDbText
 10
3.053727424237345
 20
1.478276206204417
 30
0.0
 40
0.0522247191011236
  1
Stylmark  Incorporated
 41
1.221428571428573
 72
     5
 11
4.382660008507009
 21
1.478276206204417
 31
0.0
100
AcDbText
  0
TEXT
  5
7DDC74BEFD7C6
330
7DDC74BEFD918
100
AcDbEntity
  8
TEXT
100
AcDbText
 10
3.053727424237345
 20
1.385017779238125
 30
0.0
 40
0.0522247191011236
  1
6536 Main St. N.E. * P.O. Box 32008
 41
0.8388932496075367
 72
     5
 11
4.382660008507009
 21
1.385017779238125
 31
0.0
100
AcDbText
  0
TEXT
  5
7DDC74BEFD7C7
330
7DDC74BEFD918
100
AcDbEntity
  8
TEXT
100
AcDbText
 10
3.053727424237345
 20
1.291759352271832
 30
0.0
 40
0.0522247191011236
  1
Minneapolis, MN 55432-0008
 41
1.11444212721585
 72
     5
 11
4.382660008507009
 21
1.291759352271832
 31
0.0
100
AcDbText
  0
LWPOLYLINE
  5
7DDC74BEFD7C8
330
7DDC74BEFD918
100
AcDbEntity
  8
TEXT
100
AcDbPolyline
 90
        3
 70
     0
 43
0.0006660908203125
 10
0.8977737321700377
 20
1.312145687942975
 10
0.8977737321700377
 20
1.198910248489847
 10
1.01100917162316
 20
1.198910248489847
  0
LWPOLYLINE
  5
7DDC74BEFD7CD
330
7DDC74BEFD918
100
AcDbEntity
  8
TEXT
100
AcDbPolyline
 90
        3
 70
     0
 43
0.0006660908203125
 10
0.9244173649825352
 20
1.312145687942975
 10
0.9244173649825352
 20
1.225553881302348
 10
1.01100917162316
 20
1.225553881302348
  0
LWPOLYLINE
  5
7DDC74BEFD7D2
330
7DDC74BEFD918
100
AcDbEntity
  8
TEXT
100
AcDbPolyline
 90
        2
 70
     0
 43
0.0001332181640625
 10
0.971043722404412
 20
1.32213705024766
 10
0.8977737321700377
 20
1.312145687942975
  0
LWPOLYLINE
  5
7DDC74BEFD7D6
330
7DDC74BEFD918
100
AcDbEntity
  8
TEXT
100
AcDbPolyline
 90
        2
 70
     0
 43
0.0001332181640625
 10
0.9244173649825352
 20
1.312145687942975
 10
0.9843655388106625
 20
1.32213705024766
  0
LWPOLYLINE
  5
7DDC74BEFD7DA
330
7DDC74BEFD918
100
AcDbEntity
  8
TEXT
100
AcDbPolyline
 90
        2
 70
     0
 43
0.0001332181640625
 10
0.9244173649825352
 20
1.225553881302348
 10
0.9843655388106625
 20
1.285502055130474
  0
LWPOLYLINE
  5
7DDC74BEFD7DE
330
7DDC74BEFD918
100
AcDbEntity
  8
TEXT
100
AcDbPolyline
 90
        3
 70
     0
 43
0.0006660908203125
 10
1.01100917162316
 20
1.465346576614851
 10
0.8977737321700377
 20
1.465346576614851
 10
0.8977737321700377
 20
1.352111137161723
  0
LWPOLYLINE
  5
7DDC74BEFD7E3
330
7DDC74BEFD918
100
AcDbEntity
  8
TEXT
100
AcDbPolyline
 90
        3
 70
     0
 43
0.0006660908203125
 10
1.01100917162316
 20
1.43870294380235
 10
0.9244173649825352
 20
1.43870294380235
 10
0.9244173649825352
 20
1.352111137161723
  0
LWPOLYLINE
  5
7DDC74BEFD7E8
330
7DDC74BEFD918
100
AcDbEntity
  8
TEXT
100
AcDbPolyline
 90
        2
 70
     0
 43
0.0001332181640625
 10
0.9244173649825352
 20
1.43870294380235
 10
0.9843655388106608
 20
1.378754769974224
  0
LWPOLYLINE
  5
7DDC74BEFD7EC
330
7DDC74BEFD918
100
AcDbEntity
  8
TEXT
100
AcDbPolyline
 90
        2
 70
     0
 43
0.0001332181640625
 10
0.9244173649825352
 20
1.352111137161723
 10
0.9843655388106608
 20
1.342119774857034
  0
LWPOLYLINE
  5
7DDC74BEFD7F0
330
7DDC74BEFD918
100
AcDbEntity
  8
TEXT
100
AcDbPolyline
 90
        2
 70
     0
 43
0.0001332181640625
 10
0.8977737321700377
 20
1.352111137161723
 10
0.971043722404412
 20
1.342119774857034
  0
LWPOLYLINE
  5
7DDC74BEFD7F4
330
7DDC74BEFD918
100
AcDbEntity
  8
TEXT
100
AcDbPolyline
 90
        2
 70
     0
 43
0.0006660908203125
 10
0.9244173649825352
 20
1.312145687942975
 10
0.8977737321700377
 20
1.312145687942975
  0
LWPOLYLINE
  5
7DDC74BEFD7F8
330
7DDC74BEFD918
100
AcDbEntity
  8
TEXT
100
AcDbPolyline
 90
        2
 70
     0
 43
0.0006660908203125
 10
0.9244173649825352
 20
1.352111137161723
 10
0.8977737321700377
 20
1.352111137161723
  0
LINE
  5
7DDC74BEFD7FC
330
7DDC74BEFD918
100
AcDbEntity
  8
TEXT
100
AcDbLine
 10
2.412964161296535
 20
1.401069881958082
 30
0.0
 11
2.305757887909245
 21
1.401069881958082
 31
0.0
  0
LINE
  5
7DDC74BEFD7FD
330
7DDC74BEFD918
100
AcDbEntity
  8
TEXT
100
AcDbLine
 10
2.441995059641013
 20
1.465346576614847
 30
0.0
 11
2.307163150423954
 21
1.465346576614847
 31
0.0
  0
ARC
  5
7DDC74BEFD7FE
330
7DDC74BEFD918
100
AcDbEntity
  8
TEXT
100
AcDbCircle
 10
2.366477246817271
 20
1.296109327351831
 30
0.0
 40
0.0676855811441166
100
AcDbArc
 50
90.0
 51
153.7768192527749
  0
LWPOLYLINE
  5
7DDC74BEFD7FF
330
7DDC74BEFD918
100
AcDbEntity
  8
TEXT
100
AcDbPolyline
 90
        2
 70
     0
 43
0.0
 10
2.304725392454435
 20
1.242364488576774
 42
0.2901071551932823
 10
2.347801325322071
 20
1.198873543626336
 42
5.328517124445801
  0
ARC
  5
7DDC74BEFD803
330
7DDC74BEFD918
100
AcDbEntity
  8
TEXT
100
AcDbCircle
 10
1.661345869145785
 20
1.258665934964386
 30
0.0
 40
0.0601160179737537
100
AcDbArc
 50
180.0000000000003
 51
264.0521544866073
  0
LINE
  5
7DDC74BEFD804
330
7DDC74BEFD918
100
AcDbEntity
  8
TEXT
100
AcDbLine
 10
1.664861224771333
 20
1.499734494208985
 30
0.0
 11
1.604818619927326
 21
1.499734494208985
 31
0.0
  0
ARC
  5
7DDC74BEFD805
330
7DDC74BEFD918
100
AcDbEntity
  8
TEXT
100
AcDbCircle
 10
1.429086867028815
 20
1.383259117168345
 30
0.0
 40
0.0820874594465043
100
AcDbArc
 50
90.0
 51
270.0
  0
LWPOLYLINE
  5
7DDC74BEFD806
330
7DDC74BEFD918
100
AcDbEntity
  8
TEXT
100
AcDbPolyline
 90
        2
 70
     0
 43
0.0001332181640625
 10
1.02100053392785
 20
1.392076586380471
 10
1.01100917162316
 20
1.465346576614851
  0
LWPOLYLINE
  5
7DDC74BEFD80A
330
7DDC74BEFD918
100
AcDbEntity
  8
TEXT
100
AcDbPolyline
 90
        2
 70
     0
 43
0.0001332181640625
 10
1.01100917162316
 20
1.43870294380235
 10
1.02100053392785
 20
1.378754769974224
  0
LWPOLYLINE
  5
7DDC74BEFD80E
330
7DDC74BEFD918
100
AcDbEntity
  8
TEXT
100
AcDbPolyline
 90
        3
 70
     0
 43
0.0006660908203125
 10
1.164210060295037
 20
1.352111137161723
 10
1.164210060295037
 20
1.465346576614851
 10
1.050974620841911
 20
1.465346576614851
  0
LWPOLYLINE
  5
7DDC74BEFD813
330
7DDC74BEFD918
100
AcDbEntity
  8
TEXT
100
AcDbPolyline
 90
        3
 70
     0
 43
0.0006660908203125
 10
1.137566427482536
 20
1.352111137161723
 10
1.137566427482536
 20
1.43870294380235
 10
1.050974620841911
 20
1.43870294380235
  0
LWPOLYLINE
  5
7DDC74BEFD818
330
7DDC74BEFD918
100
AcDbEntity
  8
TEXT
100
AcDbPolyline
 90
        2
 70
     0
 43
0.0001332181640625
 10
1.137566427482536
 20
1.43870294380235
 10
1.077618253654412
 20
1.378754769974224
  0
LWPOLYLINE
  5
7DDC74BEFD81C
330
7DDC74BEFD918
100
AcDbEntity
  8
TEXT
100
AcDbPolyline
 90
        2
 70
     0
 43
0.0001332181640625
 10
1.050974620841911
 20
1.43870294380235
 10
1.040983258537222
 20
1.378754769974224
  0
LWPOLYLINE
  5
7DDC74BEFD820
330
7DDC74BEFD918
100
AcDbEntity
  8
TEXT
100
AcDbPolyline
 90
        2
 70
     0
 43
0.0001332181640625
 10
1.050974620841911
 20
1.465346576614851
 10
1.040983258537222
 20
1.392076586380471
  0
LWPOLYLINE
  5
7DDC74BEFD824
330
7DDC74BEFD918
100
AcDbEntity
  8
TEXT
100
AcDbPolyline
 90
        2
 70
     0
 43
0.0001332181640625
 10
1.090940070060661
 20
1.342119774857034
 10
1.164210060295037
 20
1.352111137161723
  0
LWPOLYLINE
  5
7DDC74BEFD828
330
7DDC74BEFD918
100
AcDbEntity
  8
TEXT
100
AcDbPolyline
 90
        2
 70
     0
 43
0.0001332181640625
 10
1.137566427482536
 20
1.352111137161723
 10
1.077618253654412
 20
1.342119774857034
  0
LWPOLYLINE
  5
7DDC74BEFD82C
330
7DDC74BEFD918
100
AcDbEntity
  8
TEXT
100
AcDbPolyline
 90
        2
 70
     0
 43
0.0001332181640625
 10
1.164210060295037
 20
1.312145687942975
 10
1.090940070060661
 20
1.32213705024766
  0
LWPOLYLINE
  5
7DDC74BEFD830
330
7DDC74BEFD918
100
AcDbEntity
  8
TEXT
100
AcDbPolyline
 90
        2
 70
     0
 43
0.0001332181640625
 10
1.137566427482536
 20
1.312145687942975
 10
1.077618253654412
 20
1.32213705024766
  0
LWPOLYLINE
  5
7DDC74BEFD834
330
7DDC74BEFD918
100
AcDbEntity
  8
TEXT
100
AcDbPolyline
 90
        2
 70
     0
 43
0.0001332181640625
 10
1.137566427482536
 20
1.225553881302348
 10
1.077618253654412
 20
1.285502055130474
  0
LWPOLYLINE
  5
7DDC74BEFD838
330
7DDC74BEFD918
100
AcDbEntity
  8
TEXT
100
AcDbPolyline
 90
        3
 70
     0
 43
0.0006660908203125
 10
1.050974620841911
 20
1.225553881302348
 10
1.137566427482536
 20
1.225553881302348
 10
1.137566427482536
 20
1.312145687942975
  0
LWPOLYLINE
  5
7DDC74BEFD83D
330
7DDC74BEFD918
100
AcDbEntity
  8
TEXT
100
AcDbPolyline
 90
        3
 70
     0
 43
0.0006660908203125
 10
1.050974620841911
 20
1.198910248489847
 10
1.164210060295037
 20
1.198910248489847
 10
1.164210060295037
 20
1.312145687942975
  0
LWPOLYLINE
  5
7DDC74BEFD842
330
7DDC74BEFD918
100
AcDbEntity
  8
TEXT
100
AcDbPolyline
 90
        5
 70
     0
 43
0.0001332181640625
 10
1.02100053392785
 20
1.272180238724224
 10
1.02100053392785
 20
1.285502055130474
 10
0.9843655388106625
 20
1.285502055130474
 10
0.9843655388106625
 20
1.32213705024766
 10
0.971043722404412
 20
1.32213705024766
  0
LWPOLYLINE
  5
7DDC74BEFD849
330
7DDC74BEFD918
100
AcDbEntity
  8
TEXT
100
AcDbPolyline
 90
        2
 70
     0
 43
0.0006660908203125
 10
1.01100917162316
 20
1.225553881302348
 10
1.01100917162316
 20
1.198910248489847
  0
LWPOLYLINE
  5
7DDC74BEFD84D
330
7DDC74BEFD918
100
AcDbEntity
  8
TEXT
100
AcDbPolyline
 90
        2
 70
     0
 43
0.0001332181640625
 10
1.01100917162316
 20
1.225553881302348
 10
1.02100053392785
 20
1.285502055130474
  0
LWPOLYLINE
  5
7DDC74BEFD851
330
7DDC74BEFD918
100
AcDbEntity
  8
TEXT
100
AcDbPolyline
 90
        2
 70
     0
 43
0.0001332181640625
 10
1.01100917162316
 20
1.198910248489847
 10
1.02100053392785
 20
1.272180238724224
  0
LWPOLYLINE
  5
7DDC74BEFD855
330
7DDC74BEFD918
100
AcDbEntity
  8
TEXT
100
AcDbPolyline
 90
        5
 70
     0
 43
0.0001332181640625
 10
0.971043722404412
 20
1.342119774857034
 10
0.9843655388106608
 20
1.342119774857034
 10
0.9843655388106608
 20
1.378754769974224
 10
1.02100053392785
 20
1.378754769974224
 10
1.02100053392785
 20
1.392076586380471
  0
LWPOLYLINE
  5
7DDC74BEFD85C
330
7DDC74BEFD918
100
AcDbEntity
  8
TEXT
100
AcDbPolyline
 90
        5
 70
     0
 43
0.0001332181640625
 10
1.040983258537222
 20
1.392076586380471
 10
1.040983258537222
 20
1.378754769974224
 10
1.077618253654412
 20
1.378754769974224
 10
1.077618253654412
 20
1.342119774857034
 10
1.090940070060661
 20
1.342119774857034
  0
LWPOLYLINE
  5
7DDC74BEFD863
330
7DDC74BEFD918
100
AcDbEntity
  8
TEXT
100
AcDbPolyline
 90
        2
 70
     0
 43
0.0001332181640625
 10
1.050974620841911
 20
1.225553881302348
 10
1.040983258537222
 20
1.285502055130474
  0
LWPOLYLINE
  5
7DDC74BEFD867
330
7DDC74BEFD918
100
AcDbEntity
  8
TEXT
100
AcDbPolyline
 90
        2
 70
     0
 43
0.0001332181640625
 10
1.040983258537222
 20
1.272180238724224
 10
1.050974620841911
 20
1.198910248489847
  0
LWPOLYLINE
  5
7DDC74BEFD86B
330
7DDC74BEFD918
100
AcDbEntity
  8
TEXT
100
AcDbPolyline
 90
        2
 70
     0
 43
0.0006660908203125
 10
1.050974620841911
 20
1.225553881302348
 10
1.050974620841911
 20
1.198910248489847
  0
LWPOLYLINE
  5
7DDC74BEFD86F
330
7DDC74BEFD918
100
AcDbEntity
  8
TEXT
100
AcDbPolyline
 90
        5
 70
     0
 43
0.0001332181640625
 10
1.090940070060661
 20
1.32213705024766
 10
1.077618253654412
 20
1.32213705024766
 10
1.077618253654412
 20
1.285502055130474
 10
1.040983258537222
 20
1.285502055130474
 10
1.040983258537222
 20
1.272180238724224
  0
LWPOLYLINE
  5
7DDC74BEFD876
330
7DDC74BEFD918
100
AcDbEntity
  8
TEXT
100
AcDbPolyline
 90
        2
 70
     0
 43
0.0006660908203125
 10
1.137566427482536
 20
1.352111137161723
 10
1.164210060295037
 20
1.352111137161723
  0
LWPOLYLINE
  5
7DDC74BEFD87A
330
7DDC74BEFD918
100
AcDbEntity
  8
TEXT
100
AcDbPolyline
 90
        2
 70
     0
 43
0.0006660908203125
 10
1.137566427482536
 20
1.312145687942975
 10
1.164210060295037
 20
1.312145687942975
  0
LINE
  5
7DDC74BEFD87E
330
7DDC74BEFD918
100
AcDbEntity
  8
TEXT
100
AcDbLine
 10
1.434324197143062
 20
1.401069881958082
 30
0.0
 11
1.601229851172033
 21
1.401069881958082
 31
0.0
  0
LINE
  5
7DDC74BEFD87F
330
7DDC74BEFD918
100
AcDbEntity
  8
TEXT
100
AcDbLine
 10
1.499924333387363
 20
1.365265160347454
 30
0.0
 11
1.434324197143062
 21
1.365265160347454
 31
0.0
  0
LINE
  5
7DDC74BEFD880
330
7DDC74BEFD918
100
AcDbEntity
  8
TEXT
100
AcDbLine
 10
1.34699940758231
 20
1.198873543626336
 30
0.0
 11
1.499924333387363
 21
1.198873543626336
 31
0.0
  0
LINE
  5
7DDC74BEFD881
330
7DDC74BEFD918
100
AcDbEntity
  8
TEXT
100
AcDbLine
 10
1.504864707293643
 20
1.267230549959776
 30
0.0
 11
1.346999407582309
 21
1.267230549959776
 31
0.0
  0
LINE
  5
7DDC74BEFD882
330
7DDC74BEFD918
100
AcDbEntity
  8
TEXT
100
AcDbLine
 10
1.429086867028814
 20
1.30117165772184
 30
0.0
 11
1.504864707293643
 21
1.30117165772184
 31
0.0
  0
ARC
  5
7DDC74BEFD883
330
7DDC74BEFD918
100
AcDbEntity
  8
TEXT
100
AcDbCircle
 10
1.434324197143063
 20
1.38316752115277
 30
0.0
 40
0.017902360805315
100
AcDbArc
 50
90.0
 51
270.0
  0
LINE
  5
7DDC74BEFD884
330
7DDC74BEFD918
100
AcDbEntity
  8
TEXT
100
AcDbLine
 10
1.346999407582309
 20
1.267230549959776
 30
0.0
 11
1.34699940758231
 21
1.198873543626336
 31
0.0
  0
LINE
  5
7DDC74BEFD885
330
7DDC74BEFD918
100
AcDbEntity
  8
TEXT
100
AcDbLine
 10
1.601229851172033
 20
1.401069881958082
 30
0.0
 11
1.601229851172033
 21
1.258665934964386
 31
0.0
  0
ARC
  5
7DDC74BEFD886
330
7DDC74BEFD918
100
AcDbEntity
  8
TEXT
100
AcDbCircle
 10
1.499924333387364
 20
1.282069351986893
 30
0.0
 40
0.0831958083605586
100
AcDbArc
 50
270.0
 51
90.0
  0
ARC
  5
7DDC74BEFD887
330
7DDC74BEFD918
100
AcDbEntity
  8
TEXT
100
AcDbCircle
 10
1.504864707293644
 20
1.28420110384081
 30
0.0
 40
0.0169705538810321
100
AcDbArc
 50
270.0
 51
90.0
  0
LWPOLYLINE
  5
7DDC74BEFD888
330
7DDC74BEFD918
100
AcDbEntity
  8
TEXT
100
AcDbPolyline
 90
        2
 70
     0
 43
0.0006660908203125
 10
1.01100917162316
 20
1.43870294380235
 10
1.01100917162316
 20
1.465346576614851
  0
LWPOLYLINE
  5
7DDC74BEFD88C
330
7DDC74BEFD918
100
AcDbEntity
  8
TEXT
100
AcDbPolyline
 90
        2
 70
     0
 43
0.0006660908203125
 10
1.050974620841911
 20
1.43870294380235
 10
1.050974620841911
 20
1.465346576614851
  0
LINE
  5
7DDC74BEFD890
330
7DDC74BEFD918
100
AcDbEntity
  8
TEXT
100
AcDbLine
 10
1.604818619927326
 20
1.465346576614847
 30
0.0
 11
1.429086867028814
 21
1.465346576614847
 31
0.0
  0
LINE
  5
7DDC74BEFD891
330
7DDC74BEFD918
100
AcDbEntity
  8
TEXT
100
AcDbLine
 10
1.604818619927326
 20
1.499734494208985
 30
0.0
 11
1.604818619927326
 21
1.465346576614847
 31
0.0
  0
LINE
  5
7DDC74BEFD892
330
7DDC74BEFD918
100
AcDbEntity
  8
TEXT
100
AcDbLine
 10
1.795290511947178
 20
1.364474580501727
 30
0.0
 11
1.736660190915241
 21
1.465346576614847
 31
0.0
  0
LINE
  5
7DDC74BEFD893
330
7DDC74BEFD918
100
AcDbEntity
  8
TEXT
100
AcDbLine
 10
1.854039074753044
 20
1.465346576614847
 30
0.0
 11
1.795290511947178
 21
1.364474580501727
 31
0.0
  0
LINE
  5
7DDC74BEFD894
330
7DDC74BEFD918
100
AcDbEntity
  8
TEXT
100
AcDbLine
 10
1.950969700112785
 20
1.281261381729335
 30
0.0
 11
1.950969700112785
 21
1.533358054353658
 31
0.0
  0
LINE
  5
7DDC74BEFD895
330
7DDC74BEFD918
100
AcDbEntity
  8
TEXT
100
AcDbLine
 10
1.983281554250445
 20
1.465346576614847
 30
0.0
 11
1.983281554250445
 21
1.264482369882439
 31
0.0
  0
LINE
  5
7DDC74BEFD896
330
7DDC74BEFD918
100
AcDbEntity
  8
TEXT
100
AcDbLine
 10
1.983281554250445
 20
1.264482369882439
 30
0.0
 11
1.966287917365844
 21
1.264482369882439
 31
0.0
  0
LINE
  5
7DDC74BEFD897
330
7DDC74BEFD918
100
AcDbEntity
  8
TEXT
100
AcDbLine
 10
1.95210927360898
 20
1.198873543626336
 30
0.0
 11
2.050112607308415
 21
1.198873543626336
 31
0.0
  0
LINE
  5
7DDC74BEFD898
330
7DDC74BEFD918
100
AcDbEntity
  8
TEXT
100
AcDbLine
 10
1.785690274950224
 20
1.218832049731349
 30
0.0
 11
1.882989981043669
 21
1.383182260666617
 31
0.0
  0
ARC
  5
7DDC74BEFD899
330
7DDC74BEFD918
100
AcDbEntity
  8
TEXT
100
AcDbCircle
 10
1.75164671503801
 20
1.238421265900032
 30
0.0
 40
0.0392772371940762
100
AcDbArc
 50
270.1604552698595
 51
330.0831797321295
  0
LINE
  5
7DDC74BEFD89A
330
7DDC74BEFD918
100
AcDbEntity
  8
TEXT
100
AcDbLine
 10
1.655116458652139
 20
1.198873543626336
 30
0.0
 11
1.751756709727133
 21
1.199144182724618
 31
0.0
  0
LWPOLYLINE
  5
7DDC74BEFD89B
330
7DDC74BEFD918
100
AcDbEntity
  8
TEXT
100
AcDbPolyline
 90
        6
 70
     1
 43
0.0
 10
1.697640262227289
 20
1.401069881958082
 10
1.66732366800708
 20
1.401069881958082
 10
1.66732366800708
 20
1.277958883903187
 42
0.407328721240804
 10
1.678867319168557
 20
1.266139969226801
 10
1.739489018213288
 20
1.266139969226801
 10
1.756954358620606
 20
1.29895219827028
  0
LINE
  5
7DDC74BEFD8A3
330
7DDC74BEFD918
100
AcDbEntity
  8
TEXT
100
AcDbLine
 10
1.882989981043669
 20
1.383182260666617
 30
0.0
 11
1.882989981043669
 21
1.250424885841261
 31
0.0
  0
ARC
  5
7DDC74BEFD8A4
330
7DDC74BEFD918
100
AcDbEntity
  8
TEXT
100
AcDbCircle
 10
1.966287917365842
 20
1.279864176125864
 30
0.0
 40
0.0153818062434269
100
AcDbArc
 50
174.7883570302258
 51
270.0
  0
LWPOLYLINE
  5
7DDC74BEFD8A5
330
7DDC74BEFD918
100
AcDbEntity
  8
TEXT
100
AcDbPolyline
 90
        2
 70
     0
 43
0.0
 10
1.882989981043667
 20
1.250424885841264
 42
0.3318488747599744
 10
1.95210927360898
 20
1.198873543626336
 42
-6.868794160588311
  0
LINE
  5
7DDC74BEFD8A9
330
7DDC74BEFD918
100
AcDbEntity
  8
TEXT
100
AcDbLine
 10
2.107501676297676
 20
1.198873543626336
 30
0.0
 11
2.174559723079516
 21
1.198873543626336
 31
0.0
  0
LINE
  5
7DDC74BEFD8AA
330
7DDC74BEFD918
100
AcDbEntity
  8
TEXT
100
AcDbLine
 10
2.107501676297676
 20
1.393516092791972
 30
0.0
 11
2.107501676297676
 21
1.198873543626336
 31
0.0
  0
LINE
  5
7DDC74BEFD8AB
330
7DDC74BEFD918
100
AcDbEntity
  8
TEXT
100
AcDbLine
 10
2.050112607308415
 20
1.401069881958082
 30
0.0
 11
2.099947887131562
 21
1.401069881958082
 31
0.0
  0
LINE
  5
7DDC74BEFD8AC
330
7DDC74BEFD918
100
AcDbEntity
  8
TEXT
100
AcDbLine
 10
2.050112607308415
 20
1.198873543626336
 30
0.0
 11
2.050112607308415
 21
1.401069881958082
 31
0.0
  0
LWPOLYLINE
  5
7DDC74BEFD8AD
330
7DDC74BEFD918
100
AcDbEntity
  8
TEXT
100
AcDbPolyline
 90
        2
 70
     0
 43
0.0
 10
2.09994788713156
 20
1.401069881958082
 42
-0.4142135623731017
 10
2.107501676297674
 20
1.393516092791972
 42
-0.9999999999999998
  0
LINE
  5
7DDC74BEFD8B1
330
7DDC74BEFD918
100
AcDbEntity
  8
TEXT
100
AcDbLine
 10
2.305757887909245
 20
1.401069881958082
 30
0.0
 11
2.305757887909245
 21
1.326017475883875
 31
0.0
  0
LINE
  5
7DDC74BEFD8B2
330
7DDC74BEFD918
100
AcDbEntity
  8
TEXT
100
AcDbLine
 10
2.174559723079516
 20
1.401069881958082
 30
0.0
 11
2.228693320000466
 21
1.401069881958082
 31
0.0
  0
LINE
  5
7DDC74BEFD8B3
330
7DDC74BEFD918
100
AcDbEntity
  8
TEXT
100
AcDbLine
 10
2.174559723079516
 20
1.198873543626336
 30
0.0
 11
2.174559723079516
 21
1.401069881958082
 31
0.0
  0
LWPOLYLINE
  5
7DDC74BEFD8B4
330
7DDC74BEFD918
100
AcDbEntity
  8
TEXT
100
AcDbPolyline
 90
        2
 70
     0
 43
0.0
 10
2.228693320000464
 20
1.401069881958082
 42
-0.4142135623731017
 10
2.236247109166578
 20
1.393516092791972
 42
-0.9999999999999998
  0
LWPOLYLINE
  5
7DDC74BEFD8B8
330
7DDC74BEFD918
100
AcDbEntity
  8
TEXT
100
AcDbPolyline
 90
        4
 70
     0
 43
0.0
 10
2.236247109166578
 20
1.393516092791972
 10
2.236247109166578
 20
1.198873543626336
 10
2.304725392454435
 20
1.198873543626336
 10
2.304725392454435
 20
1.242364488576774
 42
-1.714843617202739
  0
LINE
  5
7DDC74BEFD8BE
330
7DDC74BEFD918
100
AcDbEntity
  8
TEXT
100
AcDbLine
 10
1.664861224771333
 20
1.465346576614847
 30
0.0
 11
1.664861224771333
 21
1.499734494208985
 31
0.0
  0
LINE
  5
7DDC74BEFD8BF
330
7DDC74BEFD918
100
AcDbEntity
  8
TEXT
100
AcDbLine
 10
1.736660190915241
 20
1.465346576614847
 30
0.0
 11
1.664861224771333
 21
1.465346576614847
 31
0.0
  0
LINE
  5
7DDC74BEFD8C0
330
7DDC74BEFD918
100
AcDbEntity
  8
TEXT
100
AcDbLine
 10
1.88416098754642
 20
1.465346576614847
 30
0.0
 11
1.854039074753044
 21
1.465346576614847
 31
0.0
  0
LINE
  5
7DDC74BEFD8C1
330
7DDC74BEFD918
100
AcDbEntity
  8
TEXT
100
AcDbLine
 10
1.88416098754642
 20
1.533358054353658
 30
0.0
 11
1.88416098754642
 21
1.465346576614847
 31
0.0
  0
LINE
  5
7DDC74BEFD8C2
330
7DDC74BEFD918
100
AcDbEntity
  8
TEXT
100
AcDbLine
 10
1.950969700112785
 20
1.533358054353658
 30
0.0
 11
1.88416098754642
 21
1.533358054353658
 31
0.0
  0
LWPOLYLINE
  5
7DDC74BEFD8C3
330
7DDC74BEFD918
100
AcDbEntity
  8
TEXT
100
AcDbPolyline
 90
        3
 70
     0
 43
0.0
 10
2.271381459710787
 20
1.465346576614851
 10
2.153081300894743
 20
1.465346576614851
 10
2.153081300894743
 20
1.438179079853955
 42
-1.960274751411753
  0
LINE
  5
7DDC74BEFD8C8
330
7DDC74BEFD918
100
AcDbEntity
  8
TEXT
100
AcDbLine
 10
2.117299610181582
 20
1.465346576614847
 30
0.0
 11
1.983281554250445
 21
1.465346576614847
 31
0.0
  0
LWPOLYLINE
  5
7DDC74BEFD8C9
330
7DDC74BEFD918
100
AcDbEntity
  8
TEXT
100
AcDbPolyline
 90
        2
 70
     0
 43
0.0
 10
2.117299610181582
 20
1.465346576614851
 42
-0.3328679258950098
 10
2.153081300894743
 20
1.438179079853955
 42
6.772930709997214
  0
LINE
  5
7DDC74BEFD8CD
330
7DDC74BEFD918
100
AcDbEntity
  8
TEXT
100
AcDbLine
 10
2.307163150423954
 20
1.465346576614847
 30
0.0
 11
2.307163150423954
 21
1.437024030845203
 31
0.0
  0
LWPOLYLINE
  5
7DDC74BEFD8CE
330
7DDC74BEFD918
100
AcDbEntity
  8
TEXT
100
AcDbPolyline
 90
        2
 70
     0
 43
0.0
 10
2.271381459710787
 20
1.465346576614851
 42
-0.3277054968067132
 10
2.307163150423952
 20
1.437024030845207
 42
6.667889725900311
  0
LINE
  5
7DDC74BEFD8D2
330
7DDC74BEFD918
100
AcDbEntity
  8
TEXT
100
AcDbLine
 10
2.520954998516054
 20
1.36013459806142
 30
0.0
 11
2.477204227334153
 21
1.442384874057565
 31
0.0
  0
LINE
  5
7DDC74BEFD8D3
330
7DDC74BEFD918
100
AcDbEntity
  8
TEXT
100
AcDbLine
 10
2.520954998516054
 20
1.465346576614847
 30
0.0
 11
2.520954998516054
 21
1.36013459806142
 31
0.0
  0
LINE
  5
7DDC74BEFD8D4
330
7DDC74BEFD918
100
AcDbEntity
  8
TEXT
100
AcDbLine
 10
2.748638737454423
 20
1.389481250203309
 30
0.0
 11
2.748638737454423
 21
1.530810782382448
 31
0.0
  0
LINE
  5
7DDC74BEFD8D5
330
7DDC74BEFD918
100
AcDbEntity
  8
TEXT
100
AcDbLine
 10
2.795736896010408
 20
1.465346576614847
 30
0.0
 11
2.748638737454423
 21
1.389481250203309
 31
0.0
  0
LINE
  5
7DDC74BEFD8D6
330
7DDC74BEFD918
100
AcDbEntity
  8
TEXT
100
AcDbLine
 10
2.806171612774331
 20
1.355453333673874
 30
0.0
 11
2.870728728740036
 21
1.465346576614847
 31
0.0
  0
LINE
  5
7DDC74BEFD8D7
330
7DDC74BEFD918
100
AcDbEntity
  8
TEXT
100
AcDbLine
 10
2.68480374623165
 20
1.198873543626336
 30
0.0
 11
2.749181930550271
 21
1.198873543626336
 31
0.0
  0
LWPOLYLINE
  5
7DDC74BEFD8D8
330
7DDC74BEFD918
100
AcDbEntity
  8
TEXT
100
AcDbPolyline
 90
        2
 70
     0
 43
0.0
 10
2.524894675821092
 20
1.242364488576774
 42
-0.2901071551932486
 10
2.481818742953448
 20
1.198873543626336
 42
-5.328517124445184
  0
ARC
  5
7DDC74BEFD8DC
330
7DDC74BEFD918
100
AcDbEntity
  8
TEXT
100
AcDbCircle
 10
2.412964161296533
 20
1.372710506958084
 30
0.0
 40
0.028359375
100
AcDbArc
 50
25.78218179591245
 51
90.0
  0
LINE
  5
7DDC74BEFD8DD
330
7DDC74BEFD918
100
AcDbEntity
  8
TEXT
100
AcDbLine
 10
2.448765236600656
 20
1.363794908495949
 30
0.0
 11
2.438500476187092
 21
1.385045448068644
 31
0.0
  0
LINE
  5
7DDC74BEFD8DE
330
7DDC74BEFD918
100
AcDbEntity
  8
TEXT
100
AcDbLine
 10
2.366477246817273
 20
1.363794908495949
 30
0.0
 11
2.448765236600656
 21
1.363794908495949
 31
0.0
  0
LWPOLYLINE
  5
7DDC74BEFD8DF
330
7DDC74BEFD918
100
AcDbEntity
  8
TEXT
100
AcDbPolyline
 90
        4
 70
     1
 43
0.0
 10
2.461696277883555
 20
1.301837521610361
 10
2.373035959223697
 20
1.301837521610361
 42
0.9999999999999998
 10
2.373035959223697
 20
1.259438981106501
 10
2.461696277883555
 20
1.259438981106501
 42
1.0
  0
LWPOLYLINE
  5
7DDC74BEFD8E5
330
7DDC74BEFD918
100
AcDbEntity
  8
TEXT
100
AcDbPolyline
 90
        2
 70
     0
 43
0.0
 10
2.347801325322071
 20
1.198873543626336
 10
2.481818742953448
 20
1.198873543626336
 42
0.9999999999999998
  0
LINE
  5
7DDC74BEFD8E9
330
7DDC74BEFD918
100
AcDbEntity
  8
TEXT
100
AcDbLine
 10
2.608155764939087
 20
1.401069881958082
 30
0.0
 11
2.684803746231645
 21
1.401069881958082
 31
0.0
  0
LINE
  5
7DDC74BEFD8EA
330
7DDC74BEFD918
100
AcDbEntity
  8
TEXT
100
AcDbLine
 10
2.684803746231645
 20
1.401069881958082
 30
0.0
 11
2.68480374623165
 21
1.198873543626336
 31
0.0
  0
ARC
  5
7DDC74BEFD8EB
330
7DDC74BEFD918
100
AcDbEntity
  8
TEXT
100
AcDbCircle
 10
2.608155764939085
 20
1.376164006675419
 30
0.0
 40
0.0249058752826653
100
AcDbArc
 50
89.99971217465335
 51
179.9999999999985
  0
LINE
  5
7DDC74BEFD8EC
330
7DDC74BEFD918
100
AcDbEntity
  8
TEXT
100
AcDbLine
 10
2.583249889656428
 20
1.198873543626336
 30
0.0
 11
2.583249889656423
 21
1.376164049057805
 31
0.0
  0
LWPOLYLINE
  5
7DDC74BEFD8ED
330
7DDC74BEFD918
100
AcDbEntity
  8
TEXT
100
AcDbPolyline
 90
        2
 70
     0
 43
0.0
 10
2.524894675821092
 20
1.198873543626336
 10
2.583249889656426
 20
1.198873543626336
  0
LWPOLYLINE
  5
7DDC74BEFD8F1
330
7DDC74BEFD918
100
AcDbEntity
  8
TEXT
100
AcDbPolyline
 90
        2
 70
     0
 43
0.0
 10
2.524894675821092
 20
1.242364488576774
 10
2.524894675821092
 20
1.198873543626336
  0
LINE
  5
7DDC74BEFD8F5
330
7DDC74BEFD918
100
AcDbEntity
  8
TEXT
100
AcDbLine
 10
2.901663836137941
 20
1.198873543626336
 30
0.0
 11
2.806171612774331
 21
1.355453333673874
 31
0.0
  0
LINE
  5
7DDC74BEFD8F6
330
7DDC74BEFD918
100
AcDbEntity
  8
TEXT
100
AcDbLine
 10
2.825085463761735
 20
1.198873543626336
 30
0.0
 11
2.901663836137941
 21
1.198873543626336
 31
0.0
  0
LINE
  5
7DDC74BEFD8F7
330
7DDC74BEFD918
100
AcDbEntity
  8
TEXT
100
AcDbLine
 10
2.749181930550271
 20
1.330453112102516
 30
0.0
 11
2.825085463761735
 21
1.198873543626336
 31
0.0
  0
LINE
  5
7DDC74BEFD8F8
330
7DDC74BEFD918
100
AcDbEntity
  8
TEXT
100
AcDbLine
 10
2.749181930550271
 20
1.198873543626336
 30
0.0
 11
2.749181930550271
 21
1.330453112102516
 31
0.0
  0
LINE
  5
7DDC74BEFD8F9
330
7DDC74BEFD918
100
AcDbEntity
  8
TEXT
100
AcDbLine
 10
2.748638737454423
 20
1.530810782382448
 30
0.0
 11
2.68032385890515
 21
1.530810782382448
 31
0.0
  0
ARC
  5
7DDC74BEFD8FA
330
7DDC74BEFD918
100
AcDbEntity
  8
TEXT
100
AcDbCircle
 10
2.439968119863944
 20
1.423763009493945
 30
0.0
 40
0.0416329381542859
100
AcDbArc
 50
26.56974201007528
 51
87.20939649401342
  0
LINE
  5
7DDC74BEFD8FB
330
7DDC74BEFD918
100
AcDbEntity
  8
TEXT
100
AcDbLine
 10
2.584851904815555
 20
1.465346576614847
 30
0.0
 11
2.520954998516054
 21
1.465346576614847
 31
0.0
  0
LINE
  5
7DDC74BEFD8FC
330
7DDC74BEFD918
100
AcDbEntity
  8
TEXT
100
AcDbLine
 10
2.584851904815555
 20
1.437798926753973
 30
0.0
 11
2.584851904815555
 21
1.465346576614847
 31
0.0
  0
ARC
  5
7DDC74BEFD8FD
330
7DDC74BEFD918
100
AcDbEntity
  8
TEXT
100
AcDbCircle
 10
2.616044721878663
 20
1.434100849332582
 30
0.0
 40
0.0314112657011332
100
AcDbArc
 50
95.88484768694724
 51
173.2388340632136
  0
LINE
  5
7DDC74BEFD8FE
330
7DDC74BEFD918
100
AcDbEntity
  8
TEXT
100
AcDbLine
 10
2.680323858905145
 20
1.465346576614847
 30
0.0
 11
2.612824141255628
 21
1.465346576614847
 31
0.0
  0
LINE
  5
7DDC74BEFD8FF
330
7DDC74BEFD918
100
AcDbEntity
  8
TEXT
100
AcDbLine
 10
2.68032385890515
 20
1.530810782382448
 30
0.0
 11
2.680323858905145
 21
1.465346576614847
 31
0.0
  0
LINE
  5
7DDC74BEFD900
330
7DDC74BEFD918
100
AcDbEntity
  8
TEXT
100
AcDbLine
 10
2.870728728740036
 20
1.465346576614847
 30
0.0
 11
2.79573689601041
 21
1.465346576614847
 31
0.0
  0
ENDSEC
  0
SECTION
  2
OBJECTS
  0
DICTIONARY
  5
7DDC74BEFD90C
330
0
100
AcDbDictionary
  3
ACAD_GROUP
350
7DDC74BEFD90D
  3
ACAD_LAYOUT
350
7DDC74BEFD932
  3
ACAD_MLINESTYLE
350
7DDC74BEFD90E
  3
ACAD_PLOTSETTINGS
350
7DDC74BEFD933
  3
ACAD_PLOTSTYLENAME
350
7DDC74BEFD930
  3
ACDBHEADERROUNDTRIPXREC
350
7DDC74BEFD93D
  3
ACDBVARIABLEDICTIONARY
350
7DDC74BEFD93A
  0
DICTIONARY
  5
7DDC74BEFD95F
330
7DDC74BEFD918
100
AcDbDictionary
280
     1
  3
ACAD_LAYOUTSELFREF
360
7DDC74BEFD960
  0
DICTIONARY
  5
7DDC74BEFD95D
330
7DDC74BEFD915
100
AcDbDictionary
280
     1
  3
ACAD_LAYOUTSELFREF
360
7DDC74BEFD95E
  0
DICTIONARY
  5
7DDC74BEFD90D
102
{ACAD_REACTORS
330
7DDC74BEFD90C
102
}
330
7DDC74BEFD90C
100
AcDbDictionary
  0
DICTIONARY
  5
7DDC74BEFD932
102
{ACAD_REACTORS
330
7DDC74BEFD90C
102
}
330
7DDC74BEFD90C
100
AcDbDictionary
  0
DICTIONARY
  5
7DDC74BEFD90E
102
{ACAD_REACTORS
330
7DDC74BEFD90C
102
}
330
7DDC74BEFD90C
100
AcDbDictionary
  3
STANDARD
350
7DDC74BEFD91B
  0
DICTIONARY
  5
7DDC74BEFD933
102
{ACAD_REACTORS
330
7DDC74BEFD90C
102
}
330
7DDC74BEFD90C
100
AcDbDictionary
  0
ACDBDICTIONARYWDFLT
  5
7DDC74BEFD930
102
{ACAD_REACTORS
330
7DDC74BEFD90C
102
}
330
7DDC74BEFD90C
100
AcDbDictionary
281
     1
  3
Normal
350
7DDC74BEFD931
100
AcDbDictionaryWithDefault
340
7DDC74BEFD931
  0
DICTIONARY
  5
7DDC74BEFD93D
102
{ACAD_REACTORS
330
7DDC74BEFD90C
102
}
330
7DDC74BEFD90C
100
AcDbDictionary
  3
CEPSNTYPE
350
7DDC74BEFD947
  3
FINGERPRINTGUID
350
7DDC74BEFD948
  3
HYPERLINKBASE
350
7DDC74BEFD940
  3
INSUNITS
350
7DDC74BEFD946
  3
LAYOUTDICT
350
7DDC74BEFD942
  3
LWETCUNION
350
7DDC74BEFD945
  3
PLOTSETDICT
350
7DDC74BEFD943
  3
PLOTSTYLNAMDICT
350
7DDC74BEFD944
  3
PSVPSCALE
350
7DDC74BEFD94A
  3
PUCSBASE
350
7DDC74BEFD94D
  3
PUCSORGBACK
350
7DDC74BEFD953
  3
PUCSORGBOTTOM
350
7DDC74BEFD94F
  3
PUCSORGFRONT
350
7DDC74BEFD952
  3
PUCSORGLEFT
350
7DDC74BEFD950
  3
PUCSORGRIGHT
350
7DDC74BEFD951
  3
PUCSORGTOP
350
7DDC74BEFD94E
  3
PUCSORTHOREF
350
7DDC74BEFD94B
  3
PUCSORTHOVIEW
350
7DDC74BEFD94C
  3
STYLESHEET
350
7DDC74BEFD941
  3
TSTACKALIGN
350
7DDC74BEFD93E
  3
TSTACKSIZE
350
7DDC74BEFD93F
  3
UCSBASE
350
7DDC74BEFD956
  3
UCSORGBACK
350
7DDC74BEFD95C
  3
UCSORGBOTTOM
350
7DDC74BEFD958
  3
UCSORGFRONT
350
7DDC74BEFD95B
  3
UCSORGLEFT
350
7DDC74BEFD959
  3
UCSORGRIGHT
350
7DDC74BEFD95A
  3
UCSORGTOP
350
7DDC74BEFD957
  3
UCSORTHOREF
350
7DDC74BEFD954
  3
UCSORTHOVIEW
350
7DDC74BEFD955
  3
VERSIONGUID
350
7DDC74BEFD949
  0
DICTIONARY
  5
7DDC74BEFD93A
102
{ACAD_REACTORS
330
7DDC74BEFD90C
102
}
330
7DDC74BEFD90C
100
AcDbDictionary
  3
DIMASSOC
350
7DDC74BEFD93B
  0
XRECORD
  5
7DDC74BEFD960
102
{ACAD_REACTORS
330
7DDC74BEFD95F
102
}
330
7DDC74BEFD95F
100
AcDbXrecord
340
7DDC74BEFD918
  0
XRECORD
  5
7DDC74BEFD95E
102
{ACAD_REACTORS
330
7DDC74BEFD95D
102
}
330
7DDC74BEFD95D
100
AcDbXrecord
340
7DDC74BEFD915
  0
MLINESTYLE
  5
7DDC74BEFD91B
102
{ACAD_REACTORS
330
7DDC74BEFD90E
102
}
330
7DDC74BEFD90E
100
AcDbMlineStyle
  2
STANDARD
 70
     0
  3

 62
     0
 51
90.0
 52
90.0
 71
     2
 49
0.5
 62
   256
  6
BYLAYER
 49
-0.5
 62
   256
  6
BYLAYER
  0
ACDBPLACEHOLDER
  5
7DDC74BEFD931
102
{ACAD_REACTORS
330
7DDC74BEFD930
102
}
330
7DDC74BEFD930
100
AcDbPlaceHolder
280
     0
  0
XRECORD
  5
7DDC74BEFD947
102
{ACAD_REACTORS
330
7DDC74BEFD93D
102
}
330
7DDC74BEFD93D
100
AcDbXrecord
 90
        0
  0
XRECORD
  5
7DDC74BEFD948
102
{ACAD_REACTORS
330
7DDC74BEFD93D
102
}
330
7DDC74BEFD93D
100
AcDbXrecord
  1
{DA65C750-8DB3-11D6-88E6-0090279574E7}
  0
XRECORD
  5
7DDC74BEFD940
102
{ACAD_REACTORS
330
7DDC74BEFD93D
102
}
330
7DDC74BEFD93D
100
AcDbXrecord
  1

  0
XRECORD
  5
7DDC74BEFD946
102
{ACAD_REACTORS
330
7DDC74BEFD93D
102
}
330
7DDC74BEFD93D
100
AcDbXrecord
 90
        0
  0
XRECORD
  5
7DDC74BEFD942
102
{ACAD_REACTORS
330
7DDC74BEFD93D
102
}
330
7DDC74BEFD93D
100
AcDbXrecord
340
7DDC74BEFD932
  0
XRECORD
  5
7DDC74BEFD945
102
{ACAD_REACTORS
330
7DDC74BEFD93D
102
}
330
7DDC74BEFD93D
100
AcDbXrecord
 90
    14877
  0
XRECORD
  5
7DDC74BEFD943
102
{ACAD_REACTORS
330
7DDC74BEFD93D
102
}
330
7DDC74BEFD93D
100
AcDbXrecord
340
7DDC74BEFD933
  0
XRECORD
  5
7DDC74BEFD944
102
{ACAD_REACTORS
330
7DDC74BEFD93D
102
}
330
7DDC74BEFD93D
100
AcDbXrecord
340
7DDC74BEFD930
  0
XRECORD
  5
7DDC74BEFD94A
102
{ACAD_REACTORS
330
7DDC74BEFD93D
102
}
330
7DDC74BEFD93D
100
AcDbXrecord
 40
0.0
  0
XRECORD
  5
7DDC74BEFD94D
102
{ACAD_REACTORS
330
7DDC74BEFD93D
102
}
330
7DDC74BEFD93D
100
AcDbXrecord
340
0
  0
XRECORD
  5
7DDC74BEFD953
102
{ACAD_REACTORS
330
7DDC74BEFD93D
102
}
330
7DDC74BEFD93D
100
AcDbXrecord
 10
0.0
 20
0.0
 30
0.0
  0
XRECORD
  5
7DDC74BEFD94F
102
{ACAD_REACTORS
330
7DDC74BEFD93D
102
}
330
7DDC74BEFD93D
100
AcDbXrecord
 10
0.0
 20
0.0
 30
0.0
  0
XRECORD
  5
7DDC74BEFD952
102
{ACAD_REACTORS
330
7DDC74BEFD93D
102
}
330
7DDC74BEFD93D
100
AcDbXrecord
 10
0.0
 20
0.0
 30
0.0
  0
XRECORD
  5
7DDC74BEFD950
102
{ACAD_REACTORS
330
7DDC74BEFD93D
102
}
330
7DDC74BEFD93D
100
AcDbXrecord
 10
0.0
 20
0.0
 30
0.0
  0
XRECORD
  5
7DDC74BEFD951
102
{ACAD_REACTORS
330
7DDC74BEFD93D
102
}
330
7DDC74BEFD93D
100
AcDbXrecord
 10
0.0
 20
0.0
 30
0.0
  0
XRECORD
  5
7DDC74BEFD94E
102
{ACAD_REACTORS
330
7DDC74BEFD93D
102
}
330
7DDC74BEFD93D
100
AcDbXrecord
 10
0.0
 20
0.0
 30
0.0
  0
XRECORD
  5
7DDC74BEFD94B
102
{ACAD_REACTORS
330
7DDC74BEFD93D
102
}
330
7DDC74BEFD93D
100
AcDbXrecord
340
0
  0
XRECORD
  5
7DDC74BEFD94C
102
{ACAD_REACTORS
330
7DDC74BEFD93D
102
}
330
7DDC74BEFD93D
100
AcDbXrecord
 70
     0
  0
XRECORD
  5
7DDC74BEFD941
102
{ACAD_REACTORS
330
7DDC74BEFD93D
102
}
330
7DDC74BEFD93D
100
AcDbXrecord
  1

  0
XRECORD
  5
7DDC74BEFD93E
102
{ACAD_REACTORS
330
7DDC74BEFD93D
102
}
330
7DDC74BEFD93D
100
AcDbXrecord
 90
        1
  0
XRECORD
  5
7DDC74BEFD93F
102
{ACAD_REACTORS
330
7DDC74BEFD93D
102
}
330
7DDC74BEFD93D
100
AcDbXrecord
 90
       70
  0
XRECORD
  5
7DDC74BEFD956
102
{ACAD_REACTORS
330
7DDC74BEFD93D
102
}
330
7DDC74BEFD93D
100
AcDbXrecord
340
0
  0
XRECORD
  5
7DDC74BEFD95C
102
{ACAD_REACTORS
330
7DDC74BEFD93D
102
}
330
7DDC74BEFD93D
100
AcDbXrecord
 10
0.0
 20
0.0
 30
0.0
  0
XRECORD
  5
7DDC74BEFD958
102
{ACAD_REACTORS
330
7DDC74BEFD93D
102
}
330
7DDC74BEFD93D
100
AcDbXrecord
 10
0.0
 20
0.0
 30
0.0
  0
XRECORD
  5
7DDC74BEFD95B
102
{ACAD_REACTORS
330
7DDC74BEFD93D
102
}
330
7DDC74BEFD93D
100
AcDbXrecord
 10
0.0
 20
0.0
 30
0.0
  0
XRECORD
  5
7DDC74BEFD959
102
{ACAD_REACTORS
330
7DDC74BEFD93D
102
}
330
7DDC74BEFD93D
100
AcDbXrecord
 10
0.0
 20
0.0
 30
0.0
  0
XRECORD
  5
7DDC74BEFD95A
102
{ACAD_REACTORS
330
7DDC74BEFD93D
102
}
330
7DDC74BEFD93D
100
AcDbXrecord
 10
0.0
 20
0.0
 30
0.0
  0
XRECORD
  5
7DDC74BEFD957
102
{ACAD_REACTORS
330
7DDC74BEFD93D
102
}
330
7DDC74BEFD93D
100
AcDbXrecord
 10
0.0
 20
0.0
 30
0.0
  0
XRECORD
  5
7DDC74BEFD954
102
{ACAD_REACTORS
330
7DDC74BEFD93D
102
}
330
7DDC74BEFD93D
100
AcDbXrecord
340
0
  0
XRECORD
  5
7DDC74BEFD955
102
{ACAD_REACTORS
330
7DDC74BEFD93D
102
}
330
7DDC74BEFD93D
100
AcDbXrecord
 70
     0
  0
XRECORD
  5
7DDC74BEFD949
102
{ACAD_REACTORS
330
7DDC74BEFD93D
102
}
330
7DDC74BEFD93D
100
AcDbXrecord
  1
{DA65C752-8DB3-11D6-88E6-0090279574E7}
  0
DICTIONARYVAR
  5
7DDC74BEFD93B
102
{ACAD_REACTORS
330
7DDC74BEFD93A
102
}
330
7DDC74BEFD93A
100
DictionaryVariables
280
     0
  1
1
  0
ENDSEC
  0
EOF
