  0
SECTION
  2
HEADER
  9
$ACADVER
  1
AC1014
  9
$ACADMAINTVER
 70
     9
  9
$DWGCODEPAGE
  3
ANSI_1252
  9
$INSBASE
 10
2.908881311626791
 20
2.166357450876367
 30
0.0
  9
$EXTMIN
 10
1.165899732399648
 20
1.177088846793786
 30
0.0
  9
$EXTMAX
 10
4.651119054146779
 20
2.416357450876367
 30
0.0
  9
$LIMMIN
 10
0.0
 20
0.0
  9
$LIMMAX
 10
18.0
 20
12.0
  9
$ORTHOMODE
 70
     1
  9
$REGENMODE
 70
     1
  9
$FILLMODE
 70
     1
  9
$QTEXTMODE
 70
     0
  9
$MIRRTEXT
 70
     0
  9
$DRAGMODE
 70
     2
  9
$LTSCALE
 40
1.0
  9
$OSMODE
 70
    39
  9
$ATTMODE
 70
     1
  9
$TEXTSIZE
 40
0.125
  9
$TRACEWID
 40
0.05
  9
$TEXTSTYLE
  7
ROMANS
  9
$CLAYER
  8
0
  9
$CELTYPE
  6
BYLAYER
  9
$CECOLOR
 62
   256
  9
$CELTSCALE
 40
1.0
  9
$DELOBJ
 70
     1
  9
$DISPSILH
 70
     1
  9
$DIMSCALE
 40
1.0
  9
$DIMASZ
 40
0.125
  9
$DIMEXO
 40
0.125
  9
$DIMDLI
 40
0.375
  9
$DIMRND
 40
0.0
  9
$DIMDLE
 40
0.0
  9
$DIMEXE
 40
0.125
  9
$DIMTP
 40
0.0
  9
$DIMTM
 40
0.0
  9
$DIMTXT
 40
0.125
  9
$DIMCEN
 40
-0.125
  9
$DIMTSZ
 40
0.0
  9
$DIMTOL
 70
     0
  9
$DIMLIM
 70
     0
  9
$DIMTIH
 70
     1
  9
$DIMTOH
 70
     1
  9
$DIMSE1
 70
     0
  9
$DIMSE2
 70
     0
  9
$DIMTAD
 70
     0
  9
$DIMZIN
 70
     4
  9
$DIMBLK
  1

  9
$DIMASO
 70
     1
  9
$DIMSHO
 70
     1
  9
$DIMPOST
  1

  9
$DIMAPOST
  1

  9
$DIMALT
 70
     0
  9
$DIMALTD
 70
     2
  9
$DIMALTF
 40
25.4
  9
$DIMLFAC
 40
1.0
  9
$DIMTOFL
 70
     0
  9
$DIMTVP
 40
0.0
  9
$DIMTIX
 70
     1
  9
$DIMSOXD
 70
     0
  9
$DIMSAH
 70
     0
  9
$DIMBLK1
  1

  9
$DIMBLK2
  1

  9
$DIMSTYLE
  2
STANDARD
  9
$DIMCLRD
 70
     0
  9
$DIMCLRE
 70
     0
  9
$DIMCLRT
 70
     0
  9
$DIMTFAC
 40
1.0
  9
$DIMGAP
 40
0.09
  9
$DIMJUST
 70
     0
  9
$DIMSD1
 70
     0
  9
$DIMSD2
 70
     0
  9
$DIMTOLJ
 70
     1
  9
$DIMTZIN
 70
     4
  9
$DIMALTZ
 70
     0
  9
$DIMALTTZ
 70
     0
  9
$DIMFIT
 70
     3
  9
$DIMUPT
 70
     0
  9
$DIMUNIT
 70
     2
  9
$DIMDEC
 70
     3
  9
$DIMTDEC
 70
     3
  9
$DIMALTU
 70
     2
  9
$DIMALTTD
 70
     2
  9
$DIMTXSTY
  7
ROMANS
  9
$DIMAUNIT
 70
     0
  9
$LUNITS
 70
     2
  9
$LUPREC
 70
     3
  9
$SKETCHINC
 40
0.1
  9
$FILLETRAD
 40
0.03125
  9
$AUNITS
 70
     0
  9
$AUPREC
 70
     0
  9
$MENU
  1
ACAD
  9
$ELEVATION
 40
0.0
  9
$PELEVATION
 40
0.0
  9
$THICKNESS
 40
0.0
  9
$LIMCHECK
 70
     0
  9
$BLIPMODE
 70
     0
  9
$CHAMFERA
 40
0.0
  9
$CHAMFERB
 40
0.0
  9
$CHAMFERC
 40
0.0
  9
$CHAMFERD
 40
0.0
  9
$SKPOLY
 70
     0
  9
$TDCREATE
 40
2448993.483431365
  9
$TDUPDATE
 40
2452458.294711944
  9
$TDINDWG
 40
0.0006399306
  9
$TDUSRTIMER
 40
0.0006399306
  9
$USRTIMER
 70
     1
  9
$ANGBASE
 50
0.0
  9
$ANGDIR
 70
     0
  9
$PDMODE
 70
     0
  9
$PDSIZE
 40
0.0
  9
$PLINEWID
 40
0.0
  9
$COORDS
 70
     2
  9
$SPLFRAME
 70
     0
  9
$SPLINETYPE
 70
     6
  9
$SPLINESEGS
 70
     8
  9
$ATTDIA
 70
     0
  9
$ATTREQ
 70
     1
  9
$HANDLING
 70
 22529
  9
$HANDSEED
  5
FBB8E97E0A0B
  9
$SURFTAB1
 70
     6
  9
$SURFTAB2
 70
     6
  9
$SURFTYPE
 70
     6
  9
$SURFU
 70
     6
  9
$SURFV
 70
     6
  9
$UCSNAME
  2

  9
$UCSORG
 10
0.0
 20
0.0
 30
0.0
  9
$UCSXDIR
 10
1.0
 20
0.0
 30
0.0
  9
$UCSYDIR
 10
0.0
 20
1.0
 30
0.0
  9
$PUCSNAME
  2

  9
$PUCSORG
 10
0.0
 20
0.0
 30
0.0
  9
$PUCSXDIR
 10
1.0
 20
0.0
 30
0.0
  9
$PUCSYDIR
 10
0.0
 20
1.0
 30
0.0
  9
$USERI1
 70
     0
  9
$USERI2
 70
     0
  9
$USERI3
 70
     0
  9
$USERI4
 70
     0
  9
$USERI5
 70
     0
  9
$USERR1
 40
0.0
  9
$USERR2
 40
0.0
  9
$USERR3
 40
0.0
  9
$USERR4
 40
0.0
  9
$USERR5
 40
0.0
  9
$WORLDVIEW
 70
     1
  9
$SHADEDGE
 70
     3
  9
$SHADEDIF
 70
    70
  9
$TILEMODE
 70
     1
  9
$MAXACTVP
 70
    16
  9
$PINSBASE
 10
1.386259488556632
 20
50.00000000000001
 30
2.045731698286131
  9
$PLIMCHECK
 70
     0
  9
$PEXTMIN
 10
1.000000000000000E+20
 20
1.000000000000000E+20
 30
1.000000000000000E+20
  9
$PEXTMAX
 10
-1.000000000000000E+20
 20
-1.000000000000000E+20
 30
-1.000000000000000E+20
  9
$PLIMMIN
 10
0.0
 20
0.0
  9
$PLIMMAX
 10
12.0
 20
9.0
  9
$UNITMODE
 70
     0
  9
$VISRETAIN
 70
     0
  9
$PLINEGEN
 70
     1
  9
$PSLTSCALE
 70
     0
  9
$TREEDEPTH
 70
  3020
  9
$PICKSTYLE
 70
     1
  9
$CMLSTYLE
  2
STANDARD
  9
$CMLJUST
 70
     0
  9
$CMLSCALE
 40
1.0
  9
$PROXYGRAPHICS
 70
     1
  9
$MEASUREMENT
 70
     0
  0
ENDSEC
  0
SECTION
  2
CLASSES
  0
CLASS
  1
LWPOLYLINE
  2
AcDbPolyline
  3
AutoCAD 2000
 90
        0
280
     0
281
     1
  0
CLASS
  1
ACDBDICTIONARYWDFLT
  2
AcDbDictionaryWithDefault
  3
AutoCAD 2000
 90
        0
280
     0
281
     0
  0
CLASS
  1
ACDBPLACEHOLDER
  2
AcDbPlaceHolder
  3
AutoCAD 2000
 90
        0
280
     0
281
     0
  0
CLASS
  1
LAYOUT
  2
AcDbLayout
  3
AutoCAD 2000
 90
        0
280
     0
281
     0
  0
CLASS
  1
DICTIONARYVAR
  2
AcDbDictionaryVar
  3
AutoCAD 2000
 90
        0
280
     0
281
     0
  0
CLASS
  1
LONG_TRANSACTION
  2
AcDbLongTransaction
  3
AutoCAD 2000
 90
        0
280
     0
281
     0
  0
CLASS
  1
LWPOLYLINE
  2
AcDbPolyline
  3
AutoCAD 2000
 90
        0
280
     0
281
     1
  0
CLASS
  1
HATCH
  2
AcDbHatch
  3
AutoCAD 2000
 90
        0
280
     0
281
     1
  0
CLASS
  1
XRECORD
  2
AcDbXrecord
  3
AutoCAD 2000
 90
        0
280
     0
281
     0
  0
ENDSEC
  0
SECTION
  2
TABLES
  0
TABLE
  2
VPORT
  5
FBB8E97E09B2
330
0
100
AcDbSymbolTable
 70
     2
  0
VPORT
  5
FBB8E97E09E6
330
FBB8E97E09B2
100
AcDbSymbolTableRecord
100
AcDbViewportTableRecord
  2
*ACTIVE
 70
     0
 10
0.0
 20
0.0
 11
1.0
 21
1.0
 12
5.885104024052307
 22
1.796813987890274
 13
0.0
 23
0.0
 14
0.015625
 24
0.015625
 15
0.0
 25
0.0
 16
0.0
 26
0.0
 36
1.0
 17
0.0
 27
0.0
 37
0.0
 40
2.282647215150728
 41
4.320930232558139
 42
50.0
 43
0.0
 44
0.0
 50
0.0
 51
0.0
 71
     0
 72
  2000
 73
     1
 74
     0
 75
     1
 76
     0
 77
     0
 78
     0
  0
ENDTAB
  0
TABLE
  2
LTYPE
  5
FBB8E97E09AF
330
0
100
AcDbSymbolTable
 70
     1
  0
LTYPE
  5
FBB8E97E09BC
330
FBB8E97E09AF
100
AcDbSymbolTableRecord
100
AcDbLinetypeTableRecord
  2
BYBLOCK
 70
     0
  3

 72
    65
 73
     0
 40
0.0
  0
LTYPE
  5
FBB8E97E09BD
330
FBB8E97E09AF
100
AcDbSymbolTableRecord
100
AcDbLinetypeTableRecord
  2
BYLAYER
 70
     0
  3

 72
    65
 73
     0
 40
0.0
  0
LTYPE
  5
FBB8E97E09BE
330
FBB8E97E09AF
100
AcDbSymbolTableRecord
100
AcDbLinetypeTableRecord
  2
CONTINUOUS
 70
     0
  3
Solid line
 72
    65
 73
     0
 40
0.0
  0
ENDTAB
  0
TABLE
  2
LAYER
  5
FBB8E97E09AC
330
0
100
AcDbSymbolTable
 70
     2
  0
LAYER
  5
FBB8E97E09B9
330
FBB8E97E09AC
100
AcDbSymbolTableRecord
100
AcDbLayerTableRecord
  2
0
 70
     0
 62
     7
  6
CONTINUOUS
  0
LAYER
  5
FBB8E97E09C9
330
FBB8E97E09AC
100
AcDbSymbolTableRecord
100
AcDbLayerTableRecord
  2
TEXT
 70
     0
 62
     3
  6
CONTINUOUS
  0
ENDTAB
  0
TABLE
  2
STYLE
  5
FBB8E97E09AD
330
0
100
AcDbSymbolTable
 70
     3
  0
STYLE
  5
FBB8E97E09BA
330
FBB8E97E09AD
100
AcDbSymbolTableRecord
100
AcDbTextStyleTableRecord
  2
STANDARD
 70
     0
 40
0.0
 41
1.0
 50
0.0
 71
     0
 42
0.3125
  3
txt
  4

  0
STYLE
  5
FBB8E97E09C6
330
FBB8E97E09AD
100
AcDbSymbolTableRecord
100
AcDbTextStyleTableRecord
  2
ITALICC
 70
     0
 40
0.0
 41
1.0
 50
0.0
 71
     0
 42
0.125
  3
italicc
  4

  0
STYLE
  5
FBB8E97E09D6
330
FBB8E97E09AD
100
AcDbSymbolTableRecord
100
AcDbTextStyleTableRecord
  2
ROMANS
 70
     0
 40
0.0
 41
1.0
 50
0.0
 71
     0
 42
0.125
  3
romans.shx
  4

  0
ENDTAB
  0
TABLE
  2
VIEW
  5
FBB8E97E09B0
330
0
100
AcDbSymbolTable
 70
     0
  0
ENDTAB
  0
TABLE
  2
UCS
  5
FBB8E97E09B1
330
0
100
AcDbSymbolTable
 70
     0
  0
ENDTAB
  0
TABLE
  2
APPID
  5
FBB8E97E09B3
330
0
100
AcDbSymbolTable
 70
     1
  0
APPID
  5
FBB8E97E09BB
330
FBB8E97E09B3
100
AcDbSymbolTableRecord
100
AcDbRegAppTableRecord
  2
ACAD
 70
     0
  0
ENDTAB
  0
TABLE
  2
DIMSTYLE
  5
FBB8E97E09B4
330
0
100
AcDbSymbolTable
 70
     1
  0
DIMSTYLE
105
FBB8E97E09CE
330
FBB8E97E09B4
100
AcDbSymbolTableRecord
100
AcDbDimStyleTableRecord
  2
STANDARD
 70
     0
  3

  4

  5

  6

  7

 40
1.0
 41
0.125
 42
0.125
 43
0.375
 44
0.125
 45
0.0
 46
0.0
 47
0.0
 48
0.0
140
0.125
141
-0.125
142
0.0
143
25.4
144
1.0
145
0.0
146
1.0
147
0.09
 71
     0
 72
     0
 73
     1
 74
     1
 75
     0
 76
     0
 77
     0
 78
     4
170
     0
171
     2
172
     0
173
     0
174
     1
175
     0
176
     0
177
     0
178
     0
270
     2
271
     3
272
     3
273
     2
274
     2
340
FBB8E97E09D6
275
     0
280
     0
281
     0
282
     0
283
     1
284
     4
285
     0
286
     0
287
     3
288
     0
  0
ENDTAB
  0
TABLE
  2
BLOCK_RECORD
  5
FBB8E97E09AB
330
0
100
AcDbSymbolTable
 70
     0
  0
BLOCK_RECORD
  5
FBB8E97E09C2
102
{ACAD_XDICTIONARY
360
FBB8E97E0A09
102
}
330
FBB8E97E09AB
100
AcDbSymbolTableRecord
100
AcDbBlockTableRecord
  2
*MODEL_SPACE
  0
BLOCK_RECORD
  5
FBB8E97E09BF
102
{ACAD_XDICTIONARY
360
FBB8E97E0A07
102
}
330
FBB8E97E09AB
100
AcDbSymbolTableRecord
100
AcDbBlockTableRecord
  2
*PAPER_SPACE
  0
ENDTAB
  0
ENDSEC
  0
SECTION
  2
BLOCKS
  0
BLOCK
  5
FBB8E97E09CC
330
FBB8E97E09C2
100
AcDbEntity
  8
0
100
AcDbBlockBegin
  2
*MODEL_SPACE
 70
     0
 10
0.0
 20
0.0
 30
0.0
  3
*MODEL_SPACE
  1

  0
ENDBLK
  5
FBB8E97E09CD
330
FBB8E97E09C2
100
AcDbEntity
  8
0
100
AcDbBlockEnd
  0
BLOCK
  5
FBB8E97E09CA
330
FBB8E97E09BF
100
AcDbEntity
 67
     1
  8
0
100
AcDbBlockBegin
  2
*PAPER_SPACE
 70
     0
 10
0.0
 20
0.0
 30
0.0
  3
*PAPER_SPACE
  1

  0
ENDBLK
  5
FBB8E97E09CB
330
FBB8E97E09BF
100
AcDbEntity
 67
     1
  8
0
100
AcDbBlockEnd
  0
ENDSEC
  0
SECTION
  2
ENTITIES
  0
CIRCLE
  5
FBB8E97DF613
330
FBB8E97E09C2
100
AcDbEntity
  8
0
100
AcDbCircle
 10
2.908881311626791
 20
2.166357450876367
 30
0.0
 40
0.201
  0
CIRCLE
  5
FBB8E97DF485
330
FBB8E97E09C2
100
AcDbEntity
  8
0
100
AcDbCircle
 10
2.908881311626791
 20
2.166357450876367
 30
0.0
 40
0.25
  0
TEXT
  5
FBB8E97E086D
330
FBB8E97E09C2
100
AcDbEntity
  8
TEXT
100
AcDbText
 10
2.152928930674411
 20
1.635107450876367
 30
0.0
 40
0.125
  1
PART #110087
  7
ITALICC
 72
     1
 11
2.908881311626791
 21
1.635107450876367
 31
0.0
100
AcDbText
  0
TEXT
  5
FBB8E97E086E
330
FBB8E97E09C2
100
AcDbEntity
  8
TEXT
100
AcDbText
 10
3.322186469877112
 20
1.188184808203992
 30
0.0
 40
0.0522247191011236
  1
Phone  1-800-328-2495
 41
1.272321428571429
 72
     5
 11
4.651119054146776
 21
1.188184808203992
 31
0.0
100
AcDbText
  0
TEXT
  5
FBB8E97E086F
330
FBB8E97E09C2
100
AcDbEntity
  8
TEXT
100
AcDbText
 10
3.322186469877112
 20
1.467960089102868
 30
0.0
 40
0.0522247191011236
  1
Stylmark  Incorporated
 41
1.221428571428573
 72
     5
 11
4.651119054146776
 21
1.467960089102868
 31
0.0
100
AcDbText
  0
TEXT
  5
FBB8E97E0870
330
FBB8E97E09C2
100
AcDbEntity
  8
TEXT
100
AcDbText
 10
3.322186469877112
 20
1.374701662136576
 30
0.0
 40
0.0522247191011236
  1
6536 Main St. N.E. * P.O. Box 32008
 41
0.8388932496075366
 72
     5
 11
4.651119054146776
 21
1.374701662136576
 31
0.0
100
AcDbText
  0
TEXT
  5
FBB8E97E0871
330
FBB8E97E09C2
100
AcDbEntity
  8
TEXT
100
AcDbText
 10
3.322186469877112
 20
1.281443235170284
 30
0.0
 40
0.0522247191011236
  1
Minneapolis, MN 55432-0008
 41
1.11444212721585
 72
     5
 11
4.651119054146776
 21
1.281443235170284
 31
0.0
100
AcDbText
  0
LWPOLYLINE
  5
FBB8E97E0872
330
FBB8E97E09C2
100
AcDbEntity
  8
TEXT
100
AcDbPolyline
 90
        3
 70
     0
 43
0.0006660908203125
 10
1.166232777809804
 20
1.301829570841427
 10
1.166232777809804
 20
1.188594131388299
 10
1.279468217262927
 20
1.188594131388299
  0
LWPOLYLINE
  5
FBB8E97E0877
330
FBB8E97E09C2
100
AcDbEntity
  8
TEXT
100
AcDbPolyline
 90
        3
 70
     0
 43
0.0006660908203125
 10
1.192876410622302
 20
1.301829570841427
 10
1.192876410622302
 20
1.2152377642008
 10
1.279468217262927
 20
1.2152377642008
  0
LWPOLYLINE
  5
FBB8E97E087C
330
FBB8E97E09C2
100
AcDbEntity
  8
TEXT
100
AcDbPolyline
 90
        2
 70
     0
 43
0.0001332181640625
 10
1.239502768044179
 20
1.311820933146112
 10
1.166232777809804
 20
1.301829570841427
  0
LWPOLYLINE
  5
FBB8E97E0880
330
FBB8E97E09C2
100
AcDbEntity
  8
TEXT
100
AcDbPolyline
 90
        2
 70
     0
 43
0.0001332181640625
 10
1.192876410622302
 20
1.301829570841427
 10
1.252824584450429
 20
1.311820933146112
  0
LWPOLYLINE
  5
FBB8E97E0884
330
FBB8E97E09C2
100
AcDbEntity
  8
TEXT
100
AcDbPolyline
 90
        2
 70
     0
 43
0.0001332181640625
 10
1.192876410622302
 20
1.2152377642008
 10
1.252824584450429
 20
1.275185938028926
  0
LWPOLYLINE
  5
FBB8E97E0888
330
FBB8E97E09C2
100
AcDbEntity
  8
TEXT
100
AcDbPolyline
 90
        3
 70
     0
 43
0.0006660908203125
 10
1.279468217262927
 20
1.455030459513302
 10
1.166232777809804
 20
1.455030459513302
 10
1.166232777809804
 20
1.341795020060175
  0
LWPOLYLINE
  5
FBB8E97E088D
330
FBB8E97E09C2
100
AcDbEntity
  8
TEXT
100
AcDbPolyline
 90
        3
 70
     0
 43
0.0006660908203125
 10
1.279468217262927
 20
1.428386826700801
 10
1.192876410622302
 20
1.428386826700801
 10
1.192876410622302
 20
1.341795020060175
  0
LWPOLYLINE
  5
FBB8E97E0892
330
FBB8E97E09C2
100
AcDbEntity
  8
TEXT
100
AcDbPolyline
 90
        2
 70
     0
 43
0.0001332181640625
 10
1.192876410622302
 20
1.428386826700801
 10
1.252824584450427
 20
1.368438652872676
  0
LWPOLYLINE
  5
FBB8E97E0896
330
FBB8E97E09C2
100
AcDbEntity
  8
TEXT
100
AcDbPolyline
 90
        2
 70
     0
 43
0.0001332181640625
 10
1.192876410622302
 20
1.341795020060175
 10
1.252824584450427
 20
1.331803657755486
  0
LWPOLYLINE
  5
FBB8E97E089A
330
FBB8E97E09C2
100
AcDbEntity
  8
TEXT
100
AcDbPolyline
 90
        2
 70
     0
 43
0.0001332181640625
 10
1.166232777809804
 20
1.341795020060175
 10
1.239502768044179
 20
1.331803657755486
  0
LWPOLYLINE
  5
FBB8E97E089E
330
FBB8E97E09C2
100
AcDbEntity
  8
TEXT
100
AcDbPolyline
 90
        2
 70
     0
 43
0.0006660908203125
 10
1.192876410622302
 20
1.301829570841427
 10
1.166232777809804
 20
1.301829570841427
  0
LWPOLYLINE
  5
FBB8E97E08A2
330
FBB8E97E09C2
100
AcDbEntity
  8
TEXT
100
AcDbPolyline
 90
        2
 70
     0
 43
0.0006660908203125
 10
1.192876410622302
 20
1.341795020060175
 10
1.166232777809804
 20
1.341795020060175
  0
LINE
  5
FBB8E97E08A6
330
FBB8E97E09C2
100
AcDbEntity
  8
TEXT
100
AcDbLine
 10
2.681423206936302
 20
1.390753764856533
 30
0.0
 11
2.574216933549013
 21
1.390753764856533
 31
0.0
  0
LINE
  5
FBB8E97E08A7
330
FBB8E97E09C2
100
AcDbEntity
  8
TEXT
100
AcDbLine
 10
2.71045410528078
 20
1.455030459513299
 30
0.0
 11
2.575622196063721
 21
1.455030459513299
 31
0.0
  0
ARC
  5
FBB8E97E08A8
330
FBB8E97E09C2
100
AcDbEntity
  8
TEXT
100
AcDbCircle
 10
2.634936292457038
 20
1.285793210250282
 30
0.0
 40
0.0676855811441166
100
AcDbArc
 50
90.0
 51
153.7768192527749
  0
LWPOLYLINE
  5
FBB8E97E08A9
330
FBB8E97E09C2
100
AcDbEntity
  8
TEXT
100
AcDbPolyline
 90
        2
 70
     0
 43
0.0
 10
2.573184438094203
 20
1.232048371475226
 42
0.2901071551932823
 10
2.616260370961838
 20
1.188557426524788
 42
5.328517124445801
  0
ARC
  5
FBB8E97E08AD
330
FBB8E97E09C2
100
AcDbEntity
  8
TEXT
100
AcDbCircle
 10
1.929804914785552
 20
1.248349817862838
 30
0.0
 40
0.0601160179737537
100
AcDbArc
 50
180.0000000000003
 51
264.0521544866073
  0
LINE
  5
FBB8E97E08AE
330
FBB8E97E09C2
100
AcDbEntity
  8
TEXT
100
AcDbLine
 10
1.9333202704111
 20
1.489418377107437
 30
0.0
 11
1.873277665567093
 21
1.489418377107437
 31
0.0
  0
ARC
  5
FBB8E97E08AF
330
FBB8E97E09C2
100
AcDbEntity
  8
TEXT
100
AcDbCircle
 10
1.697545912668582
 20
1.372943000066797
 30
0.0
 40
0.0820874594465043
100
AcDbArc
 50
90.0
 51
270.0
  0
LWPOLYLINE
  5
FBB8E97E08B0
330
FBB8E97E09C2
100
AcDbEntity
  8
TEXT
100
AcDbPolyline
 90
        2
 70
     0
 43
0.0001332181640625
 10
1.289459579567617
 20
1.381760469278923
 10
1.279468217262927
 20
1.455030459513302
  0
LWPOLYLINE
  5
FBB8E97E08B4
330
FBB8E97E09C2
100
AcDbEntity
  8
TEXT
100
AcDbPolyline
 90
        2
 70
     0
 43
0.0001332181640625
 10
1.279468217262927
 20
1.428386826700801
 10
1.289459579567617
 20
1.368438652872676
  0
LWPOLYLINE
  5
FBB8E97E08B8
330
FBB8E97E09C2
100
AcDbEntity
  8
TEXT
100
AcDbPolyline
 90
        3
 70
     0
 43
0.0006660908203125
 10
1.432669105934804
 20
1.341795020060175
 10
1.432669105934804
 20
1.455030459513302
 10
1.319433666481678
 20
1.455030459513302
  0
LWPOLYLINE
  5
FBB8E97E08BD
330
FBB8E97E09C2
100
AcDbEntity
  8
TEXT
100
AcDbPolyline
 90
        3
 70
     0
 43
0.0006660908203125
 10
1.406025473122303
 20
1.341795020060175
 10
1.406025473122303
 20
1.428386826700801
 10
1.319433666481678
 20
1.428386826700801
  0
LWPOLYLINE
  5
FBB8E97E08C2
330
FBB8E97E09C2
100
AcDbEntity
  8
TEXT
100
AcDbPolyline
 90
        2
 70
     0
 43
0.0001332181640625
 10
1.406025473122303
 20
1.428386826700801
 10
1.346077299294179
 20
1.368438652872676
  0
LWPOLYLINE
  5
FBB8E97E08C6
330
FBB8E97E09C2
100
AcDbEntity
  8
TEXT
100
AcDbPolyline
 90
        2
 70
     0
 43
0.0001332181640625
 10
1.319433666481678
 20
1.428386826700801
 10
1.30944230417699
 20
1.368438652872676
  0
LWPOLYLINE
  5
FBB8E97E08CA
330
FBB8E97E09C2
100
AcDbEntity
  8
TEXT
100
AcDbPolyline
 90
        2
 70
     0
 43
0.0001332181640625
 10
1.319433666481678
 20
1.455030459513302
 10
1.30944230417699
 20
1.381760469278923
  0
LWPOLYLINE
  5
FBB8E97E08CE
330
FBB8E97E09C2
100
AcDbEntity
  8
TEXT
100
AcDbPolyline
 90
        2
 70
     0
 43
0.0001332181640625
 10
1.359399115700428
 20
1.331803657755486
 10
1.432669105934804
 20
1.341795020060175
  0
LWPOLYLINE
  5
FBB8E97E08D2
330
FBB8E97E09C2
100
AcDbEntity
  8
TEXT
100
AcDbPolyline
 90
        2
 70
     0
 43
0.0001332181640625
 10
1.406025473122303
 20
1.341795020060175
 10
1.346077299294179
 20
1.331803657755486
  0
LWPOLYLINE
  5
FBB8E97E08D6
330
FBB8E97E09C2
100
AcDbEntity
  8
TEXT
100
AcDbPolyline
 90
        2
 70
     0
 43
0.0001332181640625
 10
1.432669105934804
 20
1.301829570841427
 10
1.359399115700428
 20
1.311820933146112
  0
LWPOLYLINE
  5
FBB8E97E08DA
330
FBB8E97E09C2
100
AcDbEntity
  8
TEXT
100
AcDbPolyline
 90
        2
 70
     0
 43
0.0001332181640625
 10
1.406025473122303
 20
1.301829570841427
 10
1.346077299294179
 20
1.311820933146112
  0
LWPOLYLINE
  5
FBB8E97E08DE
330
FBB8E97E09C2
100
AcDbEntity
  8
TEXT
100
AcDbPolyline
 90
        2
 70
     0
 43
0.0001332181640625
 10
1.406025473122303
 20
1.2152377642008
 10
1.346077299294179
 20
1.275185938028926
  0
LWPOLYLINE
  5
FBB8E97E08E2
330
FBB8E97E09C2
100
AcDbEntity
  8
TEXT
100
AcDbPolyline
 90
        3
 70
     0
 43
0.0006660908203125
 10
1.319433666481678
 20
1.2152377642008
 10
1.406025473122303
 20
1.2152377642008
 10
1.406025473122303
 20
1.301829570841427
  0
LWPOLYLINE
  5
FBB8E97E08E7
330
FBB8E97E09C2
100
AcDbEntity
  8
TEXT
100
AcDbPolyline
 90
        3
 70
     0
 43
0.0006660908203125
 10
1.319433666481678
 20
1.188594131388299
 10
1.432669105934804
 20
1.188594131388299
 10
1.432669105934804
 20
1.301829570841427
  0
LWPOLYLINE
  5
FBB8E97E08EC
330
FBB8E97E09C2
100
AcDbEntity
  8
TEXT
100
AcDbPolyline
 90
        5
 70
     0
 43
0.0001332181640625
 10
1.289459579567617
 20
1.261864121622675
 10
1.289459579567617
 20
1.275185938028926
 10
1.252824584450429
 20
1.275185938028926
 10
1.252824584450429
 20
1.311820933146112
 10
1.239502768044179
 20
1.311820933146112
  0
LWPOLYLINE
  5
FBB8E97E08F3
330
FBB8E97E09C2
100
AcDbEntity
  8
TEXT
100
AcDbPolyline
 90
        2
 70
     0
 43
0.0006660908203125
 10
1.279468217262927
 20
1.2152377642008
 10
1.279468217262927
 20
1.188594131388299
  0
LWPOLYLINE
  5
FBB8E97E08F7
330
FBB8E97E09C2
100
AcDbEntity
  8
TEXT
100
AcDbPolyline
 90
        2
 70
     0
 43
0.0001332181640625
 10
1.279468217262927
 20
1.2152377642008
 10
1.289459579567617
 20
1.275185938028926
  0
LWPOLYLINE
  5
FBB8E97E08FB
330
FBB8E97E09C2
100
AcDbEntity
  8
TEXT
100
AcDbPolyline
 90
        2
 70
     0
 43
0.0001332181640625
 10
1.279468217262927
 20
1.188594131388299
 10
1.289459579567617
 20
1.261864121622675
  0
LWPOLYLINE
  5
FBB8E97E08FF
330
FBB8E97E09C2
100
AcDbEntity
  8
TEXT
100
AcDbPolyline
 90
        5
 70
     0
 43
0.0001332181640625
 10
1.239502768044179
 20
1.331803657755486
 10
1.252824584450427
 20
1.331803657755486
 10
1.252824584450427
 20
1.368438652872676
 10
1.289459579567617
 20
1.368438652872676
 10
1.289459579567617
 20
1.381760469278923
  0
LWPOLYLINE
  5
FBB8E97E0906
330
FBB8E97E09C2
100
AcDbEntity
  8
TEXT
100
AcDbPolyline
 90
        5
 70
     0
 43
0.0001332181640625
 10
1.30944230417699
 20
1.381760469278923
 10
1.30944230417699
 20
1.368438652872676
 10
1.346077299294179
 20
1.368438652872676
 10
1.346077299294179
 20
1.331803657755486
 10
1.359399115700428
 20
1.331803657755486
  0
LWPOLYLINE
  5
FBB8E97E090D
330
FBB8E97E09C2
100
AcDbEntity
  8
TEXT
100
AcDbPolyline
 90
        2
 70
     0
 43
0.0001332181640625
 10
1.319433666481678
 20
1.2152377642008
 10
1.30944230417699
 20
1.275185938028926
  0
LWPOLYLINE
  5
FBB8E97E0911
330
FBB8E97E09C2
100
AcDbEntity
  8
TEXT
100
AcDbPolyline
 90
        2
 70
     0
 43
0.0001332181640625
 10
1.30944230417699
 20
1.261864121622675
 10
1.319433666481678
 20
1.188594131388299
  0
LWPOLYLINE
  5
FBB8E97E0915
330
FBB8E97E09C2
100
AcDbEntity
  8
TEXT
100
AcDbPolyline
 90
        2
 70
     0
 43
0.0006660908203125
 10
1.319433666481678
 20
1.2152377642008
 10
1.319433666481678
 20
1.188594131388299
  0
LWPOLYLINE
  5
FBB8E97E0919
330
FBB8E97E09C2
100
AcDbEntity
  8
TEXT
100
AcDbPolyline
 90
        5
 70
     0
 43
0.0001332181640625
 10
1.359399115700428
 20
1.311820933146112
 10
1.346077299294179
 20
1.311820933146112
 10
1.346077299294179
 20
1.275185938028926
 10
1.30944230417699
 20
1.275185938028926
 10
1.30944230417699
 20
1.261864121622675
  0
LWPOLYLINE
  5
FBB8E97E0920
330
FBB8E97E09C2
100
AcDbEntity
  8
TEXT
100
AcDbPolyline
 90
        2
 70
     0
 43
0.0006660908203125
 10
1.406025473122303
 20
1.341795020060175
 10
1.432669105934804
 20
1.341795020060175
  0
LWPOLYLINE
  5
FBB8E97E0924
330
FBB8E97E09C2
100
AcDbEntity
  8
TEXT
100
AcDbPolyline
 90
        2
 70
     0
 43
0.0006660908203125
 10
1.406025473122303
 20
1.301829570841427
 10
1.432669105934804
 20
1.301829570841427
  0
LINE
  5
FBB8E97E0928
330
FBB8E97E09C2
100
AcDbEntity
  8
TEXT
100
AcDbLine
 10
1.702783242782829
 20
1.390753764856533
 30
0.0
 11
1.8696888968118
 21
1.390753764856533
 31
0.0
  0
LINE
  5
FBB8E97E0929
330
FBB8E97E09C2
100
AcDbEntity
  8
TEXT
100
AcDbLine
 10
1.76838337902713
 20
1.354949043245905
 30
0.0
 11
1.702783242782829
 21
1.354949043245905
 31
0.0
  0
LINE
  5
FBB8E97E092A
330
FBB8E97E09C2
100
AcDbEntity
  8
TEXT
100
AcDbLine
 10
1.615458453222077
 20
1.188557426524788
 30
0.0
 11
1.76838337902713
 21
1.188557426524788
 31
0.0
  0
LINE
  5
FBB8E97E092B
330
FBB8E97E09C2
100
AcDbEntity
  8
TEXT
100
AcDbLine
 10
1.77332375293341
 20
1.256914432858227
 30
0.0
 11
1.615458453222076
 21
1.256914432858227
 31
0.0
  0
LINE
  5
FBB8E97E092C
330
FBB8E97E09C2
100
AcDbEntity
  8
TEXT
100
AcDbLine
 10
1.697545912668581
 20
1.290855540620292
 30
0.0
 11
1.77332375293341
 21
1.290855540620292
 31
0.0
  0
ARC
  5
FBB8E97E092D
330
FBB8E97E09C2
100
AcDbEntity
  8
TEXT
100
AcDbCircle
 10
1.70278324278283
 20
1.372851404051221
 30
0.0
 40
0.017902360805315
100
AcDbArc
 50
90.0
 51
270.0
  0
LINE
  5
FBB8E97E092E
330
FBB8E97E09C2
100
AcDbEntity
  8
TEXT
100
AcDbLine
 10
1.615458453222076
 20
1.256914432858227
 30
0.0
 11
1.615458453222077
 21
1.188557426524788
 31
0.0
  0
LINE
  5
FBB8E97E092F
330
FBB8E97E09C2
100
AcDbEntity
  8
TEXT
100
AcDbLine
 10
1.8696888968118
 20
1.390753764856533
 30
0.0
 11
1.8696888968118
 21
1.248349817862838
 31
0.0
  0
ARC
  5
FBB8E97E0930
330
FBB8E97E09C2
100
AcDbEntity
  8
TEXT
100
AcDbCircle
 10
1.768383379027131
 20
1.271753234885345
 30
0.0
 40
0.0831958083605586
100
AcDbArc
 50
270.0
 51
90.0
  0
ARC
  5
FBB8E97E0931
330
FBB8E97E09C2
100
AcDbEntity
  8
TEXT
100
AcDbCircle
 10
1.773323752933411
 20
1.273884986739261
 30
0.0
 40
0.0169705538810321
100
AcDbArc
 50
270.0
 51
90.0
  0
LWPOLYLINE
  5
FBB8E97E0932
330
FBB8E97E09C2
100
AcDbEntity
  8
TEXT
100
AcDbPolyline
 90
        2
 70
     0
 43
0.0006660908203125
 10
1.279468217262927
 20
1.428386826700801
 10
1.279468217262927
 20
1.455030459513302
  0
LWPOLYLINE
  5
FBB8E97E0936
330
FBB8E97E09C2
100
AcDbEntity
  8
TEXT
100
AcDbPolyline
 90
        2
 70
     0
 43
0.0006660908203125
 10
1.319433666481678
 20
1.428386826700801
 10
1.319433666481678
 20
1.455030459513302
  0
LINE
  5
FBB8E97E093A
330
FBB8E97E09C2
100
AcDbEntity
  8
TEXT
100
AcDbLine
 10
1.873277665567093
 20
1.455030459513299
 30
0.0
 11
1.697545912668581
 21
1.455030459513299
 31
0.0
  0
LINE
  5
FBB8E97E093B
330
FBB8E97E09C2
100
AcDbEntity
  8
TEXT
100
AcDbLine
 10
1.873277665567093
 20
1.489418377107437
 30
0.0
 11
1.873277665567093
 21
1.455030459513299
 31
0.0
  0
LINE
  5
FBB8E97E093C
330
FBB8E97E09C2
100
AcDbEntity
  8
TEXT
100
AcDbLine
 10
2.063749557586946
 20
1.354158463400178
 30
0.0
 11
2.005119236555008
 21
1.455030459513299
 31
0.0
  0
LINE
  5
FBB8E97E093D
330
FBB8E97E09C2
100
AcDbEntity
  8
TEXT
100
AcDbLine
 10
2.122498120392811
 20
1.455030459513299
 30
0.0
 11
2.063749557586946
 21
1.354158463400178
 31
0.0
  0
LINE
  5
FBB8E97E093E
330
FBB8E97E09C2
100
AcDbEntity
  8
TEXT
100
AcDbLine
 10
2.219428745752552
 20
1.270945264627787
 30
0.0
 11
2.219428745752552
 21
1.523041937252109
 31
0.0
  0
LINE
  5
FBB8E97E093F
330
FBB8E97E09C2
100
AcDbEntity
  8
TEXT
100
AcDbLine
 10
2.251740599890212
 20
1.455030459513299
 30
0.0
 11
2.251740599890212
 21
1.25416625278089
 31
0.0
  0
LINE
  5
FBB8E97E0940
330
FBB8E97E09C2
100
AcDbEntity
  8
TEXT
100
AcDbLine
 10
2.251740599890212
 20
1.25416625278089
 30
0.0
 11
2.234746963005611
 21
1.25416625278089
 31
0.0
  0
LINE
  5
FBB8E97E0941
330
FBB8E97E09C2
100
AcDbEntity
  8
TEXT
100
AcDbLine
 10
2.220568319248747
 20
1.188557426524788
 30
0.0
 11
2.318571652948182
 21
1.188557426524788
 31
0.0
  0
LINE
  5
FBB8E97E0942
330
FBB8E97E09C2
100
AcDbEntity
  8
TEXT
100
AcDbLine
 10
2.054149320589991
 20
1.208515932629801
 30
0.0
 11
2.151449026683436
 21
1.372866143565069
 31
0.0
  0
ARC
  5
FBB8E97E0943
330
FBB8E97E09C2
100
AcDbEntity
  8
TEXT
100
AcDbCircle
 10
2.020105760677777
 20
1.228105148798483
 30
0.0
 40
0.0392772371940762
100
AcDbArc
 50
270.1604552698595
 51
330.0831797321295
  0
LINE
  5
FBB8E97E0944
330
FBB8E97E09C2
100
AcDbEntity
  8
TEXT
100
AcDbLine
 10
1.923575504291906
 20
1.188557426524788
 30
0.0
 11
2.0202157553669
 21
1.18882806562307
 31
0.0
  0
LWPOLYLINE
  5
FBB8E97E0945
330
FBB8E97E09C2
100
AcDbEntity
  8
TEXT
100
AcDbPolyline
 90
        6
 70
     1
 43
0.0
 10
1.966099307867056
 20
1.390753764856533
 10
1.935782713646847
 20
1.390753764856533
 10
1.935782713646847
 20
1.267642766801639
 42
0.407328721240804
 10
1.947326364808324
 20
1.255823852125253
 10
2.007948063853055
 20
1.255823852125253
 10
2.025413404260373
 20
1.288636081168732
  0
LINE
  5
FBB8E97E094D
330
FBB8E97E09C2
100
AcDbEntity
  8
TEXT
100
AcDbLine
 10
2.151449026683436
 20
1.372866143565069
 30
0.0
 11
2.151449026683436
 21
1.240108768739712
 31
0.0
  0
ARC
  5
FBB8E97E094E
330
FBB8E97E09C2
100
AcDbEntity
  8
TEXT
100
AcDbCircle
 10
2.234746963005609
 20
1.269548059024316
 30
0.0
 40
0.0153818062434269
100
AcDbArc
 50
174.7883570302258
 51
270.0
  0
LWPOLYLINE
  5
FBB8E97E094F
330
FBB8E97E09C2
100
AcDbEntity
  8
TEXT
100
AcDbPolyline
 90
        2
 70
     0
 43
0.0
 10
2.151449026683434
 20
1.240108768739716
 42
0.3318488747599744
 10
2.220568319248747
 20
1.188557426524788
 42
-6.868794160588311
  0
LINE
  5
FBB8E97E0953
330
FBB8E97E09C2
100
AcDbEntity
  8
TEXT
100
AcDbLine
 10
2.375960721937443
 20
1.188557426524788
 30
0.0
 11
2.443018768719283
 21
1.188557426524788
 31
0.0
  0
LINE
  5
FBB8E97E0954
330
FBB8E97E09C2
100
AcDbEntity
  8
TEXT
100
AcDbLine
 10
2.375960721937443
 20
1.383199975690423
 30
0.0
 11
2.375960721937443
 21
1.188557426524788
 31
0.0
  0
LINE
  5
FBB8E97E0955
330
FBB8E97E09C2
100
AcDbEntity
  8
TEXT
100
AcDbLine
 10
2.318571652948182
 20
1.390753764856533
 30
0.0
 11
2.368406932771329
 21
1.390753764856533
 31
0.0
  0
LINE
  5
FBB8E97E0956
330
FBB8E97E09C2
100
AcDbEntity
  8
TEXT
100
AcDbLine
 10
2.318571652948182
 20
1.188557426524788
 30
0.0
 11
2.318571652948182
 21
1.390753764856533
 31
0.0
  0
LWPOLYLINE
  5
FBB8E97E0957
330
FBB8E97E09C2
100
AcDbEntity
  8
TEXT
100
AcDbPolyline
 90
        2
 70
     0
 43
0.0
 10
2.368406932771327
 20
1.390753764856533
 42
-0.4142135623731017
 10
2.375960721937441
 20
1.383199975690423
 42
-0.9999999999999998
  0
LINE
  5
FBB8E97E095B
330
FBB8E97E09C2
100
AcDbEntity
  8
TEXT
100
AcDbLine
 10
2.574216933549013
 20
1.390753764856533
 30
0.0
 11
2.574216933549013
 21
1.315701358782327
 31
0.0
  0
LINE
  5
FBB8E97E095C
330
FBB8E97E09C2
100
AcDbEntity
  8
TEXT
100
AcDbLine
 10
2.443018768719283
 20
1.390753764856533
 30
0.0
 11
2.497152365640233
 21
1.390753764856533
 31
0.0
  0
LINE
  5
FBB8E97E095D
330
FBB8E97E09C2
100
AcDbEntity
  8
TEXT
100
AcDbLine
 10
2.443018768719283
 20
1.188557426524788
 30
0.0
 11
2.443018768719283
 21
1.390753764856533
 31
0.0
  0
LWPOLYLINE
  5
FBB8E97E095E
330
FBB8E97E09C2
100
AcDbEntity
  8
TEXT
100
AcDbPolyline
 90
        2
 70
     0
 43
0.0
 10
2.497152365640231
 20
1.390753764856533
 42
-0.4142135623731017
 10
2.504706154806345
 20
1.383199975690423
 42
-0.9999999999999998
  0
LWPOLYLINE
  5
FBB8E97E0962
330
FBB8E97E09C2
100
AcDbEntity
  8
TEXT
100
AcDbPolyline
 90
        4
 70
     0
 43
0.0
 10
2.504706154806345
 20
1.383199975690423
 10
2.504706154806345
 20
1.188557426524788
 10
2.573184438094203
 20
1.188557426524788
 10
2.573184438094203
 20
1.232048371475226
 42
-1.714843617202739
  0
LINE
  5
FBB8E97E0968
330
FBB8E97E09C2
100
AcDbEntity
  8
TEXT
100
AcDbLine
 10
1.9333202704111
 20
1.455030459513299
 30
0.0
 11
1.9333202704111
 21
1.489418377107437
 31
0.0
  0
LINE
  5
FBB8E97E0969
330
FBB8E97E09C2
100
AcDbEntity
  8
TEXT
100
AcDbLine
 10
2.005119236555008
 20
1.455030459513299
 30
0.0
 11
1.9333202704111
 21
1.455030459513299
 31
0.0
  0
LINE
  5
FBB8E97E096A
330
FBB8E97E09C2
100
AcDbEntity
  8
TEXT
100
AcDbLine
 10
2.152620033186187
 20
1.455030459513299
 30
0.0
 11
2.122498120392811
 21
1.455030459513299
 31
0.0
  0
LINE
  5
FBB8E97E096B
330
FBB8E97E09C2
100
AcDbEntity
  8
TEXT
100
AcDbLine
 10
2.152620033186187
 20
1.523041937252109
 30
0.0
 11
2.152620033186187
 21
1.455030459513299
 31
0.0
  0
LINE
  5
FBB8E97E096C
330
FBB8E97E09C2
100
AcDbEntity
  8
TEXT
100
AcDbLine
 10
2.219428745752552
 20
1.523041937252109
 30
0.0
 11
2.152620033186187
 21
1.523041937252109
 31
0.0
  0
LWPOLYLINE
  5
FBB8E97E096D
330
FBB8E97E09C2
100
AcDbEntity
  8
TEXT
100
AcDbPolyline
 90
        3
 70
     0
 43
0.0
 10
2.539840505350555
 20
1.455030459513302
 10
2.42154034653451
 20
1.455030459513302
 10
2.42154034653451
 20
1.427862962752406
 42
-1.960274751411753
  0
LINE
  5
FBB8E97E0972
330
FBB8E97E09C2
100
AcDbEntity
  8
TEXT
100
AcDbLine
 10
2.385758655821349
 20
1.455030459513299
 30
0.0
 11
2.251740599890212
 21
1.455030459513299
 31
0.0
  0
LWPOLYLINE
  5
FBB8E97E0973
330
FBB8E97E09C2
100
AcDbEntity
  8
TEXT
100
AcDbPolyline
 90
        2
 70
     0
 43
0.0
 10
2.385758655821349
 20
1.455030459513302
 42
-0.3328679258950098
 10
2.42154034653451
 20
1.427862962752406
 42
6.772930709997214
  0
LINE
  5
FBB8E97E0977
330
FBB8E97E09C2
100
AcDbEntity
  8
TEXT
100
AcDbLine
 10
2.575622196063721
 20
1.455030459513299
 30
0.0
 11
2.575622196063721
 21
1.426707913743655
 31
0.0
  0
LWPOLYLINE
  5
FBB8E97E0978
330
FBB8E97E09C2
100
AcDbEntity
  8
TEXT
100
AcDbPolyline
 90
        2
 70
     0
 43
0.0
 10
2.539840505350555
 20
1.455030459513302
 42
-0.3277054968067132
 10
2.57562219606372
 20
1.426707913743658
 42
6.667889725900311
  0
LINE
  5
FBB8E97E097C
330
FBB8E97E09C2
100
AcDbEntity
  8
TEXT
100
AcDbLine
 10
2.789414044155821
 20
1.349818480959871
 30
0.0
 11
2.74566327297392
 21
1.432068756956017
 31
0.0
  0
LINE
  5
FBB8E97E097D
330
FBB8E97E09C2
100
AcDbEntity
  8
TEXT
100
AcDbLine
 10
2.789414044155821
 20
1.455030459513299
 30
0.0
 11
2.789414044155821
 21
1.349818480959871
 31
0.0
  0
LINE
  5
FBB8E97E097E
330
FBB8E97E09C2
100
AcDbEntity
  8
TEXT
100
AcDbLine
 10
3.01709778309419
 20
1.379165133101761
 30
0.0
 11
3.01709778309419
 21
1.520494665280899
 31
0.0
  0
LINE
  5
FBB8E97E097F
330
FBB8E97E09C2
100
AcDbEntity
  8
TEXT
100
AcDbLine
 10
3.064195941650175
 20
1.455030459513299
 30
0.0
 11
3.01709778309419
 21
1.379165133101761
 31
0.0
  0
LINE
  5
FBB8E97E0980
330
FBB8E97E09C2
100
AcDbEntity
  8
TEXT
100
AcDbLine
 10
3.074630658414098
 20
1.345137216572325
 30
0.0
 11
3.139187774379803
 21
1.455030459513299
 31
0.0
  0
LINE
  5
FBB8E97E0981
330
FBB8E97E09C2
100
AcDbEntity
  8
TEXT
100
AcDbLine
 10
2.953262791871417
 20
1.188557426524788
 30
0.0
 11
3.017640976190038
 21
1.188557426524788
 31
0.0
  0
LWPOLYLINE
  5
FBB8E97E0982
330
FBB8E97E09C2
100
AcDbEntity
  8
TEXT
100
AcDbPolyline
 90
        2
 70
     0
 43
0.0
 10
2.793353721460859
 20
1.232048371475226
 42
-0.2901071551932486
 10
2.750277788593215
 20
1.188557426524788
 42
-5.328517124445184
  0
ARC
  5
FBB8E97E0986
330
FBB8E97E09C2
100
AcDbEntity
  8
TEXT
100
AcDbCircle
 10
2.6814232069363
 20
1.362394389856536
 30
0.0
 40
0.028359375
100
AcDbArc
 50
25.78218179591245
 51
90.0
  0
LINE
  5
FBB8E97E0987
330
FBB8E97E09C2
100
AcDbEntity
  8
TEXT
100
AcDbLine
 10
2.717224282240423
 20
1.353478791394401
 30
0.0
 11
2.706959521826859
 21
1.374729330967095
 31
0.0
  0
LINE
  5
FBB8E97E0988
330
FBB8E97E09C2
100
AcDbEntity
  8
TEXT
100
AcDbLine
 10
2.63493629245704
 20
1.353478791394401
 30
0.0
 11
2.717224282240423
 21
1.353478791394401
 31
0.0
  0
LWPOLYLINE
  5
FBB8E97E0989
330
FBB8E97E09C2
100
AcDbEntity
  8
TEXT
100
AcDbPolyline
 90
        4
 70
     1
 43
0.0
 10
2.730155323523322
 20
1.291521404508813
 10
2.641495004863464
 20
1.291521404508813
 42
0.9999999999999998
 10
2.641495004863464
 20
1.249122864004952
 10
2.730155323523322
 20
1.249122864004952
 42
1.0
  0
LWPOLYLINE
  5
FBB8E97E098F
330
FBB8E97E09C2
100
AcDbEntity
  8
TEXT
100
AcDbPolyline
 90
        2
 70
     0
 43
0.0
 10
2.616260370961838
 20
1.188557426524788
 10
2.750277788593215
 20
1.188557426524788
 42
0.9999999999999998
  0
LINE
  5
FBB8E97E0993
330
FBB8E97E09C2
100
AcDbEntity
  8
TEXT
100
AcDbLine
 10
2.876614810578854
 20
1.390753764856533
 30
0.0
 11
2.953262791871412
 21
1.390753764856533
 31
0.0
  0
LINE
  5
FBB8E97E0994
330
FBB8E97E09C2
100
AcDbEntity
  8
TEXT
100
AcDbLine
 10
2.953262791871412
 20
1.390753764856533
 30
0.0
 11
2.953262791871417
 21
1.188557426524788
 31
0.0
  0
ARC
  5
FBB8E97E0995
330
FBB8E97E09C2
100
AcDbEntity
  8
TEXT
100
AcDbCircle
 10
2.876614810578852
 20
1.365847889573871
 30
0.0
 40
0.0249058752826653
100
AcDbArc
 50
89.99971217465335
 51
179.9999999999985
  0
LINE
  5
FBB8E97E0996
330
FBB8E97E09C2
100
AcDbEntity
  8
TEXT
100
AcDbLine
 10
2.851708935296195
 20
1.188557426524788
 30
0.0
 11
2.85170893529619
 21
1.365847931956256
 31
0.0
  0
LWPOLYLINE
  5
FBB8E97E0997
330
FBB8E97E09C2
100
AcDbEntity
  8
TEXT
100
AcDbPolyline
 90
        2
 70
     0
 43
0.0
 10
2.793353721460859
 20
1.188557426524788
 10
2.851708935296193
 20
1.188557426524788
  0
LWPOLYLINE
  5
FBB8E97E099B
330
FBB8E97E09C2
100
AcDbEntity
  8
TEXT
100
AcDbPolyline
 90
        2
 70
     0
 43
0.0
 10
2.793353721460859
 20
1.232048371475226
 10
2.793353721460859
 20
1.188557426524788
  0
LINE
  5
FBB8E97E099F
330
FBB8E97E09C2
100
AcDbEntity
  8
TEXT
100
AcDbLine
 10
3.170122881777708
 20
1.188557426524788
 30
0.0
 11
3.074630658414098
 21
1.345137216572325
 31
0.0
  0
LINE
  5
FBB8E97E09A0
330
FBB8E97E09C2
100
AcDbEntity
  8
TEXT
100
AcDbLine
 10
3.093544509401502
 20
1.188557426524788
 30
0.0
 11
3.170122881777708
 21
1.188557426524788
 31
0.0
  0
LINE
  5
FBB8E97E09A1
330
FBB8E97E09C2
100
AcDbEntity
  8
TEXT
100
AcDbLine
 10
3.017640976190038
 20
1.320136995000968
 30
0.0
 11
3.093544509401502
 21
1.188557426524788
 31
0.0
  0
LINE
  5
FBB8E97E09A2
330
FBB8E97E09C2
100
AcDbEntity
  8
TEXT
100
AcDbLine
 10
3.017640976190038
 20
1.188557426524788
 30
0.0
 11
3.017640976190038
 21
1.320136995000968
 31
0.0
  0
LINE
  5
FBB8E97E09A3
330
FBB8E97E09C2
100
AcDbEntity
  8
TEXT
100
AcDbLine
 10
3.01709778309419
 20
1.520494665280899
 30
0.0
 11
2.948782904544917
 21
1.520494665280899
 31
0.0
  0
ARC
  5
FBB8E97E09A4
330
FBB8E97E09C2
100
AcDbEntity
  8
TEXT
100
AcDbCircle
 10
2.708427165503711
 20
1.413446892392396
 30
0.0
 40
0.0416329381542859
100
AcDbArc
 50
26.56974201007528
 51
87.20939649401342
  0
LINE
  5
FBB8E97E09A5
330
FBB8E97E09C2
100
AcDbEntity
  8
TEXT
100
AcDbLine
 10
2.853310950455322
 20
1.455030459513299
 30
0.0
 11
2.789414044155821
 21
1.455030459513299
 31
0.0
  0
LINE
  5
FBB8E97E09A6
330
FBB8E97E09C2
100
AcDbEntity
  8
TEXT
100
AcDbLine
 10
2.853310950455322
 20
1.427482809652424
 30
0.0
 11
2.853310950455322
 21
1.455030459513299
 31
0.0
  0
ARC
  5
FBB8E97E09A7
330
FBB8E97E09C2
100
AcDbEntity
  8
TEXT
100
AcDbCircle
 10
2.88450376751843
 20
1.423784732231034
 30
0.0
 40
0.0314112657011332
100
AcDbArc
 50
95.88484768694724
 51
173.2388340632136
  0
LINE
  5
FBB8E97E09A8
330
FBB8E97E09C2
100
AcDbEntity
  8
TEXT
100
AcDbLine
 10
2.948782904544912
 20
1.455030459513299
 30
0.0
 11
2.881283186895395
 21
1.455030459513299
 31
0.0
  0
LINE
  5
FBB8E97E09A9
330
FBB8E97E09C2
100
AcDbEntity
  8
TEXT
100
AcDbLine
 10
2.948782904544917
 20
1.520494665280899
 30
0.0
 11
2.948782904544912
 21
1.455030459513299
 31
0.0
  0
LINE
  5
FBB8E97E09AA
330
FBB8E97E09C2
100
AcDbEntity
  8
TEXT
100
AcDbLine
 10
3.139187774379803
 20
1.455030459513299
 30
0.0
 11
3.064195941650177
 21
1.455030459513299
 31
0.0
  0
ENDSEC
  0
SECTION
  2
OBJECTS
  0
DICTIONARY
  5
FBB8E97E09B6
330
0
100
AcDbDictionary
  3
ACAD_GROUP
350
FBB8E97E09B7
  3
ACAD_LAYOUT
350
FBB8E97E09DC
  3
ACAD_MLINESTYLE
350
FBB8E97E09B8
  3
ACAD_PLOTSETTINGS
350
FBB8E97E09DD
  3
ACAD_PLOTSTYLENAME
350
FBB8E97E09DA
  3
ACDBHEADERROUNDTRIPXREC
350
FBB8E97E09E7
  3
ACDBVARIABLEDICTIONARY
350
FBB8E97E09E4
  0
DICTIONARY
  5
FBB8E97E0A09
330
FBB8E97E09C2
100
AcDbDictionary
280
     1
  3
ACAD_LAYOUTSELFREF
360
FBB8E97E0A0A
  0
DICTIONARY
  5
FBB8E97E0A07
330
FBB8E97E09BF
100
AcDbDictionary
280
     1
  3
ACAD_LAYOUTSELFREF
360
FBB8E97E0A08
  0
DICTIONARY
  5
FBB8E97E09B7
102
{ACAD_REACTORS
330
FBB8E97E09B6
102
}
330
FBB8E97E09B6
100
AcDbDictionary
  0
DICTIONARY
  5
FBB8E97E09DC
102
{ACAD_REACTORS
330
FBB8E97E09B6
102
}
330
FBB8E97E09B6
100
AcDbDictionary
  0
DICTIONARY
  5
FBB8E97E09B8
102
{ACAD_REACTORS
330
FBB8E97E09B6
102
}
330
FBB8E97E09B6
100
AcDbDictionary
  3
STANDARD
350
FBB8E97E09C5
  0
DICTIONARY
  5
FBB8E97E09DD
102
{ACAD_REACTORS
330
FBB8E97E09B6
102
}
330
FBB8E97E09B6
100
AcDbDictionary
  0
ACDBDICTIONARYWDFLT
  5
FBB8E97E09DA
102
{ACAD_REACTORS
330
FBB8E97E09B6
102
}
330
FBB8E97E09B6
100
AcDbDictionary
281
     1
  3
Normal
350
FBB8E97E09DB
100
AcDbDictionaryWithDefault
340
FBB8E97E09DB
  0
DICTIONARY
  5
FBB8E97E09E7
102
{ACAD_REACTORS
330
FBB8E97E09B6
102
}
330
FBB8E97E09B6
100
AcDbDictionary
  3
CEPSNTYPE
350
FBB8E97E09F1
  3
FINGERPRINTGUID
350
FBB8E97E09F2
  3
HYPERLINKBASE
350
FBB8E97E09EA
  3
INSUNITS
350
FBB8E97E09F0
  3
LAYOUTDICT
350
FBB8E97E09EC
  3
LWETCUNION
350
FBB8E97E09EF
  3
PLOTSETDICT
350
FBB8E97E09ED
  3
PLOTSTYLNAMDICT
350
FBB8E97E09EE
  3
PSVPSCALE
350
FBB8E97E09F4
  3
PUCSBASE
350
FBB8E97E09F7
  3
PUCSORGBACK
350
FBB8E97E09FD
  3
PUCSORGBOTTOM
350
FBB8E97E09F9
  3
PUCSORGFRONT
350
FBB8E97E09FC
  3
PUCSORGLEFT
350
FBB8E97E09FA
  3
PUCSORGRIGHT
350
FBB8E97E09FB
  3
PUCSORGTOP
350
FBB8E97E09F8
  3
PUCSORTHOREF
350
FBB8E97E09F5
  3
PUCSORTHOVIEW
350
FBB8E97E09F6
  3
STYLESHEET
350
FBB8E97E09EB
  3
TSTACKALIGN
350
FBB8E97E09E8
  3
TSTACKSIZE
350
FBB8E97E09E9
  3
UCSBASE
350
FBB8E97E0A00
  3
UCSORGBACK
350
FBB8E97E0A06
  3
UCSORGBOTTOM
350
FBB8E97E0A02
  3
UCSORGFRONT
350
FBB8E97E0A05
  3
UCSORGLEFT
350
FBB8E97E0A03
  3
UCSORGRIGHT
350
FBB8E97E0A04
  3
UCSORGTOP
350
FBB8E97E0A01
  3
UCSORTHOREF
350
FBB8E97E09FE
  3
UCSORTHOVIEW
350
FBB8E97E09FF
  3
VERSIONGUID
350
FBB8E97E09F3
  0
DICTIONARY
  5
FBB8E97E09E4
102
{ACAD_REACTORS
330
FBB8E97E09B6
102
}
330
FBB8E97E09B6
100
AcDbDictionary
  3
DIMASSOC
350
FBB8E97E09E5
  0
XRECORD
  5
FBB8E97E0A0A
102
{ACAD_REACTORS
330
FBB8E97E0A09
102
}
330
FBB8E97E0A09
100
AcDbXrecord
340
FBB8E97E09C2
  0
XRECORD
  5
FBB8E97E0A08
102
{ACAD_REACTORS
330
FBB8E97E0A07
102
}
330
FBB8E97E0A07
100
AcDbXrecord
340
FBB8E97E09BF
  0
MLINESTYLE
  5
FBB8E97E09C5
102
{ACAD_REACTORS
330
FBB8E97E09B8
102
}
330
FBB8E97E09B8
100
AcDbMlineStyle
  2
STANDARD
 70
     0
  3

 62
     0
 51
90.0
 52
90.0
 71
     2
 49
0.5
 62
   256
  6
BYLAYER
 49
-0.5
 62
   256
  6
BYLAYER
  0
ACDBPLACEHOLDER
  5
FBB8E97E09DB
102
{ACAD_REACTORS
330
FBB8E97E09DA
102
}
330
FBB8E97E09DA
100
AcDbPlaceHolder
280
     0
  0
XRECORD
  5
FBB8E97E09F1
102
{ACAD_REACTORS
330
FBB8E97E09E7
102
}
330
FBB8E97E09E7
100
AcDbXrecord
 90
        0
  0
XRECORD
  5
FBB8E97E09F2
102
{ACAD_REACTORS
330
FBB8E97E09E7
102
}
330
FBB8E97E09E7
100
AcDbXrecord
  1
{D66D9BA0-8DB3-11D6-88E6-0090279574E7}
  0
XRECORD
  5
FBB8E97E09EA
102
{ACAD_REACTORS
330
FBB8E97E09E7
102
}
330
FBB8E97E09E7
100
AcDbXrecord
  1

  0
XRECORD
  5
FBB8E97E09F0
102
{ACAD_REACTORS
330
FBB8E97E09E7
102
}
330
FBB8E97E09E7
100
AcDbXrecord
 90
        0
  0
XRECORD
  5
FBB8E97E09EC
102
{ACAD_REACTORS
330
FBB8E97E09E7
102
}
330
FBB8E97E09E7
100
AcDbXrecord
340
FBB8E97E09DC
  0
XRECORD
  5
FBB8E97E09EF
102
{ACAD_REACTORS
330
FBB8E97E09E7
102
}
330
FBB8E97E09E7
100
AcDbXrecord
 90
    14877
  0
XRECORD
  5
FBB8E97E09ED
102
{ACAD_REACTORS
330
FBB8E97E09E7
102
}
330
FBB8E97E09E7
100
AcDbXrecord
340
FBB8E97E09DD
  0
XRECORD
  5
FBB8E97E09EE
102
{ACAD_REACTORS
330
FBB8E97E09E7
102
}
330
FBB8E97E09E7
100
AcDbXrecord
340
FBB8E97E09DA
  0
XRECORD
  5
FBB8E97E09F4
102
{ACAD_REACTORS
330
FBB8E97E09E7
102
}
330
FBB8E97E09E7
100
AcDbXrecord
 40
0.0
  0
XRECORD
  5
FBB8E97E09F7
102
{ACAD_REACTORS
330
FBB8E97E09E7
102
}
330
FBB8E97E09E7
100
AcDbXrecord
340
0
  0
XRECORD
  5
FBB8E97E09FD
102
{ACAD_REACTORS
330
FBB8E97E09E7
102
}
330
FBB8E97E09E7
100
AcDbXrecord
 10
0.0
 20
0.0
 30
0.0
  0
XRECORD
  5
FBB8E97E09F9
102
{ACAD_REACTORS
330
FBB8E97E09E7
102
}
330
FBB8E97E09E7
100
AcDbXrecord
 10
0.0
 20
0.0
 30
0.0
  0
XRECORD
  5
FBB8E97E09FC
102
{ACAD_REACTORS
330
FBB8E97E09E7
102
}
330
FBB8E97E09E7
100
AcDbXrecord
 10
0.0
 20
0.0
 30
0.0
  0
XRECORD
  5
FBB8E97E09FA
102
{ACAD_REACTORS
330
FBB8E97E09E7
102
}
330
FBB8E97E09E7
100
AcDbXrecord
 10
0.0
 20
0.0
 30
0.0
  0
XRECORD
  5
FBB8E97E09FB
102
{ACAD_REACTORS
330
FBB8E97E09E7
102
}
330
FBB8E97E09E7
100
AcDbXrecord
 10
0.0
 20
0.0
 30
0.0
  0
XRECORD
  5
FBB8E97E09F8
102
{ACAD_REACTORS
330
FBB8E97E09E7
102
}
330
FBB8E97E09E7
100
AcDbXrecord
 10
0.0
 20
0.0
 30
0.0
  0
XRECORD
  5
FBB8E97E09F5
102
{ACAD_REACTORS
330
FBB8E97E09E7
102
}
330
FBB8E97E09E7
100
AcDbXrecord
340
0
  0
XRECORD
  5
FBB8E97E09F6
102
{ACAD_REACTORS
330
FBB8E97E09E7
102
}
330
FBB8E97E09E7
100
AcDbXrecord
 70
     0
  0
XRECORD
  5
FBB8E97E09EB
102
{ACAD_REACTORS
330
FBB8E97E09E7
102
}
330
FBB8E97E09E7
100
AcDbXrecord
  1

  0
XRECORD
  5
FBB8E97E09E8
102
{ACAD_REACTORS
330
FBB8E97E09E7
102
}
330
FBB8E97E09E7
100
AcDbXrecord
 90
        1
  0
XRECORD
  5
FBB8E97E09E9
102
{ACAD_REACTORS
330
FBB8E97E09E7
102
}
330
FBB8E97E09E7
100
AcDbXrecord
 90
       70
  0
XRECORD
  5
FBB8E97E0A00
102
{ACAD_REACTORS
330
FBB8E97E09E7
102
}
330
FBB8E97E09E7
100
AcDbXrecord
340
0
  0
XRECORD
  5
FBB8E97E0A06
102
{ACAD_REACTORS
330
FBB8E97E09E7
102
}
330
FBB8E97E09E7
100
AcDbXrecord
 10
0.0
 20
0.0
 30
0.0
  0
XRECORD
  5
FBB8E97E0A02
102
{ACAD_REACTORS
330
FBB8E97E09E7
102
}
330
FBB8E97E09E7
100
AcDbXrecord
 10
0.0
 20
0.0
 30
0.0
  0
XRECORD
  5
FBB8E97E0A05
102
{ACAD_REACTORS
330
FBB8E97E09E7
102
}
330
FBB8E97E09E7
100
AcDbXrecord
 10
0.0
 20
0.0
 30
0.0
  0
XRECORD
  5
FBB8E97E0A03
102
{ACAD_REACTORS
330
FBB8E97E09E7
102
}
330
FBB8E97E09E7
100
AcDbXrecord
 10
0.0
 20
0.0
 30
0.0
  0
XRECORD
  5
FBB8E97E0A04
102
{ACAD_REACTORS
330
FBB8E97E09E7
102
}
330
FBB8E97E09E7
100
AcDbXrecord
 10
0.0
 20
0.0
 30
0.0
  0
XRECORD
  5
FBB8E97E0A01
102
{ACAD_REACTORS
330
FBB8E97E09E7
102
}
330
FBB8E97E09E7
100
AcDbXrecord
 10
0.0
 20
0.0
 30
0.0
  0
XRECORD
  5
FBB8E97E09FE
102
{ACAD_REACTORS
330
FBB8E97E09E7
102
}
330
FBB8E97E09E7
100
AcDbXrecord
340
0
  0
XRECORD
  5
FBB8E97E09FF
102
{ACAD_REACTORS
330
FBB8E97E09E7
102
}
330
FBB8E97E09E7
100
AcDbXrecord
 70
     0
  0
XRECORD
  5
FBB8E97E09F3
102
{ACAD_REACTORS
330
FBB8E97E09E7
102
}
330
FBB8E97E09E7
100
AcDbXrecord
  1
{D66D9BA2-8DB3-11D6-88E6-0090279574E7}
  0
DICTIONARYVAR
  5
FBB8E97E09E5
102
{ACAD_REACTORS
330
FBB8E97E09E4
102
}
330
FBB8E97E09E4
100
DictionaryVariables
280
     0
  1
1
  0
ENDSEC
  0
EOF
