  0
SECTION
  2
HEADER
  9
$ACADVER
  1
AC1014
  9
$ACADMAINTVER
 70
     9
  9
$DWGCODEPAGE
  3
ANSI_1252
  9
$INSBASE
 10
2.453125
 20
1.359375
 30
0.0
  9
$EXTMIN
 10
0.7101434207728568
 20
0.6201063959174185
 30
0.0
  9
$EXTMAX
 10
4.195362742519985
 20
2.109375
 30
0.0
  9
$LIMMIN
 10
0.0
 20
0.0
  9
$LIMMAX
 10
18.0
 20
12.0
  9
$ORTHOMODE
 70
     1
  9
$REGENMODE
 70
     1
  9
$FILLMODE
 70
     1
  9
$QTEXTMODE
 70
     0
  9
$MIRRTEXT
 70
     0
  9
$DRAGMODE
 70
     2
  9
$LTSCALE
 40
1.0
  9
$OSMODE
 70
    39
  9
$ATTMODE
 70
     1
  9
$TEXTSIZE
 40
0.125
  9
$TRACEWID
 40
0.05
  9
$TEXTSTYLE
  7
ROMANS
  9
$CLAYER
  8
0
  9
$CELTYPE
  6
BYLAYER
  9
$CECOLOR
 62
   256
  9
$CELTSCALE
 40
1.0
  9
$DELOBJ
 70
     1
  9
$DISPSILH
 70
     1
  9
$DIMSCALE
 40
1.0
  9
$DIMASZ
 40
0.125
  9
$DIMEXO
 40
0.125
  9
$DIMDLI
 40
0.375
  9
$DIMRND
 40
0.0
  9
$DIMDLE
 40
0.0
  9
$DIMEXE
 40
0.125
  9
$DIMTP
 40
0.0
  9
$DIMTM
 40
0.0
  9
$DIMTXT
 40
0.125
  9
$DIMCEN
 40
-0.125
  9
$DIMTSZ
 40
0.0
  9
$DIMTOL
 70
     0
  9
$DIMLIM
 70
     0
  9
$DIMTIH
 70
     1
  9
$DIMTOH
 70
     1
  9
$DIMSE1
 70
     0
  9
$DIMSE2
 70
     0
  9
$DIMTAD
 70
     0
  9
$DIMZIN
 70
     4
  9
$DIMBLK
  1

  9
$DIMASO
 70
     1
  9
$DIMSHO
 70
     1
  9
$DIMPOST
  1

  9
$DIMAPOST
  1

  9
$DIMALT
 70
     0
  9
$DIMALTD
 70
     2
  9
$DIMALTF
 40
25.4
  9
$DIMLFAC
 40
1.0
  9
$DIMTOFL
 70
     0
  9
$DIMTVP
 40
0.0
  9
$DIMTIX
 70
     1
  9
$DIMSOXD
 70
     0
  9
$DIMSAH
 70
     0
  9
$DIMBLK1
  1

  9
$DIMBLK2
  1

  9
$DIMSTYLE
  2
STANDARD
  9
$DIMCLRD
 70
     0
  9
$DIMCLRE
 70
     0
  9
$DIMCLRT
 70
     0
  9
$DIMTFAC
 40
1.0
  9
$DIMGAP
 40
0.09
  9
$DIMJUST
 70
     0
  9
$DIMSD1
 70
     0
  9
$DIMSD2
 70
     0
  9
$DIMTOLJ
 70
     1
  9
$DIMTZIN
 70
     4
  9
$DIMALTZ
 70
     0
  9
$DIMALTTZ
 70
     0
  9
$DIMFIT
 70
     3
  9
$DIMUPT
 70
     0
  9
$DIMUNIT
 70
     2
  9
$DIMDEC
 70
     3
  9
$DIMTDEC
 70
     3
  9
$DIMALTU
 70
     2
  9
$DIMALTTD
 70
     2
  9
$DIMTXSTY
  7
ROMANS
  9
$DIMAUNIT
 70
     0
  9
$LUNITS
 70
     2
  9
$LUPREC
 70
     3
  9
$SKETCHINC
 40
0.1
  9
$FILLETRAD
 40
0.03125
  9
$AUNITS
 70
     0
  9
$AUPREC
 70
     0
  9
$MENU
  1
ACAD
  9
$ELEVATION
 40
0.0
  9
$PELEVATION
 40
0.0
  9
$THICKNESS
 40
0.0
  9
$LIMCHECK
 70
     0
  9
$BLIPMODE
 70
     0
  9
$CHAMFERA
 40
0.0
  9
$CHAMFERB
 40
0.0
  9
$CHAMFERC
 40
0.0
  9
$CHAMFERD
 40
0.0
  9
$SKPOLY
 70
     0
  9
$TDCREATE
 40
2448993.474641435
  9
$TDUPDATE
 40
2452458.294623159
  9
$TDINDWG
 40
0.0018134144
  9
$TDUSRTIMER
 40
0.0018134144
  9
$USRTIMER
 70
     1
  9
$ANGBASE
 50
0.0
  9
$ANGDIR
 70
     0
  9
$PDMODE
 70
     0
  9
$PDSIZE
 40
0.0
  9
$PLINEWID
 40
0.0
  9
$COORDS
 70
     2
  9
$SPLFRAME
 70
     0
  9
$SPLINETYPE
 70
     6
  9
$SPLINESEGS
 70
     8
  9
$ATTDIA
 70
     0
  9
$ATTREQ
 70
     1
  9
$HANDLING
 70
 22529
  9
$HANDSEED
  5
7DDC74BF0D6D
  9
$SURFTAB1
 70
     6
  9
$SURFTAB2
 70
     6
  9
$SURFTYPE
 70
     6
  9
$SURFU
 70
     6
  9
$SURFV
 70
     6
  9
$UCSNAME
  2

  9
$UCSORG
 10
0.0
 20
0.0
 30
0.0
  9
$UCSXDIR
 10
1.0
 20
0.0
 30
0.0
  9
$UCSYDIR
 10
0.0
 20
1.0
 30
0.0
  9
$PUCSNAME
  2

  9
$PUCSORG
 10
0.0
 20
0.0
 30
0.0
  9
$PUCSXDIR
 10
1.0
 20
0.0
 30
0.0
  9
$PUCSYDIR
 10
0.0
 20
1.0
 30
0.0
  9
$USERI1
 70
     0
  9
$USERI2
 70
     0
  9
$USERI3
 70
     0
  9
$USERI4
 70
     0
  9
$USERI5
 70
     0
  9
$USERR1
 40
0.0
  9
$USERR2
 40
0.0
  9
$USERR3
 40
0.0
  9
$USERR4
 40
0.0
  9
$USERR5
 40
0.0
  9
$WORLDVIEW
 70
     1
  9
$SHADEDGE
 70
     3
  9
$SHADEDIF
 70
    70
  9
$TILEMODE
 70
     1
  9
$MAXACTVP
 70
    16
  9
$PINSBASE
 10
1.782333635861742
 20
50.00000000000001
 30
1.673780489384729
  9
$PLIMCHECK
 70
     0
  9
$PEXTMIN
 10
1.000000000000000E+20
 20
1.000000000000000E+20
 30
1.000000000000000E+20
  9
$PEXTMAX
 10
-1.000000000000000E+20
 20
-1.000000000000000E+20
 30
-1.000000000000000E+20
  9
$PLIMMIN
 10
0.0
 20
0.0
  9
$PLIMMAX
 10
12.0
 20
9.0
  9
$UNITMODE
 70
     0
  9
$VISRETAIN
 70
     0
  9
$PLINEGEN
 70
     1
  9
$PSLTSCALE
 70
     0
  9
$TREEDEPTH
 70
  3020
  9
$PICKSTYLE
 70
     1
  9
$CMLSTYLE
  2
STANDARD
  9
$CMLJUST
 70
     0
  9
$CMLSCALE
 40
1.0
  9
$PROXYGRAPHICS
 70
     1
  9
$MEASUREMENT
 70
     0
  0
ENDSEC
  0
SECTION
  2
CLASSES
  0
CLASS
  1
LWPOLYLINE
  2
AcDbPolyline
  3
AutoCAD 2000
 90
        0
280
     0
281
     1
  0
CLASS
  1
ACDBDICTIONARYWDFLT
  2
AcDbDictionaryWithDefault
  3
AutoCAD 2000
 90
        0
280
     0
281
     0
  0
CLASS
  1
ACDBPLACEHOLDER
  2
AcDbPlaceHolder
  3
AutoCAD 2000
 90
        0
280
     0
281
     0
  0
CLASS
  1
LAYOUT
  2
AcDbLayout
  3
AutoCAD 2000
 90
        0
280
     0
281
     0
  0
CLASS
  1
DICTIONARYVAR
  2
AcDbDictionaryVar
  3
AutoCAD 2000
 90
        0
280
     0
281
     0
  0
CLASS
  1
LONG_TRANSACTION
  2
AcDbLongTransaction
  3
AutoCAD 2000
 90
        0
280
     0
281
     0
  0
CLASS
  1
LWPOLYLINE
  2
AcDbPolyline
  3
AutoCAD 2000
 90
        0
280
     0
281
     1
  0
CLASS
  1
HATCH
  2
AcDbHatch
  3
AutoCAD 2000
 90
        0
280
     0
281
     1
  0
CLASS
  1
XRECORD
  2
AcDbXrecord
  3
AutoCAD 2000
 90
        0
280
     0
281
     0
  0
ENDSEC
  0
SECTION
  2
TABLES
  0
TABLE
  2
VPORT
  5
7DDC74BF0D14
330
0
100
AcDbSymbolTable
 70
     2
  0
VPORT
  5
7DDC74BF0D48
330
7DDC74BF0D14
100
AcDbSymbolTableRecord
100
AcDbViewportTableRecord
  2
*ACTIVE
 70
     0
 10
0.0
 20
0.0
 11
1.0
 21
1.0
 12
5.429171406334032
 22
1.36468508113721
 13
0.0
 23
0.0
 14
0.015625
 24
0.015625
 15
0.0
 25
0.0
 16
0.0
 26
0.0
 36
1.0
 17
0.0
 27
0.0
 37
0.0
 40
2.282647215150728
 41
4.320930232558139
 42
50.0
 43
0.0
 44
0.0
 50
0.0
 51
0.0
 71
     0
 72
  2000
 73
     1
 74
     0
 75
     1
 76
     0
 77
     0
 78
     0
  0
ENDTAB
  0
TABLE
  2
LTYPE
  5
7DDC74BF0D11
330
0
100
AcDbSymbolTable
 70
     1
  0
LTYPE
  5
7DDC74BF0D1E
330
7DDC74BF0D11
100
AcDbSymbolTableRecord
100
AcDbLinetypeTableRecord
  2
BYBLOCK
 70
     0
  3

 72
    65
 73
     0
 40
0.0
  0
LTYPE
  5
7DDC74BF0D1F
330
7DDC74BF0D11
100
AcDbSymbolTableRecord
100
AcDbLinetypeTableRecord
  2
BYLAYER
 70
     0
  3

 72
    65
 73
     0
 40
0.0
  0
LTYPE
  5
7DDC74BF0D20
330
7DDC74BF0D11
100
AcDbSymbolTableRecord
100
AcDbLinetypeTableRecord
  2
CONTINUOUS
 70
     0
  3
Solid line
 72
    65
 73
     0
 40
0.0
  0
ENDTAB
  0
TABLE
  2
LAYER
  5
7DDC74BF0D0E
330
0
100
AcDbSymbolTable
 70
     2
  0
LAYER
  5
7DDC74BF0D1B
330
7DDC74BF0D0E
100
AcDbSymbolTableRecord
100
AcDbLayerTableRecord
  2
0
 70
     0
 62
     7
  6
CONTINUOUS
  0
LAYER
  5
7DDC74BF0D2B
330
7DDC74BF0D0E
100
AcDbSymbolTableRecord
100
AcDbLayerTableRecord
  2
TEXT
 70
     0
 62
     3
  6
CONTINUOUS
  0
ENDTAB
  0
TABLE
  2
STYLE
  5
7DDC74BF0D0F
330
0
100
AcDbSymbolTable
 70
     3
  0
STYLE
  5
7DDC74BF0D1C
330
7DDC74BF0D0F
100
AcDbSymbolTableRecord
100
AcDbTextStyleTableRecord
  2
STANDARD
 70
     0
 40
0.0
 41
1.0
 50
0.0
 71
     0
 42
0.3125
  3
txt
  4

  0
STYLE
  5
7DDC74BF0D28
330
7DDC74BF0D0F
100
AcDbSymbolTableRecord
100
AcDbTextStyleTableRecord
  2
ITALICC
 70
     0
 40
0.0
 41
1.0
 50
0.0
 71
     0
 42
0.125
  3
italicc
  4

  0
STYLE
  5
7DDC74BF0D38
330
7DDC74BF0D0F
100
AcDbSymbolTableRecord
100
AcDbTextStyleTableRecord
  2
ROMANS
 70
     0
 40
0.0
 41
1.0
 50
0.0
 71
     0
 42
0.125
  3
romans.shx
  4

  0
ENDTAB
  0
TABLE
  2
VIEW
  5
7DDC74BF0D12
330
0
100
AcDbSymbolTable
 70
     0
  0
ENDTAB
  0
TABLE
  2
UCS
  5
7DDC74BF0D13
330
0
100
AcDbSymbolTable
 70
     0
  0
ENDTAB
  0
TABLE
  2
APPID
  5
7DDC74BF0D15
330
0
100
AcDbSymbolTable
 70
     1
  0
APPID
  5
7DDC74BF0D1D
330
7DDC74BF0D15
100
AcDbSymbolTableRecord
100
AcDbRegAppTableRecord
  2
ACAD
 70
     0
  0
ENDTAB
  0
TABLE
  2
DIMSTYLE
  5
7DDC74BF0D16
330
0
100
AcDbSymbolTable
 70
     1
  0
DIMSTYLE
105
7DDC74BF0D30
330
7DDC74BF0D16
100
AcDbSymbolTableRecord
100
AcDbDimStyleTableRecord
  2
STANDARD
 70
     0
  3

  4

  5

  6

  7

 40
1.0
 41
0.125
 42
0.125
 43
0.375
 44
0.125
 45
0.0
 46
0.0
 47
0.0
 48
0.0
140
0.125
141
-0.125
142
0.0
143
25.4
144
1.0
145
0.0
146
1.0
147
0.09
 71
     0
 72
     0
 73
     1
 74
     1
 75
     0
 76
     0
 77
     0
 78
     4
170
     0
171
     2
172
     0
173
     0
174
     1
175
     0
176
     0
177
     0
178
     0
270
     2
271
     3
272
     3
273
     2
274
     2
340
7DDC74BF0D38
275
     0
280
     0
281
     0
282
     0
283
     1
284
     4
285
     0
286
     0
287
     3
288
     0
  0
ENDTAB
  0
TABLE
  2
BLOCK_RECORD
  5
7DDC74BF0D0D
330
0
100
AcDbSymbolTable
 70
     0
  0
BLOCK_RECORD
  5
7DDC74BF0D24
102
{ACAD_XDICTIONARY
360
7DDC74BF0D6B
102
}
330
7DDC74BF0D0D
100
AcDbSymbolTableRecord
100
AcDbBlockTableRecord
  2
*MODEL_SPACE
  0
BLOCK_RECORD
  5
7DDC74BF0D21
102
{ACAD_XDICTIONARY
360
7DDC74BF0D69
102
}
330
7DDC74BF0D0D
100
AcDbSymbolTableRecord
100
AcDbBlockTableRecord
  2
*PAPER_SPACE
  0
ENDTAB
  0
ENDSEC
  0
SECTION
  2
BLOCKS
  0
BLOCK
  5
7DDC74BF0D2E
330
7DDC74BF0D24
100
AcDbEntity
  8
0
100
AcDbBlockBegin
  2
*MODEL_SPACE
 70
     0
 10
0.0
 20
0.0
 30
0.0
  3
*MODEL_SPACE
  1

  0
ENDBLK
  5
7DDC74BF0D2F
330
7DDC74BF0D24
100
AcDbEntity
  8
0
100
AcDbBlockEnd
  0
BLOCK
  5
7DDC74BF0D2C
330
7DDC74BF0D21
100
AcDbEntity
 67
     1
  8
0
100
AcDbBlockBegin
  2
*PAPER_SPACE
 70
     0
 10
0.0
 20
0.0
 30
0.0
  3
*PAPER_SPACE
  1

  0
ENDBLK
  5
7DDC74BF0D2D
330
7DDC74BF0D21
100
AcDbEntity
 67
     1
  8
0
100
AcDbBlockEnd
  0
ENDSEC
  0
SECTION
  2
ENTITIES
  0
LWPOLYLINE
  5
7DDC74BEF7AC
330
7DDC74BF0D24
100
AcDbEntity
  8
0
100
AcDbPolyline
 90
        8
 70
     1
 43
0.0
 10
2.890625
 20
2.109375
 10
2.953125
 20
2.109375
 10
2.953125
 20
1.359375
 10
1.953125
 20
1.359375
 10
1.953125
 20
2.109375
 10
2.015625
 20
2.109375
 10
2.015625
 20
1.421875
 10
2.890625
 20
1.421875
  0
TEXT
  5
7DDC74BF0BCF
330
7DDC74BF0D24
100
AcDbEntity
  8
TEXT
100
AcDbText
 10
1.700148809523809
 20
1.078125
 30
0.0
 40
0.125
  1
PART #110080
  7
ITALICC
 72
     1
 11
2.453125
 21
1.078125
 31
0.0
100
AcDbText
  0
TEXT
  5
7DDC74BF0BD0
330
7DDC74BF0D24
100
AcDbEntity
  8
TEXT
100
AcDbText
 10
2.86643015825032
 20
0.6312023573276249
 30
0.0
 40
0.0522247191011236
  1
Phone  1-800-328-2495
 41
1.272321428571429
 72
     5
 11
4.195362742519984
 21
0.6312023573276249
 31
0.0
100
AcDbText
  0
TEXT
  5
7DDC74BF0BD1
330
7DDC74BF0D24
100
AcDbEntity
  8
TEXT
100
AcDbText
 10
2.86643015825032
 20
0.9109776382265014
 30
0.0
 40
0.0522247191011236
  1
Stylmark  Incorporated
 41
1.221428571428573
 72
     5
 11
4.195362742519984
 21
0.9109776382265014
 31
0.0
100
AcDbText
  0
TEXT
  5
7DDC74BF0BD2
330
7DDC74BF0D24
100
AcDbEntity
  8
TEXT
100
AcDbText
 10
2.86643015825032
 20
0.8177192112602092
 30
0.0
 40
0.0522247191011236
  1
6536 Main St. N.E. * P.O. Box 32008
 41
0.8388932496075366
 72
     5
 11
4.195362742519984
 21
0.8177192112602092
 31
0.0
100
AcDbText
  0
TEXT
  5
7DDC74BF0BD3
330
7DDC74BF0D24
100
AcDbEntity
  8
TEXT
100
AcDbText
 10
2.86643015825032
 20
0.7244607842939171
 30
0.0
 40
0.0522247191011236
  1
Minneapolis, MN 55432-0008
 41
1.11444212721585
 72
     5
 11
4.195362742519984
 21
0.7244607842939171
 31
0.0
100
AcDbText
  0
LWPOLYLINE
  5
7DDC74BF0BD4
330
7DDC74BF0D24
100
AcDbEntity
  8
TEXT
100
AcDbPolyline
 90
        3
 70
     0
 43
0.0006660908203125
 10
0.710476466183013
 20
0.7448471199650597
 10
0.710476466183013
 20
0.6316116805119321
 10
0.8237119056361352
 20
0.6316116805119321
  0
LWPOLYLINE
  5
7DDC74BF0BD9
330
7DDC74BF0D24
100
AcDbEntity
  8
TEXT
100
AcDbPolyline
 90
        3
 70
     0
 43
0.0006660908203125
 10
0.7371200989955105
 20
0.7448471199650597
 10
0.7371200989955105
 20
0.6582553133244331
 10
0.8237119056361352
 20
0.6582553133244331
  0
LWPOLYLINE
  5
7DDC74BF0BDE
330
7DDC74BF0D24
100
AcDbEntity
  8
TEXT
100
AcDbPolyline
 90
        2
 70
     0
 43
0.0001332181640625
 10
0.7837464564173873
 20
0.754838482269745
 10
0.710476466183013
 20
0.7448471199650597
  0
LWPOLYLINE
  5
7DDC74BF0BE2
330
7DDC74BF0D24
100
AcDbEntity
  8
TEXT
100
AcDbPolyline
 90
        2
 70
     0
 43
0.0001332181640625
 10
0.7371200989955105
 20
0.7448471199650597
 10
0.7970682728236378
 20
0.754838482269745
  0
LWPOLYLINE
  5
7DDC74BF0BE6
330
7DDC74BF0D24
100
AcDbEntity
  8
TEXT
100
AcDbPolyline
 90
        2
 70
     0
 43
0.0001332181640625
 10
0.7371200989955105
 20
0.6582553133244331
 10
0.7970682728236378
 20
0.7182034871525587
  0
LWPOLYLINE
  5
7DDC74BF0BEA
330
7DDC74BF0D24
100
AcDbEntity
  8
TEXT
100
AcDbPolyline
 90
        3
 70
     0
 43
0.0006660908203125
 10
0.8237119056361352
 20
0.8980480086369354
 10
0.710476466183013
 20
0.8980480086369354
 10
0.710476466183013
 20
0.7848125691838077
  0
LWPOLYLINE
  5
7DDC74BF0BEF
330
7DDC74BF0D24
100
AcDbEntity
  8
TEXT
100
AcDbPolyline
 90
        3
 70
     0
 43
0.0006660908203125
 10
0.8237119056361352
 20
0.8714043758244343
 10
0.7371200989955105
 20
0.8714043758244343
 10
0.7371200989955105
 20
0.7848125691838077
  0
LWPOLYLINE
  5
7DDC74BF0BF4
330
7DDC74BF0D24
100
AcDbEntity
  8
TEXT
100
AcDbPolyline
 90
        2
 70
     0
 43
0.0001332181640625
 10
0.7371200989955105
 20
0.8714043758244343
 10
0.7970682728236361
 20
0.8114562019963088
  0
LWPOLYLINE
  5
7DDC74BF0BF8
330
7DDC74BF0D24
100
AcDbEntity
  8
TEXT
100
AcDbPolyline
 90
        2
 70
     0
 43
0.0001332181640625
 10
0.7371200989955105
 20
0.7848125691838077
 10
0.7970682728236361
 20
0.774821206879119
  0
LWPOLYLINE
  5
7DDC74BF0BFC
330
7DDC74BF0D24
100
AcDbEntity
  8
TEXT
100
AcDbPolyline
 90
        2
 70
     0
 43
0.0001332181640625
 10
0.710476466183013
 20
0.7848125691838077
 10
0.7837464564173873
 20
0.774821206879119
  0
LWPOLYLINE
  5
7DDC74BF0C00
330
7DDC74BF0D24
100
AcDbEntity
  8
TEXT
100
AcDbPolyline
 90
        2
 70
     0
 43
0.0006660908203125
 10
0.7371200989955105
 20
0.7448471199650597
 10
0.710476466183013
 20
0.7448471199650597
  0
LWPOLYLINE
  5
7DDC74BF0C04
330
7DDC74BF0D24
100
AcDbEntity
  8
TEXT
100
AcDbPolyline
 90
        2
 70
     0
 43
0.0006660908203125
 10
0.7371200989955105
 20
0.7848125691838077
 10
0.710476466183013
 20
0.7848125691838077
  0
LINE
  5
7DDC74BF0C08
330
7DDC74BF0D24
100
AcDbEntity
  8
TEXT
100
AcDbLine
 10
2.22566689530951
 20
0.8337713139801664
 30
0.0
 11
2.118460621922221
 21
0.8337713139801664
 31
0.0
  0
LINE
  5
7DDC74BF0C09
330
7DDC74BF0D24
100
AcDbEntity
  8
TEXT
100
AcDbLine
 10
2.254697793653988
 20
0.8980480086369318
 30
0.0
 11
2.119865884436929
 21
0.8980480086369318
 31
0.0
  0
ARC
  5
7DDC74BF0C0A
330
7DDC74BF0D24
100
AcDbEntity
  8
TEXT
100
AcDbCircle
 10
2.179179980830246
 20
0.7288107593739155
 30
0.0
 40
0.0676855811441166
100
AcDbArc
 50
90.0
 51
153.7768192527749
  0
LWPOLYLINE
  5
7DDC74BF0C0B
330
7DDC74BF0D24
100
AcDbEntity
  8
TEXT
100
AcDbPolyline
 90
        2
 70
     0
 43
0.0
 10
2.117428126467411
 20
0.675065920598859
 42
0.2901071551932823
 10
2.160504059335046
 20
0.6315749756484208
 42
5.328517124445801
  0
ARC
  5
7DDC74BF0C0F
330
7DDC74BF0D24
100
AcDbEntity
  8
TEXT
100
AcDbCircle
 10
1.47404860315876
 20
0.6913673669864706
 30
0.0
 40
0.0601160179737537
100
AcDbArc
 50
180.0000000000003
 51
264.0521544866073
  0
LINE
  5
7DDC74BF0C10
330
7DDC74BF0D24
100
AcDbEntity
  8
TEXT
100
AcDbLine
 10
1.477563958784308
 20
0.93243592623107
 30
0.0
 11
1.417521353940301
 21
0.93243592623107
 31
0.0
  0
ARC
  5
7DDC74BF0C11
330
7DDC74BF0D24
100
AcDbEntity
  8
TEXT
100
AcDbCircle
 10
1.24178960104179
 20
0.8159605491904301
 30
0.0
 40
0.0820874594465043
100
AcDbArc
 50
90.0
 51
270.0
  0
LWPOLYLINE
  5
7DDC74BF0C12
330
7DDC74BF0D24
100
AcDbEntity
  8
TEXT
100
AcDbPolyline
 90
        2
 70
     0
 43
0.0001332181640625
 10
0.8337032679408258
 20
0.8247780184025558
 10
0.8237119056361352
 20
0.8980480086369354
  0
LWPOLYLINE
  5
7DDC74BF0C16
330
7DDC74BF0D24
100
AcDbEntity
  8
TEXT
100
AcDbPolyline
 90
        2
 70
     0
 43
0.0001332181640625
 10
0.8237119056361352
 20
0.8714043758244343
 10
0.8337032679408258
 20
0.8114562019963088
  0
LWPOLYLINE
  5
7DDC74BF0C1A
330
7DDC74BF0D24
100
AcDbEntity
  8
TEXT
100
AcDbPolyline
 90
        3
 70
     0
 43
0.0006660908203125
 10
0.9769127943080126
 20
0.7848125691838077
 10
0.9769127943080126
 20
0.8980480086369354
 10
0.8636773548548868
 20
0.8980480086369354
  0
LWPOLYLINE
  5
7DDC74BF0C1F
330
7DDC74BF0D24
100
AcDbEntity
  8
TEXT
100
AcDbPolyline
 90
        3
 70
     0
 43
0.0006660908203125
 10
0.9502691614955116
 20
0.7848125691838077
 10
0.9502691614955116
 20
0.8714043758244343
 10
0.8636773548548868
 20
0.8714043758244343
  0
LWPOLYLINE
  5
7DDC74BF0C24
330
7DDC74BF0D24
100
AcDbEntity
  8
TEXT
100
AcDbPolyline
 90
        2
 70
     0
 43
0.0001332181640625
 10
0.9502691614955116
 20
0.8714043758244343
 10
0.8903209876673878
 20
0.8114562019963088
  0
LWPOLYLINE
  5
7DDC74BF0C28
330
7DDC74BF0D24
100
AcDbEntity
  8
TEXT
100
AcDbPolyline
 90
        2
 70
     0
 43
0.0001332181640625
 10
0.8636773548548868
 20
0.8714043758244343
 10
0.853685992550198
 20
0.8114562019963088
  0
LWPOLYLINE
  5
7DDC74BF0C2C
330
7DDC74BF0D24
100
AcDbEntity
  8
TEXT
100
AcDbPolyline
 90
        2
 70
     0
 43
0.0001332181640625
 10
0.8636773548548868
 20
0.8980480086369354
 10
0.853685992550198
 20
0.8247780184025558
  0
LWPOLYLINE
  5
7DDC74BF0C30
330
7DDC74BF0D24
100
AcDbEntity
  8
TEXT
100
AcDbPolyline
 90
        2
 70
     0
 43
0.0001332181640625
 10
0.9036428040736366
 20
0.774821206879119
 10
0.9769127943080126
 20
0.7848125691838077
  0
LWPOLYLINE
  5
7DDC74BF0C34
330
7DDC74BF0D24
100
AcDbEntity
  8
TEXT
100
AcDbPolyline
 90
        2
 70
     0
 43
0.0001332181640625
 10
0.9502691614955116
 20
0.7848125691838077
 10
0.8903209876673878
 20
0.774821206879119
  0
LWPOLYLINE
  5
7DDC74BF0C38
330
7DDC74BF0D24
100
AcDbEntity
  8
TEXT
100
AcDbPolyline
 90
        2
 70
     0
 43
0.0001332181640625
 10
0.9769127943080126
 20
0.7448471199650597
 10
0.9036428040736366
 20
0.754838482269745
  0
LWPOLYLINE
  5
7DDC74BF0C3C
330
7DDC74BF0D24
100
AcDbEntity
  8
TEXT
100
AcDbPolyline
 90
        2
 70
     0
 43
0.0001332181640625
 10
0.9502691614955116
 20
0.7448471199650597
 10
0.8903209876673878
 20
0.754838482269745
  0
LWPOLYLINE
  5
7DDC74BF0C40
330
7DDC74BF0D24
100
AcDbEntity
  8
TEXT
100
AcDbPolyline
 90
        2
 70
     0
 43
0.0001332181640625
 10
0.9502691614955116
 20
0.6582553133244331
 10
0.8903209876673878
 20
0.7182034871525587
  0
LWPOLYLINE
  5
7DDC74BF0C44
330
7DDC74BF0D24
100
AcDbEntity
  8
TEXT
100
AcDbPolyline
 90
        3
 70
     0
 43
0.0006660908203125
 10
0.8636773548548868
 20
0.6582553133244331
 10
0.9502691614955116
 20
0.6582553133244331
 10
0.9502691614955116
 20
0.7448471199650597
  0
LWPOLYLINE
  5
7DDC74BF0C49
330
7DDC74BF0D24
100
AcDbEntity
  8
TEXT
100
AcDbPolyline
 90
        3
 70
     0
 43
0.0006660908203125
 10
0.8636773548548868
 20
0.6316116805119321
 10
0.9769127943080126
 20
0.6316116805119321
 10
0.9769127943080126
 20
0.7448471199650597
  0
LWPOLYLINE
  5
7DDC74BF0C4E
330
7DDC74BF0D24
100
AcDbEntity
  8
TEXT
100
AcDbPolyline
 90
        5
 70
     0
 43
0.0001332181640625
 10
0.8337032679408258
 20
0.7048816707463082
 10
0.8337032679408258
 20
0.7182034871525587
 10
0.7970682728236378
 20
0.7182034871525587
 10
0.7970682728236378
 20
0.754838482269745
 10
0.7837464564173873
 20
0.754838482269745
  0
LWPOLYLINE
  5
7DDC74BF0C55
330
7DDC74BF0D24
100
AcDbEntity
  8
TEXT
100
AcDbPolyline
 90
        2
 70
     0
 43
0.0006660908203125
 10
0.8237119056361352
 20
0.6582553133244331
 10
0.8237119056361352
 20
0.6316116805119321
  0
LWPOLYLINE
  5
7DDC74BF0C59
330
7DDC74BF0D24
100
AcDbEntity
  8
TEXT
100
AcDbPolyline
 90
        2
 70
     0
 43
0.0001332181640625
 10
0.8237119056361352
 20
0.6582553133244331
 10
0.8337032679408258
 20
0.7182034871525587
  0
LWPOLYLINE
  5
7DDC74BF0C5D
330
7DDC74BF0D24
100
AcDbEntity
  8
TEXT
100
AcDbPolyline
 90
        2
 70
     0
 43
0.0001332181640625
 10
0.8237119056361352
 20
0.6316116805119321
 10
0.8337032679408258
 20
0.7048816707463082
  0
LWPOLYLINE
  5
7DDC74BF0C61
330
7DDC74BF0D24
100
AcDbEntity
  8
TEXT
100
AcDbPolyline
 90
        5
 70
     0
 43
0.0001332181640625
 10
0.7837464564173873
 20
0.774821206879119
 10
0.7970682728236361
 20
0.774821206879119
 10
0.7970682728236361
 20
0.8114562019963088
 10
0.8337032679408258
 20
0.8114562019963088
 10
0.8337032679408258
 20
0.8247780184025558
  0
LWPOLYLINE
  5
7DDC74BF0C68
330
7DDC74BF0D24
100
AcDbEntity
  8
TEXT
100
AcDbPolyline
 90
        5
 70
     0
 43
0.0001332181640625
 10
0.853685992550198
 20
0.8247780184025558
 10
0.853685992550198
 20
0.8114562019963088
 10
0.8903209876673878
 20
0.8114562019963088
 10
0.8903209876673878
 20
0.774821206879119
 10
0.9036428040736366
 20
0.774821206879119
  0
LWPOLYLINE
  5
7DDC74BF0C6F
330
7DDC74BF0D24
100
AcDbEntity
  8
TEXT
100
AcDbPolyline
 90
        2
 70
     0
 43
0.0001332181640625
 10
0.8636773548548868
 20
0.6582553133244331
 10
0.853685992550198
 20
0.7182034871525587
  0
LWPOLYLINE
  5
7DDC74BF0C73
330
7DDC74BF0D24
100
AcDbEntity
  8
TEXT
100
AcDbPolyline
 90
        2
 70
     0
 43
0.0001332181640625
 10
0.853685992550198
 20
0.7048816707463082
 10
0.8636773548548868
 20
0.6316116805119321
  0
LWPOLYLINE
  5
7DDC74BF0C77
330
7DDC74BF0D24
100
AcDbEntity
  8
TEXT
100
AcDbPolyline
 90
        2
 70
     0
 43
0.0006660908203125
 10
0.8636773548548868
 20
0.6582553133244331
 10
0.8636773548548868
 20
0.6316116805119321
  0
LWPOLYLINE
  5
7DDC74BF0C7B
330
7DDC74BF0D24
100
AcDbEntity
  8
TEXT
100
AcDbPolyline
 90
        5
 70
     0
 43
0.0001332181640625
 10
0.9036428040736366
 20
0.754838482269745
 10
0.8903209876673878
 20
0.754838482269745
 10
0.8903209876673878
 20
0.7182034871525587
 10
0.853685992550198
 20
0.7182034871525587
 10
0.853685992550198
 20
0.7048816707463082
  0
LWPOLYLINE
  5
7DDC74BF0C82
330
7DDC74BF0D24
100
AcDbEntity
  8
TEXT
100
AcDbPolyline
 90
        2
 70
     0
 43
0.0006660908203125
 10
0.9502691614955116
 20
0.7848125691838077
 10
0.9769127943080126
 20
0.7848125691838077
  0
LWPOLYLINE
  5
7DDC74BF0C86
330
7DDC74BF0D24
100
AcDbEntity
  8
TEXT
100
AcDbPolyline
 90
        2
 70
     0
 43
0.0006660908203125
 10
0.9502691614955116
 20
0.7448471199650597
 10
0.9769127943080126
 20
0.7448471199650597
  0
LINE
  5
7DDC74BF0C8A
330
7DDC74BF0D24
100
AcDbEntity
  8
TEXT
100
AcDbLine
 10
1.247026931156037
 20
0.8337713139801664
 30
0.0
 11
1.413932585185008
 21
0.8337713139801664
 31
0.0
  0
LINE
  5
7DDC74BF0C8B
330
7DDC74BF0D24
100
AcDbEntity
  8
TEXT
100
AcDbLine
 10
1.312627067400338
 20
0.7979665923695385
 30
0.0
 11
1.247026931156037
 21
0.7979665923695385
 31
0.0
  0
LINE
  5
7DDC74BF0C8C
330
7DDC74BF0D24
100
AcDbEntity
  8
TEXT
100
AcDbLine
 10
1.159702141595285
 20
0.6315749756484208
 30
0.0
 11
1.312627067400338
 21
0.6315749756484208
 31
0.0
  0
LINE
  5
7DDC74BF0C8D
330
7DDC74BF0D24
100
AcDbEntity
  8
TEXT
100
AcDbLine
 10
1.317567441306618
 20
0.6999319819818602
 30
0.0
 11
1.159702141595284
 21
0.6999319819818602
 31
0.0
  0
LINE
  5
7DDC74BF0C8E
330
7DDC74BF0D24
100
AcDbEntity
  8
TEXT
100
AcDbLine
 10
1.241789601041789
 20
0.7338730897439248
 30
0.0
 11
1.317567441306618
 21
0.7338730897439248
 31
0.0
  0
ARC
  5
7DDC74BF0C8F
330
7DDC74BF0D24
100
AcDbEntity
  8
TEXT
100
AcDbCircle
 10
1.247026931156038
 20
0.8158689531748542
 30
0.0
 40
0.017902360805315
100
AcDbArc
 50
90.0
 51
270.0
  0
LINE
  5
7DDC74BF0C90
330
7DDC74BF0D24
100
AcDbEntity
  8
TEXT
100
AcDbLine
 10
1.159702141595284
 20
0.6999319819818602
 30
0.0
 11
1.159702141595285
 21
0.6315749756484208
 31
0.0
  0
LINE
  5
7DDC74BF0C91
330
7DDC74BF0D24
100
AcDbEntity
  8
TEXT
100
AcDbLine
 10
1.413932585185008
 20
0.8337713139801664
 30
0.0
 11
1.413932585185008
 21
0.6913673669864706
 31
0.0
  0
ARC
  5
7DDC74BF0C92
330
7DDC74BF0D24
100
AcDbEntity
  8
TEXT
100
AcDbCircle
 10
1.312627067400339
 20
0.7147707840089779
 30
0.0
 40
0.0831958083605586
100
AcDbArc
 50
270.0
 51
90.0
  0
ARC
  5
7DDC74BF0C93
330
7DDC74BF0D24
100
AcDbEntity
  8
TEXT
100
AcDbCircle
 10
1.317567441306619
 20
0.7169025358628942
 30
0.0
 40
0.0169705538810321
100
AcDbArc
 50
270.0
 51
90.0
  0
LWPOLYLINE
  5
7DDC74BF0C94
330
7DDC74BF0D24
100
AcDbEntity
  8
TEXT
100
AcDbPolyline
 90
        2
 70
     0
 43
0.0006660908203125
 10
0.8237119056361352
 20
0.8714043758244343
 10
0.8237119056361352
 20
0.8980480086369354
  0
LWPOLYLINE
  5
7DDC74BF0C98
330
7DDC74BF0D24
100
AcDbEntity
  8
TEXT
100
AcDbPolyline
 90
        2
 70
     0
 43
0.0006660908203125
 10
0.8636773548548868
 20
0.8714043758244343
 10
0.8636773548548868
 20
0.8980480086369354
  0
LINE
  5
7DDC74BF0C9C
330
7DDC74BF0D24
100
AcDbEntity
  8
TEXT
100
AcDbLine
 10
1.417521353940301
 20
0.8980480086369318
 30
0.0
 11
1.241789601041789
 21
0.8980480086369318
 31
0.0
  0
LINE
  5
7DDC74BF0C9D
330
7DDC74BF0D24
100
AcDbEntity
  8
TEXT
100
AcDbLine
 10
1.417521353940301
 20
0.93243592623107
 30
0.0
 11
1.417521353940301
 21
0.8980480086369318
 31
0.0
  0
LINE
  5
7DDC74BF0C9E
330
7DDC74BF0D24
100
AcDbEntity
  8
TEXT
100
AcDbLine
 10
1.607993245960154
 20
0.7971760125238112
 30
0.0
 11
1.549362924928216
 21
0.8980480086369318
 31
0.0
  0
LINE
  5
7DDC74BF0C9F
330
7DDC74BF0D24
100
AcDbEntity
  8
TEXT
100
AcDbLine
 10
1.666741808766019
 20
0.8980480086369318
 30
0.0
 11
1.607993245960154
 21
0.7971760125238112
 31
0.0
  0
LINE
  5
7DDC74BF0CA0
330
7DDC74BF0D24
100
AcDbEntity
  8
TEXT
100
AcDbLine
 10
1.76367243412576
 20
0.7139628137514201
 30
0.0
 11
1.76367243412576
 21
0.9660594863757424
 31
0.0
  0
LINE
  5
7DDC74BF0CA1
330
7DDC74BF0D24
100
AcDbEntity
  8
TEXT
100
AcDbLine
 10
1.79598428826342
 20
0.8980480086369318
 30
0.0
 11
1.79598428826342
 21
0.6971838019045236
 31
0.0
  0
LINE
  5
7DDC74BF0CA2
330
7DDC74BF0D24
100
AcDbEntity
  8
TEXT
100
AcDbLine
 10
1.79598428826342
 20
0.6971838019045236
 30
0.0
 11
1.778990651378819
 21
0.6971838019045236
 31
0.0
  0
LINE
  5
7DDC74BF0CA3
330
7DDC74BF0D24
100
AcDbEntity
  8
TEXT
100
AcDbLine
 10
1.764812007621955
 20
0.6315749756484208
 30
0.0
 11
1.86281534132139
 21
0.6315749756484208
 31
0.0
  0
LINE
  5
7DDC74BF0CA4
330
7DDC74BF0D24
100
AcDbEntity
  8
TEXT
100
AcDbLine
 10
1.598393008963199
 20
0.6515334817534338
 30
0.0
 11
1.695692715056644
 21
0.8158836926887019
 31
0.0
  0
ARC
  5
7DDC74BF0CA5
330
7DDC74BF0D24
100
AcDbEntity
  8
TEXT
100
AcDbCircle
 10
1.564349449050985
 20
0.6711226979221166
 30
0.0
 40
0.0392772371940762
100
AcDbArc
 50
270.1604552698595
 51
330.0831797321295
  0
LINE
  5
7DDC74BF0CA6
330
7DDC74BF0D24
100
AcDbEntity
  8
TEXT
100
AcDbLine
 10
1.467819192665114
 20
0.6315749756484208
 30
0.0
 11
1.564459443740108
 21
0.6318456147467031
 31
0.0
  0
LWPOLYLINE
  5
7DDC74BF0CA7
330
7DDC74BF0D24
100
AcDbEntity
  8
TEXT
100
AcDbPolyline
 90
        6
 70
     1
 43
0.0
 10
1.510342996240264
 20
0.8337713139801664
 10
1.480026402020055
 20
0.8337713139801664
 10
1.480026402020055
 20
0.7106603159252721
 42
0.407328721240804
 10
1.491570053181532
 20
0.698841401248886
 10
1.552191752226263
 20
0.698841401248886
 10
1.569657092633581
 20
0.7316536302923651
  0
LINE
  5
7DDC74BF0CAF
330
7DDC74BF0D24
100
AcDbEntity
  8
TEXT
100
AcDbLine
 10
1.695692715056644
 20
0.8158836926887019
 30
0.0
 11
1.695692715056644
 21
0.6831263178633456
 31
0.0
  0
ARC
  5
7DDC74BF0CB0
330
7DDC74BF0D24
100
AcDbEntity
  8
TEXT
100
AcDbCircle
 10
1.778990651378817
 20
0.712565608147949
 30
0.0
 40
0.0153818062434269
100
AcDbArc
 50
174.7883570302258
 51
270.0
  0
LWPOLYLINE
  5
7DDC74BF0CB1
330
7DDC74BF0D24
100
AcDbEntity
  8
TEXT
100
AcDbPolyline
 90
        2
 70
     0
 43
0.0
 10
1.695692715056642
 20
0.6831263178633491
 42
0.3318488747599744
 10
1.764812007621955
 20
0.6315749756484208
 42
-6.868794160588311
  0
LINE
  5
7DDC74BF0CB5
330
7DDC74BF0D24
100
AcDbEntity
  8
TEXT
100
AcDbLine
 10
1.920204410310651
 20
0.6315749756484208
 30
0.0
 11
1.987262457092491
 21
0.6315749756484208
 31
0.0
  0
LINE
  5
7DDC74BF0CB6
330
7DDC74BF0D24
100
AcDbEntity
  8
TEXT
100
AcDbLine
 10
1.920204410310651
 20
0.8262175248140565
 30
0.0
 11
1.920204410310651
 21
0.6315749756484208
 31
0.0
  0
LINE
  5
7DDC74BF0CB7
330
7DDC74BF0D24
100
AcDbEntity
  8
TEXT
100
AcDbLine
 10
1.86281534132139
 20
0.8337713139801664
 30
0.0
 11
1.912650621144537
 21
0.8337713139801664
 31
0.0
  0
LINE
  5
7DDC74BF0CB8
330
7DDC74BF0D24
100
AcDbEntity
  8
TEXT
100
AcDbLine
 10
1.86281534132139
 20
0.6315749756484208
 30
0.0
 11
1.86281534132139
 21
0.8337713139801664
 31
0.0
  0
LWPOLYLINE
  5
7DDC74BF0CB9
330
7DDC74BF0D24
100
AcDbEntity
  8
TEXT
100
AcDbPolyline
 90
        2
 70
     0
 43
0.0
 10
1.912650621144535
 20
0.8337713139801664
 42
-0.4142135623731017
 10
1.920204410310649
 20
0.8262175248140565
 42
-0.9999999999999998
  0
LINE
  5
7DDC74BF0CBD
330
7DDC74BF0D24
100
AcDbEntity
  8
TEXT
100
AcDbLine
 10
2.118460621922221
 20
0.8337713139801664
 30
0.0
 11
2.118460621922221
 21
0.7587189079059598
 31
0.0
  0
LINE
  5
7DDC74BF0CBE
330
7DDC74BF0D24
100
AcDbEntity
  8
TEXT
100
AcDbLine
 10
1.987262457092491
 20
0.8337713139801664
 30
0.0
 11
2.041396054013441
 21
0.8337713139801664
 31
0.0
  0
LINE
  5
7DDC74BF0CBF
330
7DDC74BF0D24
100
AcDbEntity
  8
TEXT
100
AcDbLine
 10
1.987262457092491
 20
0.6315749756484208
 30
0.0
 11
1.987262457092491
 21
0.8337713139801664
 31
0.0
  0
LWPOLYLINE
  5
7DDC74BF0CC0
330
7DDC74BF0D24
100
AcDbEntity
  8
TEXT
100
AcDbPolyline
 90
        2
 70
     0
 43
0.0
 10
2.041396054013439
 20
0.8337713139801664
 42
-0.4142135623731017
 10
2.048949843179553
 20
0.8262175248140565
 42
-0.9999999999999998
  0
LWPOLYLINE
  5
7DDC74BF0CC4
330
7DDC74BF0D24
100
AcDbEntity
  8
TEXT
100
AcDbPolyline
 90
        4
 70
     0
 43
0.0
 10
2.048949843179553
 20
0.8262175248140565
 10
2.048949843179553
 20
0.6315749756484208
 10
2.117428126467411
 20
0.6315749756484208
 10
2.117428126467411
 20
0.675065920598859
 42
-1.714843617202739
  0
LINE
  5
7DDC74BF0CCA
330
7DDC74BF0D24
100
AcDbEntity
  8
TEXT
100
AcDbLine
 10
1.477563958784308
 20
0.8980480086369318
 30
0.0
 11
1.477563958784308
 21
0.93243592623107
 31
0.0
  0
LINE
  5
7DDC74BF0CCB
330
7DDC74BF0D24
100
AcDbEntity
  8
TEXT
100
AcDbLine
 10
1.549362924928216
 20
0.8980480086369318
 30
0.0
 11
1.477563958784308
 21
0.8980480086369318
 31
0.0
  0
LINE
  5
7DDC74BF0CCC
330
7DDC74BF0D24
100
AcDbEntity
  8
TEXT
100
AcDbLine
 10
1.696863721559395
 20
0.8980480086369318
 30
0.0
 11
1.666741808766019
 21
0.8980480086369318
 31
0.0
  0
LINE
  5
7DDC74BF0CCD
330
7DDC74BF0D24
100
AcDbEntity
  8
TEXT
100
AcDbLine
 10
1.696863721559395
 20
0.9660594863757424
 30
0.0
 11
1.696863721559395
 21
0.8980480086369318
 31
0.0
  0
LINE
  5
7DDC74BF0CCE
330
7DDC74BF0D24
100
AcDbEntity
  8
TEXT
100
AcDbLine
 10
1.76367243412576
 20
0.9660594863757424
 30
0.0
 11
1.696863721559395
 21
0.9660594863757424
 31
0.0
  0
LWPOLYLINE
  5
7DDC74BF0CCF
330
7DDC74BF0D24
100
AcDbEntity
  8
TEXT
100
AcDbPolyline
 90
        3
 70
     0
 43
0.0
 10
2.084084193723763
 20
0.8980480086369354
 10
1.965784034907718
 20
0.8980480086369354
 10
1.965784034907718
 20
0.8708805118760395
 42
-1.960274751411753
  0
LINE
  5
7DDC74BF0CD4
330
7DDC74BF0D24
100
AcDbEntity
  8
TEXT
100
AcDbLine
 10
1.930002344194557
 20
0.8980480086369318
 30
0.0
 11
1.79598428826342
 21
0.8980480086369318
 31
0.0
  0
LWPOLYLINE
  5
7DDC74BF0CD5
330
7DDC74BF0D24
100
AcDbEntity
  8
TEXT
100
AcDbPolyline
 90
        2
 70
     0
 43
0.0
 10
1.930002344194557
 20
0.8980480086369354
 42
-0.3328679258950098
 10
1.965784034907718
 20
0.8708805118760395
 42
6.772930709997214
  0
LINE
  5
7DDC74BF0CD9
330
7DDC74BF0D24
100
AcDbEntity
  8
TEXT
100
AcDbLine
 10
2.119865884436929
 20
0.8980480086369318
 30
0.0
 11
2.119865884436929
 21
0.869725462867288
 31
0.0
  0
LWPOLYLINE
  5
7DDC74BF0CDA
330
7DDC74BF0D24
100
AcDbEntity
  8
TEXT
100
AcDbPolyline
 90
        2
 70
     0
 43
0.0
 10
2.084084193723763
 20
0.8980480086369354
 42
-0.3277054968067132
 10
2.119865884436928
 20
0.8697254628672915
 42
6.667889725900311
  0
LINE
  5
7DDC74BF0CDE
330
7DDC74BF0D24
100
AcDbEntity
  8
TEXT
100
AcDbLine
 10
2.333657732529029
 20
0.7928360300835045
 30
0.0
 11
2.289906961347128
 21
0.8750863060796497
 31
0.0
  0
LINE
  5
7DDC74BF0CDF
330
7DDC74BF0D24
100
AcDbEntity
  8
TEXT
100
AcDbLine
 10
2.333657732529029
 20
0.8980480086369318
 30
0.0
 11
2.333657732529029
 21
0.7928360300835045
 31
0.0
  0
LINE
  5
7DDC74BF0CE0
330
7DDC74BF0D24
100
AcDbEntity
  8
TEXT
100
AcDbLine
 10
2.561341471467398
 20
0.8221826822253937
 30
0.0
 11
2.561341471467398
 21
0.9635122144045325
 31
0.0
  0
LINE
  5
7DDC74BF0CE1
330
7DDC74BF0D24
100
AcDbEntity
  8
TEXT
100
AcDbLine
 10
2.608439630023383
 20
0.8980480086369318
 30
0.0
 11
2.561341471467398
 21
0.8221826822253937
 31
0.0
  0
LINE
  5
7DDC74BF0CE2
330
7DDC74BF0D24
100
AcDbEntity
  8
TEXT
100
AcDbLine
 10
2.618874346787306
 20
0.7881547656959583
 30
0.0
 11
2.683431462753011
 21
0.8980480086369318
 31
0.0
  0
LINE
  5
7DDC74BF0CE3
330
7DDC74BF0D24
100
AcDbEntity
  8
TEXT
100
AcDbLine
 10
2.497506480244625
 20
0.6315749756484208
 30
0.0
 11
2.561884664563246
 21
0.6315749756484208
 31
0.0
  0
LWPOLYLINE
  5
7DDC74BF0CE4
330
7DDC74BF0D24
100
AcDbEntity
  8
TEXT
100
AcDbPolyline
 90
        2
 70
     0
 43
0.0
 10
2.337597409834067
 20
0.675065920598859
 42
-0.2901071551932486
 10
2.294521476966423
 20
0.6315749756484208
 42
-5.328517124445184
  0
ARC
  5
7DDC74BF0CE8
330
7DDC74BF0D24
100
AcDbEntity
  8
TEXT
100
AcDbCircle
 10
2.225666895309508
 20
0.8054119389801691
 30
0.0
 40
0.028359375
100
AcDbArc
 50
25.78218179591245
 51
90.0
  0
LINE
  5
7DDC74BF0CE9
330
7DDC74BF0D24
100
AcDbEntity
  8
TEXT
100
AcDbLine
 10
2.261467970613631
 20
0.7964963405180341
 30
0.0
 11
2.251203210200067
 21
0.8177468800907284
 31
0.0
  0
LINE
  5
7DDC74BF0CEA
330
7DDC74BF0D24
100
AcDbEntity
  8
TEXT
100
AcDbLine
 10
2.179179980830248
 20
0.7964963405180341
 30
0.0
 11
2.261467970613631
 21
0.7964963405180341
 31
0.0
  0
LWPOLYLINE
  5
7DDC74BF0CEB
330
7DDC74BF0D24
100
AcDbEntity
  8
TEXT
100
AcDbPolyline
 90
        4
 70
     1
 43
0.0
 10
2.27439901189653
 20
0.7345389536324461
 10
2.185738693236672
 20
0.7345389536324461
 42
0.9999999999999998
 10
2.185738693236672
 20
0.6921404131285854
 10
2.27439901189653
 20
0.6921404131285854
 42
1.0
  0
LWPOLYLINE
  5
7DDC74BF0CF1
330
7DDC74BF0D24
100
AcDbEntity
  8
TEXT
100
AcDbPolyline
 90
        2
 70
     0
 43
0.0
 10
2.160504059335046
 20
0.6315749756484208
 10
2.294521476966423
 20
0.6315749756484208
 42
0.9999999999999998
  0
LINE
  5
7DDC74BF0CF5
330
7DDC74BF0D24
100
AcDbEntity
  8
TEXT
100
AcDbLine
 10
2.420858498952062
 20
0.8337713139801664
 30
0.0
 11
2.49750648024462
 21
0.8337713139801664
 31
0.0
  0
LINE
  5
7DDC74BF0CF6
330
7DDC74BF0D24
100
AcDbEntity
  8
TEXT
100
AcDbLine
 10
2.49750648024462
 20
0.8337713139801664
 30
0.0
 11
2.497506480244625
 21
0.6315749756484208
 31
0.0
  0
ARC
  5
7DDC74BF0CF7
330
7DDC74BF0D24
100
AcDbEntity
  8
TEXT
100
AcDbCircle
 10
2.42085849895206
 20
0.8088654386975036
 30
0.0
 40
0.0249058752826653
100
AcDbArc
 50
89.99971217465335
 51
179.9999999999985
  0
LINE
  5
7DDC74BF0CF8
330
7DDC74BF0D24
100
AcDbEntity
  8
TEXT
100
AcDbLine
 10
2.395952623669403
 20
0.6315749756484208
 30
0.0
 11
2.395952623669398
 21
0.8088654810798892
 31
0.0
  0
LWPOLYLINE
  5
7DDC74BF0CF9
330
7DDC74BF0D24
100
AcDbEntity
  8
TEXT
100
AcDbPolyline
 90
        2
 70
     0
 43
0.0
 10
2.337597409834067
 20
0.6315749756484208
 10
2.395952623669401
 20
0.6315749756484208
  0
LWPOLYLINE
  5
7DDC74BF0CFD
330
7DDC74BF0D24
100
AcDbEntity
  8
TEXT
100
AcDbPolyline
 90
        2
 70
     0
 43
0.0
 10
2.337597409834067
 20
0.675065920598859
 10
2.337597409834067
 20
0.6315749756484208
  0
LINE
  5
7DDC74BF0D01
330
7DDC74BF0D24
100
AcDbEntity
  8
TEXT
100
AcDbLine
 10
2.714366570150916
 20
0.6315749756484208
 30
0.0
 11
2.618874346787306
 21
0.7881547656959583
 31
0.0
  0
LINE
  5
7DDC74BF0D02
330
7DDC74BF0D24
100
AcDbEntity
  8
TEXT
100
AcDbLine
 10
2.63778819777471
 20
0.6315749756484208
 30
0.0
 11
2.714366570150916
 21
0.6315749756484208
 31
0.0
  0
LINE
  5
7DDC74BF0D03
330
7DDC74BF0D24
100
AcDbEntity
  8
TEXT
100
AcDbLine
 10
2.561884664563246
 20
0.7631545441246011
 30
0.0
 11
2.63778819777471
 21
0.6315749756484208
 31
0.0
  0
LINE
  5
7DDC74BF0D04
330
7DDC74BF0D24
100
AcDbEntity
  8
TEXT
100
AcDbLine
 10
2.561884664563246
 20
0.6315749756484208
 30
0.0
 11
2.561884664563246
 21
0.7631545441246011
 31
0.0
  0
LINE
  5
7DDC74BF0D05
330
7DDC74BF0D24
100
AcDbEntity
  8
TEXT
100
AcDbLine
 10
2.561341471467398
 20
0.9635122144045325
 30
0.0
 11
2.493026592918125
 21
0.9635122144045325
 31
0.0
  0
ARC
  5
7DDC74BF0D06
330
7DDC74BF0D24
100
AcDbEntity
  8
TEXT
100
AcDbCircle
 10
2.252670853876919
 20
0.8564644415160294
 30
0.0
 40
0.0416329381542859
100
AcDbArc
 50
26.56974201007528
 51
87.20939649401342
  0
LINE
  5
7DDC74BF0D07
330
7DDC74BF0D24
100
AcDbEntity
  8
TEXT
100
AcDbLine
 10
2.39755463882853
 20
0.8980480086369318
 30
0.0
 11
2.333657732529029
 21
0.8980480086369318
 31
0.0
  0
LINE
  5
7DDC74BF0D08
330
7DDC74BF0D24
100
AcDbEntity
  8
TEXT
100
AcDbLine
 10
2.39755463882853
 20
0.8705003587760572
 30
0.0
 11
2.39755463882853
 21
0.8980480086369318
 31
0.0
  0
ARC
  5
7DDC74BF0D09
330
7DDC74BF0D24
100
AcDbEntity
  8
TEXT
100
AcDbCircle
 10
2.428747455891638
 20
0.866802281354667
 30
0.0
 40
0.0314112657011332
100
AcDbArc
 50
95.88484768694724
 51
173.2388340632136
  0
LINE
  5
7DDC74BF0D0A
330
7DDC74BF0D24
100
AcDbEntity
  8
TEXT
100
AcDbLine
 10
2.49302659291812
 20
0.8980480086369318
 30
0.0
 11
2.425526875268603
 21
0.8980480086369318
 31
0.0
  0
LINE
  5
7DDC74BF0D0B
330
7DDC74BF0D24
100
AcDbEntity
  8
TEXT
100
AcDbLine
 10
2.493026592918125
 20
0.9635122144045325
 30
0.0
 11
2.49302659291812
 21
0.8980480086369318
 31
0.0
  0
LINE
  5
7DDC74BF0D0C
330
7DDC74BF0D24
100
AcDbEntity
  8
TEXT
100
AcDbLine
 10
2.683431462753011
 20
0.8980480086369318
 30
0.0
 11
2.608439630023385
 21
0.8980480086369318
 31
0.0
  0
ENDSEC
  0
SECTION
  2
OBJECTS
  0
DICTIONARY
  5
7DDC74BF0D18
330
0
100
AcDbDictionary
  3
ACAD_GROUP
350
7DDC74BF0D19
  3
ACAD_LAYOUT
350
7DDC74BF0D3E
  3
ACAD_MLINESTYLE
350
7DDC74BF0D1A
  3
ACAD_PLOTSETTINGS
350
7DDC74BF0D3F
  3
ACAD_PLOTSTYLENAME
350
7DDC74BF0D3C
  3
ACDBHEADERROUNDTRIPXREC
350
7DDC74BF0D49
  3
ACDBVARIABLEDICTIONARY
350
7DDC74BF0D46
  0
DICTIONARY
  5
7DDC74BF0D6B
330
7DDC74BF0D24
100
AcDbDictionary
280
     1
  3
ACAD_LAYOUTSELFREF
360
7DDC74BF0D6C
  0
DICTIONARY
  5
7DDC74BF0D69
330
7DDC74BF0D21
100
AcDbDictionary
280
     1
  3
ACAD_LAYOUTSELFREF
360
7DDC74BF0D6A
  0
DICTIONARY
  5
7DDC74BF0D19
102
{ACAD_REACTORS
330
7DDC74BF0D18
102
}
330
7DDC74BF0D18
100
AcDbDictionary
  0
DICTIONARY
  5
7DDC74BF0D3E
102
{ACAD_REACTORS
330
7DDC74BF0D18
102
}
330
7DDC74BF0D18
100
AcDbDictionary
  0
DICTIONARY
  5
7DDC74BF0D1A
102
{ACAD_REACTORS
330
7DDC74BF0D18
102
}
330
7DDC74BF0D18
100
AcDbDictionary
  3
STANDARD
350
7DDC74BF0D27
  0
DICTIONARY
  5
7DDC74BF0D3F
102
{ACAD_REACTORS
330
7DDC74BF0D18
102
}
330
7DDC74BF0D18
100
AcDbDictionary
  0
ACDBDICTIONARYWDFLT
  5
7DDC74BF0D3C
102
{ACAD_REACTORS
330
7DDC74BF0D18
102
}
330
7DDC74BF0D18
100
AcDbDictionary
281
     1
  3
Normal
350
7DDC74BF0D3D
100
AcDbDictionaryWithDefault
340
7DDC74BF0D3D
  0
DICTIONARY
  5
7DDC74BF0D49
102
{ACAD_REACTORS
330
7DDC74BF0D18
102
}
330
7DDC74BF0D18
100
AcDbDictionary
  3
CEPSNTYPE
350
7DDC74BF0D53
  3
FINGERPRINTGUID
350
7DDC74BF0D54
  3
HYPERLINKBASE
350
7DDC74BF0D4C
  3
INSUNITS
350
7DDC74BF0D52
  3
LAYOUTDICT
350
7DDC74BF0D4E
  3
LWETCUNION
350
7DDC74BF0D51
  3
PLOTSETDICT
350
7DDC74BF0D4F
  3
PLOTSTYLNAMDICT
350
7DDC74BF0D50
  3
PSVPSCALE
350
7DDC74BF0D56
  3
PUCSBASE
350
7DDC74BF0D59
  3
PUCSORGBACK
350
7DDC74BF0D5F
  3
PUCSORGBOTTOM
350
7DDC74BF0D5B
  3
PUCSORGFRONT
350
7DDC74BF0D5E
  3
PUCSORGLEFT
350
7DDC74BF0D5C
  3
PUCSORGRIGHT
350
7DDC74BF0D5D
  3
PUCSORGTOP
350
7DDC74BF0D5A
  3
PUCSORTHOREF
350
7DDC74BF0D57
  3
PUCSORTHOVIEW
350
7DDC74BF0D58
  3
STYLESHEET
350
7DDC74BF0D4D
  3
TSTACKALIGN
350
7DDC74BF0D4A
  3
TSTACKSIZE
350
7DDC74BF0D4B
  3
UCSBASE
350
7DDC74BF0D62
  3
UCSORGBACK
350
7DDC74BF0D68
  3
UCSORGBOTTOM
350
7DDC74BF0D64
  3
UCSORGFRONT
350
7DDC74BF0D67
  3
UCSORGLEFT
350
7DDC74BF0D65
  3
UCSORGRIGHT
350
7DDC74BF0D66
  3
UCSORGTOP
350
7DDC74BF0D63
  3
UCSORTHOREF
350
7DDC74BF0D60
  3
UCSORTHOVIEW
350
7DDC74BF0D61
  3
VERSIONGUID
350
7DDC74BF0D55
  0
DICTIONARY
  5
7DDC74BF0D46
102
{ACAD_REACTORS
330
7DDC74BF0D18
102
}
330
7DDC74BF0D18
100
AcDbDictionary
  3
DIMASSOC
350
7DDC74BF0D47
  0
XRECORD
  5
7DDC74BF0D6C
102
{ACAD_REACTORS
330
7DDC74BF0D6B
102
}
330
7DDC74BF0D6B
100
AcDbXrecord
340
7DDC74BF0D24
  0
XRECORD
  5
7DDC74BF0D6A
102
{ACAD_REACTORS
330
7DDC74BF0D69
102
}
330
7DDC74BF0D69
100
AcDbXrecord
340
7DDC74BF0D21
  0
MLINESTYLE
  5
7DDC74BF0D27
102
{ACAD_REACTORS
330
7DDC74BF0D1A
102
}
330
7DDC74BF0D1A
100
AcDbMlineStyle
  2
STANDARD
 70
     0
  3

 62
     0
 51
90.0
 52
90.0
 71
     2
 49
0.5
 62
   256
  6
BYLAYER
 49
-0.5
 62
   256
  6
BYLAYER
  0
ACDBPLACEHOLDER
  5
7DDC74BF0D3D
102
{ACAD_REACTORS
330
7DDC74BF0D3C
102
}
330
7DDC74BF0D3C
100
AcDbPlaceHolder
280
     0
  0
XRECORD
  5
7DDC74BF0D53
102
{ACAD_REACTORS
330
7DDC74BF0D49
102
}
330
7DDC74BF0D49
100
AcDbXrecord
 90
        0
  0
XRECORD
  5
7DDC74BF0D54
102
{ACAD_REACTORS
330
7DDC74BF0D49
102
}
330
7DDC74BF0D49
100
AcDbXrecord
  1
{D1B7F4B0-8DB3-11D6-88E6-0090279574E7}
  0
XRECORD
  5
7DDC74BF0D4C
102
{ACAD_REACTORS
330
7DDC74BF0D49
102
}
330
7DDC74BF0D49
100
AcDbXrecord
  1

  0
XRECORD
  5
7DDC74BF0D52
102
{ACAD_REACTORS
330
7DDC74BF0D49
102
}
330
7DDC74BF0D49
100
AcDbXrecord
 90
        0
  0
XRECORD
  5
7DDC74BF0D4E
102
{ACAD_REACTORS
330
7DDC74BF0D49
102
}
330
7DDC74BF0D49
100
AcDbXrecord
340
7DDC74BF0D3E
  0
XRECORD
  5
7DDC74BF0D51
102
{ACAD_REACTORS
330
7DDC74BF0D49
102
}
330
7DDC74BF0D49
100
AcDbXrecord
 90
    14877
  0
XRECORD
  5
7DDC74BF0D4F
102
{ACAD_REACTORS
330
7DDC74BF0D49
102
}
330
7DDC74BF0D49
100
AcDbXrecord
340
7DDC74BF0D3F
  0
XRECORD
  5
7DDC74BF0D50
102
{ACAD_REACTORS
330
7DDC74BF0D49
102
}
330
7DDC74BF0D49
100
AcDbXrecord
340
7DDC74BF0D3C
  0
XRECORD
  5
7DDC74BF0D56
102
{ACAD_REACTORS
330
7DDC74BF0D49
102
}
330
7DDC74BF0D49
100
AcDbXrecord
 40
0.0
  0
XRECORD
  5
7DDC74BF0D59
102
{ACAD_REACTORS
330
7DDC74BF0D49
102
}
330
7DDC74BF0D49
100
AcDbXrecord
340
0
  0
XRECORD
  5
7DDC74BF0D5F
102
{ACAD_REACTORS
330
7DDC74BF0D49
102
}
330
7DDC74BF0D49
100
AcDbXrecord
 10
0.0
 20
0.0
 30
0.0
  0
XRECORD
  5
7DDC74BF0D5B
102
{ACAD_REACTORS
330
7DDC74BF0D49
102
}
330
7DDC74BF0D49
100
AcDbXrecord
 10
0.0
 20
0.0
 30
0.0
  0
XRECORD
  5
7DDC74BF0D5E
102
{ACAD_REACTORS
330
7DDC74BF0D49
102
}
330
7DDC74BF0D49
100
AcDbXrecord
 10
0.0
 20
0.0
 30
0.0
  0
XRECORD
  5
7DDC74BF0D5C
102
{ACAD_REACTORS
330
7DDC74BF0D49
102
}
330
7DDC74BF0D49
100
AcDbXrecord
 10
0.0
 20
0.0
 30
0.0
  0
XRECORD
  5
7DDC74BF0D5D
102
{ACAD_REACTORS
330
7DDC74BF0D49
102
}
330
7DDC74BF0D49
100
AcDbXrecord
 10
0.0
 20
0.0
 30
0.0
  0
XRECORD
  5
7DDC74BF0D5A
102
{ACAD_REACTORS
330
7DDC74BF0D49
102
}
330
7DDC74BF0D49
100
AcDbXrecord
 10
0.0
 20
0.0
 30
0.0
  0
XRECORD
  5
7DDC74BF0D57
102
{ACAD_REACTORS
330
7DDC74BF0D49
102
}
330
7DDC74BF0D49
100
AcDbXrecord
340
0
  0
XRECORD
  5
7DDC74BF0D58
102
{ACAD_REACTORS
330
7DDC74BF0D49
102
}
330
7DDC74BF0D49
100
AcDbXrecord
 70
     0
  0
XRECORD
  5
7DDC74BF0D4D
102
{ACAD_REACTORS
330
7DDC74BF0D49
102
}
330
7DDC74BF0D49
100
AcDbXrecord
  1

  0
XRECORD
  5
7DDC74BF0D4A
102
{ACAD_REACTORS
330
7DDC74BF0D49
102
}
330
7DDC74BF0D49
100
AcDbXrecord
 90
        1
  0
XRECORD
  5
7DDC74BF0D4B
102
{ACAD_REACTORS
330
7DDC74BF0D49
102
}
330
7DDC74BF0D49
100
AcDbXrecord
 90
       70
  0
XRECORD
  5
7DDC74BF0D62
102
{ACAD_REACTORS
330
7DDC74BF0D49
102
}
330
7DDC74BF0D49
100
AcDbXrecord
340
0
  0
XRECORD
  5
7DDC74BF0D68
102
{ACAD_REACTORS
330
7DDC74BF0D49
102
}
330
7DDC74BF0D49
100
AcDbXrecord
 10
0.0
 20
0.0
 30
0.0
  0
XRECORD
  5
7DDC74BF0D64
102
{ACAD_REACTORS
330
7DDC74BF0D49
102
}
330
7DDC74BF0D49
100
AcDbXrecord
 10
0.0
 20
0.0
 30
0.0
  0
XRECORD
  5
7DDC74BF0D67
102
{ACAD_REACTORS
330
7DDC74BF0D49
102
}
330
7DDC74BF0D49
100
AcDbXrecord
 10
0.0
 20
0.0
 30
0.0
  0
XRECORD
  5
7DDC74BF0D65
102
{ACAD_REACTORS
330
7DDC74BF0D49
102
}
330
7DDC74BF0D49
100
AcDbXrecord
 10
0.0
 20
0.0
 30
0.0
  0
XRECORD
  5
7DDC74BF0D66
102
{ACAD_REACTORS
330
7DDC74BF0D49
102
}
330
7DDC74BF0D49
100
AcDbXrecord
 10
0.0
 20
0.0
 30
0.0
  0
XRECORD
  5
7DDC74BF0D63
102
{ACAD_REACTORS
330
7DDC74BF0D49
102
}
330
7DDC74BF0D49
100
AcDbXrecord
 10
0.0
 20
0.0
 30
0.0
  0
XRECORD
  5
7DDC74BF0D60
102
{ACAD_REACTORS
330
7DDC74BF0D49
102
}
330
7DDC74BF0D49
100
AcDbXrecord
340
0
  0
XRECORD
  5
7DDC74BF0D61
102
{ACAD_REACTORS
330
7DDC74BF0D49
102
}
330
7DDC74BF0D49
100
AcDbXrecord
 70
     0
  0
XRECORD
  5
7DDC74BF0D55
102
{ACAD_REACTORS
330
7DDC74BF0D49
102
}
330
7DDC74BF0D49
100
AcDbXrecord
  1
{D1B7F4B2-8DB3-11D6-88E6-0090279574E7}
  0
DICTIONARYVAR
  5
7DDC74BF0D47
102
{ACAD_REACTORS
330
7DDC74BF0D46
102
}
330
7DDC74BF0D46
100
DictionaryVariables
280
     0
  1
1
  0
ENDSEC
  0
EOF
