  0
SECTION
  2
HEADER
  9
$ACADVER
  1
AC1014
  9
$ACADMAINTVER
 70
     9
  9
$DWGCODEPAGE
  3
ANSI_1252
  9
$INSBASE
 10
2.443265453139873
 20
1.647858163294388
 30
0.0
  9
$EXTMIN
 10
0.7002838739127303
 20
0.9085895592118069
 30
0.0
  9
$EXTMAX
 10
4.185503195659858
 20
2.085358163294391
 30
0.0
  9
$LIMMIN
 10
0.0
 20
0.0
  9
$LIMMAX
 10
18.0
 20
12.0
  9
$ORTHOMODE
 70
     1
  9
$REGENMODE
 70
     1
  9
$FILLMODE
 70
     1
  9
$QTEXTMODE
 70
     0
  9
$MIRRTEXT
 70
     0
  9
$DRAGMODE
 70
     2
  9
$LTSCALE
 40
1.0
  9
$OSMODE
 70
    39
  9
$ATTMODE
 70
     1
  9
$TEXTSIZE
 40
0.125
  9
$TRACEWID
 40
0.05
  9
$TEXTSTYLE
  7
ROMANS
  9
$CLAYER
  8
0
  9
$CELTYPE
  6
BYLAYER
  9
$CECOLOR
 62
   256
  9
$CELTSCALE
 40
1.0
  9
$DELOBJ
 70
     1
  9
$DISPSILH
 70
     1
  9
$DIMSCALE
 40
1.0
  9
$DIMASZ
 40
0.125
  9
$DIMEXO
 40
0.125
  9
$DIMDLI
 40
0.375
  9
$DIMRND
 40
0.0
  9
$DIMDLE
 40
0.0
  9
$DIMEXE
 40
0.125
  9
$DIMTP
 40
0.0
  9
$DIMTM
 40
0.0
  9
$DIMTXT
 40
0.125
  9
$DIMCEN
 40
-0.125
  9
$DIMTSZ
 40
0.0
  9
$DIMTOL
 70
     0
  9
$DIMLIM
 70
     0
  9
$DIMTIH
 70
     1
  9
$DIMTOH
 70
     1
  9
$DIMSE1
 70
     0
  9
$DIMSE2
 70
     0
  9
$DIMTAD
 70
     0
  9
$DIMZIN
 70
     4
  9
$DIMBLK
  1

  9
$DIMASO
 70
     1
  9
$DIMSHO
 70
     1
  9
$DIMPOST
  1

  9
$DIMAPOST
  1

  9
$DIMALT
 70
     0
  9
$DIMALTD
 70
     2
  9
$DIMALTF
 40
25.4
  9
$DIMLFAC
 40
1.0
  9
$DIMTOFL
 70
     0
  9
$DIMTVP
 40
0.0
  9
$DIMTIX
 70
     1
  9
$DIMSOXD
 70
     0
  9
$DIMSAH
 70
     0
  9
$DIMBLK1
  1

  9
$DIMBLK2
  1

  9
$DIMSTYLE
  2
STANDARD
  9
$DIMCLRD
 70
     0
  9
$DIMCLRE
 70
     0
  9
$DIMCLRT
 70
     0
  9
$DIMTFAC
 40
1.0
  9
$DIMGAP
 40
0.09
  9
$DIMJUST
 70
     0
  9
$DIMSD1
 70
     0
  9
$DIMSD2
 70
     0
  9
$DIMTOLJ
 70
     1
  9
$DIMTZIN
 70
     4
  9
$DIMALTZ
 70
     0
  9
$DIMALTTZ
 70
     0
  9
$DIMFIT
 70
     3
  9
$DIMUPT
 70
     0
  9
$DIMUNIT
 70
     2
  9
$DIMDEC
 70
     3
  9
$DIMTDEC
 70
     3
  9
$DIMALTU
 70
     2
  9
$DIMALTTD
 70
     2
  9
$DIMTXSTY
  7
ROMANS
  9
$DIMAUNIT
 70
     0
  9
$LUNITS
 70
     2
  9
$LUPREC
 70
     3
  9
$SKETCHINC
 40
0.1
  9
$FILLETRAD
 40
0.03125
  9
$AUNITS
 70
     0
  9
$AUPREC
 70
     0
  9
$MENU
  1
ACAD
  9
$ELEVATION
 40
0.0
  9
$PELEVATION
 40
0.0
  9
$THICKNESS
 40
0.0
  9
$LIMCHECK
 70
     0
  9
$BLIPMODE
 70
     0
  9
$CHAMFERA
 40
0.0
  9
$CHAMFERB
 40
0.0
  9
$CHAMFERC
 40
0.0
  9
$CHAMFERD
 40
0.0
  9
$SKPOLY
 70
     0
  9
$TDCREATE
 40
2448993.471872222
  9
$TDUPDATE
 40
2452458.294545381
  9
$TDINDWG
 40
0.0005930556
  9
$TDUSRTIMER
 40
0.0005930556
  9
$USRTIMER
 70
     1
  9
$ANGBASE
 50
0.0
  9
$ANGDIR
 70
     0
  9
$PDMODE
 70
     0
  9
$PDSIZE
 40
0.0
  9
$PLINEWID
 40
0.0
  9
$COORDS
 70
     2
  9
$SPLFRAME
 70
     0
  9
$SPLINETYPE
 70
     6
  9
$SPLINESEGS
 70
     8
  9
$ATTDIA
 70
     0
  9
$ATTREQ
 70
     1
  9
$HANDLING
 70
 22529
  9
$HANDSEED
  5
14FA13753B43
  9
$SURFTAB1
 70
     6
  9
$SURFTAB2
 70
     6
  9
$SURFTYPE
 70
     6
  9
$SURFU
 70
     6
  9
$SURFV
 70
     6
  9
$UCSNAME
  2

  9
$UCSORG
 10
0.0
 20
0.0
 30
0.0
  9
$UCSXDIR
 10
1.0
 20
0.0
 30
0.0
  9
$UCSYDIR
 10
0.0
 20
1.0
 30
0.0
  9
$PUCSNAME
  2

  9
$PUCSORG
 10
0.0
 20
0.0
 30
0.0
  9
$PUCSXDIR
 10
1.0
 20
0.0
 30
0.0
  9
$PUCSYDIR
 10
0.0
 20
1.0
 30
0.0
  9
$USERI1
 70
     0
  9
$USERI2
 70
     0
  9
$USERI3
 70
     0
  9
$USERI4
 70
     0
  9
$USERI5
 70
     0
  9
$USERR1
 40
0.0
  9
$USERR2
 40
0.0
  9
$USERR3
 40
0.0
  9
$USERR4
 40
0.0
  9
$USERR5
 40
0.0
  9
$WORLDVIEW
 70
     1
  9
$SHADEDGE
 70
     3
  9
$SHADEDIF
 70
    70
  9
$TILEMODE
 70
     1
  9
$MAXACTVP
 70
    16
  9
$PINSBASE
 10
1.642184325381486
 20
50.00000000000001
 30
2.435975615156632
  9
$PLIMCHECK
 70
     0
  9
$PEXTMIN
 10
1.000000000000000E+20
 20
1.000000000000000E+20
 30
1.000000000000000E+20
  9
$PEXTMAX
 10
-1.000000000000000E+20
 20
-1.000000000000000E+20
 30
-1.000000000000000E+20
  9
$PLIMMIN
 10
0.0
 20
0.0
  9
$PLIMMAX
 10
12.0
 20
9.0
  9
$UNITMODE
 70
     0
  9
$VISRETAIN
 70
     0
  9
$PLINEGEN
 70
     1
  9
$PSLTSCALE
 70
     0
  9
$TREEDEPTH
 70
  3020
  9
$PICKSTYLE
 70
     1
  9
$CMLSTYLE
  2
STANDARD
  9
$CMLJUST
 70
     0
  9
$CMLSCALE
 40
1.0
  9
$PROXYGRAPHICS
 70
     1
  9
$MEASUREMENT
 70
     0
  0
ENDSEC
  0
SECTION
  2
CLASSES
  0
CLASS
  1
LWPOLYLINE
  2
AcDbPolyline
  3
AutoCAD 2000
 90
        0
280
     0
281
     1
  0
CLASS
  1
ACDBDICTIONARYWDFLT
  2
AcDbDictionaryWithDefault
  3
AutoCAD 2000
 90
        0
280
     0
281
     0
  0
CLASS
  1
ACDBPLACEHOLDER
  2
AcDbPlaceHolder
  3
AutoCAD 2000
 90
        0
280
     0
281
     0
  0
CLASS
  1
LAYOUT
  2
AcDbLayout
  3
AutoCAD 2000
 90
        0
280
     0
281
     0
  0
CLASS
  1
DICTIONARYVAR
  2
AcDbDictionaryVar
  3
AutoCAD 2000
 90
        0
280
     0
281
     0
  0
CLASS
  1
LONG_TRANSACTION
  2
AcDbLongTransaction
  3
AutoCAD 2000
 90
        0
280
     0
281
     0
  0
CLASS
  1
LWPOLYLINE
  2
AcDbPolyline
  3
AutoCAD 2000
 90
        0
280
     0
281
     1
  0
CLASS
  1
HATCH
  2
AcDbHatch
  3
AutoCAD 2000
 90
        0
280
     0
281
     1
  0
CLASS
  1
XRECORD
  2
AcDbXrecord
  3
AutoCAD 2000
 90
        0
280
     0
281
     0
  0
ENDSEC
  0
SECTION
  2
TABLES
  0
TABLE
  2
VPORT
  5
14FA13753AEA
330
0
100
AcDbSymbolTable
 70
     2
  0
VPORT
  5
14FA13753B1E
330
14FA13753AEA
100
AcDbSymbolTableRecord
100
AcDbViewportTableRecord
  2
*ACTIVE
 70
     0
 10
0.0
 20
0.0
 11
1.0
 21
1.0
 12
5.419558369213466
 22
1.496978782463095
 13
0.0
 23
0.0
 14
0.015625
 24
0.015625
 15
0.0
 25
0.0
 16
0.0
 26
0.0
 36
1.0
 17
0.0
 27
0.0
 37
0.0
 40
2.282647215150728
 41
4.320930232558139
 42
50.0
 43
0.0
 44
0.0
 50
0.0
 51
0.0
 71
     0
 72
  2000
 73
     1
 74
     0
 75
     1
 76
     0
 77
     0
 78
     0
  0
ENDTAB
  0
TABLE
  2
LTYPE
  5
14FA13753AE7
330
0
100
AcDbSymbolTable
 70
     1
  0
LTYPE
  5
14FA13753AF4
330
14FA13753AE7
100
AcDbSymbolTableRecord
100
AcDbLinetypeTableRecord
  2
BYBLOCK
 70
     0
  3

 72
    65
 73
     0
 40
0.0
  0
LTYPE
  5
14FA13753AF5
330
14FA13753AE7
100
AcDbSymbolTableRecord
100
AcDbLinetypeTableRecord
  2
BYLAYER
 70
     0
  3

 72
    65
 73
     0
 40
0.0
  0
LTYPE
  5
14FA13753AF6
330
14FA13753AE7
100
AcDbSymbolTableRecord
100
AcDbLinetypeTableRecord
  2
CONTINUOUS
 70
     0
  3
Solid line
 72
    65
 73
     0
 40
0.0
  0
ENDTAB
  0
TABLE
  2
LAYER
  5
14FA13753AE4
330
0
100
AcDbSymbolTable
 70
     2
  0
LAYER
  5
14FA13753AF1
330
14FA13753AE4
100
AcDbSymbolTableRecord
100
AcDbLayerTableRecord
  2
0
 70
     0
 62
     7
  6
CONTINUOUS
  0
LAYER
  5
14FA13753B01
330
14FA13753AE4
100
AcDbSymbolTableRecord
100
AcDbLayerTableRecord
  2
TEXT
 70
     0
 62
     3
  6
CONTINUOUS
  0
ENDTAB
  0
TABLE
  2
STYLE
  5
14FA13753AE5
330
0
100
AcDbSymbolTable
 70
     3
  0
STYLE
  5
14FA13753AF2
330
14FA13753AE5
100
AcDbSymbolTableRecord
100
AcDbTextStyleTableRecord
  2
STANDARD
 70
     0
 40
0.0
 41
1.0
 50
0.0
 71
     0
 42
0.3125
  3
txt
  4

  0
STYLE
  5
14FA13753AFE
330
14FA13753AE5
100
AcDbSymbolTableRecord
100
AcDbTextStyleTableRecord
  2
ITALICC
 70
     0
 40
0.0
 41
1.0
 50
0.0
 71
     0
 42
0.125
  3
italicc
  4

  0
STYLE
  5
14FA13753B0E
330
14FA13753AE5
100
AcDbSymbolTableRecord
100
AcDbTextStyleTableRecord
  2
ROMANS
 70
     0
 40
0.0
 41
1.0
 50
0.0
 71
     0
 42
0.125
  3
romans.shx
  4

  0
ENDTAB
  0
TABLE
  2
VIEW
  5
14FA13753AE8
330
0
100
AcDbSymbolTable
 70
     0
  0
ENDTAB
  0
TABLE
  2
UCS
  5
14FA13753AE9
330
0
100
AcDbSymbolTable
 70
     0
  0
ENDTAB
  0
TABLE
  2
APPID
  5
14FA13753AEB
330
0
100
AcDbSymbolTable
 70
     1
  0
APPID
  5
14FA13753AF3
330
14FA13753AEB
100
AcDbSymbolTableRecord
100
AcDbRegAppTableRecord
  2
ACAD
 70
     0
  0
ENDTAB
  0
TABLE
  2
DIMSTYLE
  5
14FA13753AEC
330
0
100
AcDbSymbolTable
 70
     1
  0
DIMSTYLE
105
14FA13753B06
330
14FA13753AEC
100
AcDbSymbolTableRecord
100
AcDbDimStyleTableRecord
  2
STANDARD
 70
     0
  3

  4

  5

  6

  7

 40
1.0
 41
0.125
 42
0.125
 43
0.375
 44
0.125
 45
0.0
 46
0.0
 47
0.0
 48
0.0
140
0.125
141
-0.125
142
0.0
143
25.4
144
1.0
145
0.0
146
1.0
147
0.09
 71
     0
 72
     0
 73
     1
 74
     1
 75
     0
 76
     0
 77
     0
 78
     4
170
     0
171
     2
172
     0
173
     0
174
     1
175
     0
176
     0
177
     0
178
     0
270
     2
271
     3
272
     3
273
     2
274
     2
340
14FA13753B0E
275
     0
280
     0
281
     0
282
     0
283
     1
284
     4
285
     0
286
     0
287
     3
288
     0
  0
ENDTAB
  0
TABLE
  2
BLOCK_RECORD
  5
14FA13753AE3
330
0
100
AcDbSymbolTable
 70
     0
  0
BLOCK_RECORD
  5
14FA13753AFA
102
{ACAD_XDICTIONARY
360
14FA13753B41
102
}
330
14FA13753AE3
100
AcDbSymbolTableRecord
100
AcDbBlockTableRecord
  2
*MODEL_SPACE
  0
BLOCK_RECORD
  5
14FA13753AF7
102
{ACAD_XDICTIONARY
360
14FA13753B3F
102
}
330
14FA13753AE3
100
AcDbSymbolTableRecord
100
AcDbBlockTableRecord
  2
*PAPER_SPACE
  0
ENDTAB
  0
ENDSEC
  0
SECTION
  2
BLOCKS
  0
BLOCK
  5
14FA13753B04
330
14FA13753AFA
100
AcDbEntity
  8
0
100
AcDbBlockBegin
  2
*MODEL_SPACE
 70
     0
 10
0.0
 20
0.0
 30
0.0
  3
*MODEL_SPACE
  1

  0
ENDBLK
  5
14FA13753B05
330
14FA13753AFA
100
AcDbEntity
  8
0
100
AcDbBlockEnd
  0
BLOCK
  5
14FA13753B02
330
14FA13753AF7
100
AcDbEntity
 67
     1
  8
0
100
AcDbBlockBegin
  2
*PAPER_SPACE
 70
     0
 10
0.0
 20
0.0
 30
0.0
  3
*PAPER_SPACE
  1

  0
ENDBLK
  5
14FA13753B03
330
14FA13753AF7
100
AcDbEntity
 67
     1
  8
0
100
AcDbBlockEnd
  0
ENDSEC
  0
SECTION
  2
ENTITIES
  0
LWPOLYLINE
  5
14FA1375253C
330
14FA13753AFA
100
AcDbEntity
  8
0
100
AcDbPolyline
 90
       20
 70
     1
 43
0.0
 10
2.880765453139873
 20
1.907858163294388
 10
2.880765453139873
 20
1.966608163294388
 10
2.837015453139873
 20
2.010358163294388
 42
-0.9999999999999499
 10
2.987015453139873
 20
2.010358163294395
 10
2.943265453139873
 20
1.966608163294388
 10
2.943265453139873
 20
1.647858163294388
 10
1.943265453139873
 20
1.647858163294388
 10
1.943265453139873
 20
1.966608163294388
 10
1.899515453139873
 20
2.010358163294386
 42
-1.000000000000008
 10
2.049515453139873
 20
2.010358163294388
 10
2.005765453139873
 20
1.966608163294388
 10
2.005765453139873
 20
1.741608163294388
 42
0.4142135623730951
 10
2.037015453139873
 20
1.710358163294388
 10
2.433265453139873
 20
1.710358163294388
 10
2.443265453139873
 20
1.700358163294388
 10
2.453265453139873
 20
1.710358163294388
 10
2.849515453139873
 20
1.710358163294388
 42
0.4142135623730951
 10
2.880765453139873
 20
1.741608163294388
 10
2.880765453139873
 20
1.887858163294388
 10
2.890765453139873
 20
1.897858163294388
  0
TEXT
  5
14FA137539A5
330
14FA13753AFA
100
AcDbEntity
  8
TEXT
100
AcDbText
 10
1.690289262663683
 20
1.366608163294388
 30
0.0
 40
0.125
  1
PART #110079
  7
ITALICC
 72
     1
 11
2.443265453139873
 21
1.366608163294388
 31
0.0
100
AcDbText
  0
TEXT
  5
14FA137539A6
330
14FA13753AFA
100
AcDbEntity
  8
TEXT
100
AcDbText
 10
2.856570611390194
 20
0.9196855206220133
 30
0.0
 40
0.0522247191011236
  1
Phone  1-800-328-2495
 41
1.272321428571429
 72
     5
 11
4.185503195659857
 21
0.9196855206220133
 31
0.0
100
AcDbText
  0
TEXT
  5
14FA137539A7
330
14FA13753AFA
100
AcDbEntity
  8
TEXT
100
AcDbText
 10
2.856570611390194
 20
1.199460801520889
 30
0.0
 40
0.0522247191011236
  1
Stylmark  Incorporated
 41
1.221428571428573
 72
     5
 11
4.185503195659857
 21
1.199460801520889
 31
0.0
100
AcDbText
  0
TEXT
  5
14FA137539A8
330
14FA13753AFA
100
AcDbEntity
  8
TEXT
100
AcDbText
 10
2.856570611390194
 20
1.106202374554597
 30
0.0
 40
0.0522247191011236
  1
6536 Main St. N.E. * P.O. Box 32008
 41
0.8388932496075366
 72
     5
 11
4.185503195659857
 21
1.106202374554597
 31
0.0
100
AcDbText
  0
TEXT
  5
14FA137539A9
330
14FA13753AFA
100
AcDbEntity
  8
TEXT
100
AcDbText
 10
2.856570611390194
 20
1.012943947588305
 30
0.0
 40
0.0522247191011236
  1
Minneapolis, MN 55432-0008
 41
1.11444212721585
 72
     5
 11
4.185503195659857
 21
1.012943947588305
 31
0.0
100
AcDbText
  0
LWPOLYLINE
  5
14FA137539AA
330
14FA13753AFA
100
AcDbEntity
  8
TEXT
100
AcDbPolyline
 90
        3
 70
     0
 43
0.0006660908203125
 10
0.7006169193228864
 20
1.033330283259448
 10
0.7006169193228864
 20
0.9200948438063205
 10
0.8138523587760086
 20
0.9200948438063205
  0
LWPOLYLINE
  5
14FA137539AF
330
14FA13753AFA
100
AcDbEntity
  8
TEXT
100
AcDbPolyline
 90
        3
 70
     0
 43
0.0006660908203125
 10
0.7272605521353839
 20
1.033330283259448
 10
0.7272605521353839
 20
0.9467384766188216
 10
0.8138523587760086
 20
0.9467384766188216
  0
LWPOLYLINE
  5
14FA137539B4
330
14FA13753AFA
100
AcDbEntity
  8
TEXT
100
AcDbPolyline
 90
        2
 70
     0
 43
0.0001332181640625
 10
0.7738869095572607
 20
1.043321645564133
 10
0.7006169193228864
 20
1.033330283259448
  0
LWPOLYLINE
  5
14FA137539B8
330
14FA13753AFA
100
AcDbEntity
  8
TEXT
100
AcDbPolyline
 90
        2
 70
     0
 43
0.0001332181640625
 10
0.7272605521353839
 20
1.033330283259448
 10
0.7872087259635113
 20
1.043321645564133
  0
LWPOLYLINE
  5
14FA137539BC
330
14FA13753AFA
100
AcDbEntity
  8
TEXT
100
AcDbPolyline
 90
        2
 70
     0
 43
0.0001332181640625
 10
0.7272605521353839
 20
0.9467384766188216
 10
0.7872087259635113
 20
1.006686650446947
  0
LWPOLYLINE
  5
14FA137539C0
330
14FA13753AFA
100
AcDbEntity
  8
TEXT
100
AcDbPolyline
 90
        3
 70
     0
 43
0.0006660908203125
 10
0.8138523587760086
 20
1.186531171931323
 10
0.7006169193228864
 20
1.186531171931323
 10
0.7006169193228864
 20
1.073295732478196
  0
LWPOLYLINE
  5
14FA137539C5
330
14FA13753AFA
100
AcDbEntity
  8
TEXT
100
AcDbPolyline
 90
        3
 70
     0
 43
0.0006660908203125
 10
0.8138523587760086
 20
1.159887539118822
 10
0.7272605521353839
 20
1.159887539118822
 10
0.7272605521353839
 20
1.073295732478196
  0
LWPOLYLINE
  5
14FA137539CA
330
14FA13753AFA
100
AcDbEntity
  8
TEXT
100
AcDbPolyline
 90
        2
 70
     0
 43
0.0001332181640625
 10
0.7272605521353839
 20
1.159887539118822
 10
0.7872087259635095
 20
1.099939365290697
  0
LWPOLYLINE
  5
14FA137539CE
330
14FA13753AFA
100
AcDbEntity
  8
TEXT
100
AcDbPolyline
 90
        2
 70
     0
 43
0.0001332181640625
 10
0.7272605521353839
 20
1.073295732478196
 10
0.7872087259635095
 20
1.063304370173507
  0
LWPOLYLINE
  5
14FA137539D2
330
14FA13753AFA
100
AcDbEntity
  8
TEXT
100
AcDbPolyline
 90
        2
 70
     0
 43
0.0001332181640625
 10
0.7006169193228864
 20
1.073295732478196
 10
0.7738869095572607
 20
1.063304370173507
  0
LWPOLYLINE
  5
14FA137539D6
330
14FA13753AFA
100
AcDbEntity
  8
TEXT
100
AcDbPolyline
 90
        2
 70
     0
 43
0.0006660908203125
 10
0.7272605521353839
 20
1.033330283259448
 10
0.7006169193228864
 20
1.033330283259448
  0
LWPOLYLINE
  5
14FA137539DA
330
14FA13753AFA
100
AcDbEntity
  8
TEXT
100
AcDbPolyline
 90
        2
 70
     0
 43
0.0006660908203125
 10
0.7272605521353839
 20
1.073295732478196
 10
0.7006169193228864
 20
1.073295732478196
  0
LINE
  5
14FA137539DE
330
14FA13753AFA
100
AcDbEntity
  8
TEXT
100
AcDbLine
 10
2.215807348449383
 20
1.122254477274554
 30
0.0
 11
2.108601075062094
 21
1.122254477274554
 31
0.0
  0
LINE
  5
14FA137539DF
330
14FA13753AFA
100
AcDbEntity
  8
TEXT
100
AcDbLine
 10
2.244838246793862
 20
1.18653117193132
 30
0.0
 11
2.110006337576803
 21
1.18653117193132
 31
0.0
  0
ARC
  5
14FA137539E0
330
14FA13753AFA
100
AcDbEntity
  8
TEXT
100
AcDbCircle
 10
2.16932043397012
 20
1.017293922668303
 30
0.0
 40
0.0676855811441166
100
AcDbArc
 50
90.0
 51
153.7768192527749
  0
LWPOLYLINE
  5
14FA137539E1
330
14FA13753AFA
100
AcDbEntity
  8
TEXT
100
AcDbPolyline
 90
        2
 70
     0
 43
0.0
 10
2.107568579607284
 20
0.9635490838932474
 42
0.2901071551932823
 10
2.15064451247492
 20
0.9200581389428093
 42
5.328517124445801
  0
ARC
  5
14FA137539E5
330
14FA13753AFA
100
AcDbEntity
  8
TEXT
100
AcDbCircle
 10
1.464189056298634
 20
0.9798505302808591
 30
0.0
 40
0.0601160179737537
100
AcDbArc
 50
180.0000000000003
 51
264.0521544866073
  0
LINE
  5
14FA137539E6
330
14FA13753AFA
100
AcDbEntity
  8
TEXT
100
AcDbLine
 10
1.467704411924182
 20
1.220919089525458
 30
0.0
 11
1.407661807080175
 21
1.220919089525458
 31
0.0
  0
ARC
  5
14FA137539E7
330
14FA13753AFA
100
AcDbEntity
  8
TEXT
100
AcDbCircle
 10
1.231930054181663
 20
1.104443712484818
 30
0.0
 40
0.0820874594465043
100
AcDbArc
 50
90.0
 51
270.0
  0
LWPOLYLINE
  5
14FA137539E8
330
14FA13753AFA
100
AcDbEntity
  8
TEXT
100
AcDbPolyline
 90
        2
 70
     0
 43
0.0001332181640625
 10
0.8238437210806992
 20
1.113261181696944
 10
0.8138523587760086
 20
1.186531171931323
  0
LWPOLYLINE
  5
14FA137539EC
330
14FA13753AFA
100
AcDbEntity
  8
TEXT
100
AcDbPolyline
 90
        2
 70
     0
 43
0.0001332181640625
 10
0.8138523587760086
 20
1.159887539118822
 10
0.8238437210806992
 20
1.099939365290697
  0
LWPOLYLINE
  5
14FA137539F0
330
14FA13753AFA
100
AcDbEntity
  8
TEXT
100
AcDbPolyline
 90
        3
 70
     0
 43
0.0006660908203125
 10
0.9670532474478861
 20
1.073295732478196
 10
0.9670532474478861
 20
1.186531171931323
 10
0.8538178079947602
 20
1.186531171931323
  0
LWPOLYLINE
  5
14FA137539F5
330
14FA13753AFA
100
AcDbEntity
  8
TEXT
100
AcDbPolyline
 90
        3
 70
     0
 43
0.0006660908203125
 10
0.940409614635385
 20
1.073295732478196
 10
0.940409614635385
 20
1.159887539118822
 10
0.8538178079947602
 20
1.159887539118822
  0
LWPOLYLINE
  5
14FA137539FA
330
14FA13753AFA
100
AcDbEntity
  8
TEXT
100
AcDbPolyline
 90
        2
 70
     0
 43
0.0001332181640625
 10
0.940409614635385
 20
1.159887539118822
 10
0.8804614408072612
 20
1.099939365290697
  0
LWPOLYLINE
  5
14FA137539FE
330
14FA13753AFA
100
AcDbEntity
  8
TEXT
100
AcDbPolyline
 90
        2
 70
     0
 43
0.0001332181640625
 10
0.8538178079947602
 20
1.159887539118822
 10
0.8438264456900714
 20
1.099939365290697
  0
LWPOLYLINE
  5
14FA13753A02
330
14FA13753AFA
100
AcDbEntity
  8
TEXT
100
AcDbPolyline
 90
        2
 70
     0
 43
0.0001332181640625
 10
0.8538178079947602
 20
1.186531171931323
 10
0.8438264456900714
 20
1.113261181696944
  0
LWPOLYLINE
  5
14FA13753A06
330
14FA13753AFA
100
AcDbEntity
  8
TEXT
100
AcDbPolyline
 90
        2
 70
     0
 43
0.0001332181640625
 10
0.89378325721351
 20
1.063304370173507
 10
0.9670532474478861
 20
1.073295732478196
  0
LWPOLYLINE
  5
14FA13753A0A
330
14FA13753AFA
100
AcDbEntity
  8
TEXT
100
AcDbPolyline
 90
        2
 70
     0
 43
0.0001332181640625
 10
0.940409614635385
 20
1.073295732478196
 10
0.8804614408072612
 20
1.063304370173507
  0
LWPOLYLINE
  5
14FA13753A0E
330
14FA13753AFA
100
AcDbEntity
  8
TEXT
100
AcDbPolyline
 90
        2
 70
     0
 43
0.0001332181640625
 10
0.9670532474478861
 20
1.033330283259448
 10
0.89378325721351
 20
1.043321645564133
  0
LWPOLYLINE
  5
14FA13753A12
330
14FA13753AFA
100
AcDbEntity
  8
TEXT
100
AcDbPolyline
 90
        2
 70
     0
 43
0.0001332181640625
 10
0.940409614635385
 20
1.033330283259448
 10
0.8804614408072612
 20
1.043321645564133
  0
LWPOLYLINE
  5
14FA13753A16
330
14FA13753AFA
100
AcDbEntity
  8
TEXT
100
AcDbPolyline
 90
        2
 70
     0
 43
0.0001332181640625
 10
0.940409614635385
 20
0.9467384766188216
 10
0.8804614408072612
 20
1.006686650446947
  0
LWPOLYLINE
  5
14FA13753A1A
330
14FA13753AFA
100
AcDbEntity
  8
TEXT
100
AcDbPolyline
 90
        3
 70
     0
 43
0.0006660908203125
 10
0.8538178079947602
 20
0.9467384766188216
 10
0.940409614635385
 20
0.9467384766188216
 10
0.940409614635385
 20
1.033330283259448
  0
LWPOLYLINE
  5
14FA13753A1F
330
14FA13753AFA
100
AcDbEntity
  8
TEXT
100
AcDbPolyline
 90
        3
 70
     0
 43
0.0006660908203125
 10
0.8538178079947602
 20
0.9200948438063205
 10
0.9670532474478861
 20
0.9200948438063205
 10
0.9670532474478861
 20
1.033330283259448
  0
LWPOLYLINE
  5
14FA13753A24
330
14FA13753AFA
100
AcDbEntity
  8
TEXT
100
AcDbPolyline
 90
        5
 70
     0
 43
0.0001332181640625
 10
0.8238437210806992
 20
0.9933648340406966
 10
0.8238437210806992
 20
1.006686650446947
 10
0.7872087259635113
 20
1.006686650446947
 10
0.7872087259635113
 20
1.043321645564133
 10
0.7738869095572607
 20
1.043321645564133
  0
LWPOLYLINE
  5
14FA13753A2B
330
14FA13753AFA
100
AcDbEntity
  8
TEXT
100
AcDbPolyline
 90
        2
 70
     0
 43
0.0006660908203125
 10
0.8138523587760086
 20
0.9467384766188216
 10
0.8138523587760086
 20
0.9200948438063205
  0
LWPOLYLINE
  5
14FA13753A2F
330
14FA13753AFA
100
AcDbEntity
  8
TEXT
100
AcDbPolyline
 90
        2
 70
     0
 43
0.0001332181640625
 10
0.8138523587760086
 20
0.9467384766188216
 10
0.8238437210806992
 20
1.006686650446947
  0
LWPOLYLINE
  5
14FA13753A33
330
14FA13753AFA
100
AcDbEntity
  8
TEXT
100
AcDbPolyline
 90
        2
 70
     0
 43
0.0001332181640625
 10
0.8138523587760086
 20
0.9200948438063205
 10
0.8238437210806992
 20
0.9933648340406966
  0
LWPOLYLINE
  5
14FA13753A37
330
14FA13753AFA
100
AcDbEntity
  8
TEXT
100
AcDbPolyline
 90
        5
 70
     0
 43
0.0001332181640625
 10
0.7738869095572607
 20
1.063304370173507
 10
0.7872087259635095
 20
1.063304370173507
 10
0.7872087259635095
 20
1.099939365290697
 10
0.8238437210806992
 20
1.099939365290697
 10
0.8238437210806992
 20
1.113261181696944
  0
LWPOLYLINE
  5
14FA13753A3E
330
14FA13753AFA
100
AcDbEntity
  8
TEXT
100
AcDbPolyline
 90
        5
 70
     0
 43
0.0001332181640625
 10
0.8438264456900714
 20
1.113261181696944
 10
0.8438264456900714
 20
1.099939365290697
 10
0.8804614408072612
 20
1.099939365290697
 10
0.8804614408072612
 20
1.063304370173507
 10
0.89378325721351
 20
1.063304370173507
  0
LWPOLYLINE
  5
14FA13753A45
330
14FA13753AFA
100
AcDbEntity
  8
TEXT
100
AcDbPolyline
 90
        2
 70
     0
 43
0.0001332181640625
 10
0.8538178079947602
 20
0.9467384766188216
 10
0.8438264456900714
 20
1.006686650446947
  0
LWPOLYLINE
  5
14FA13753A49
330
14FA13753AFA
100
AcDbEntity
  8
TEXT
100
AcDbPolyline
 90
        2
 70
     0
 43
0.0001332181640625
 10
0.8438264456900714
 20
0.9933648340406966
 10
0.8538178079947602
 20
0.9200948438063205
  0
LWPOLYLINE
  5
14FA13753A4D
330
14FA13753AFA
100
AcDbEntity
  8
TEXT
100
AcDbPolyline
 90
        2
 70
     0
 43
0.0006660908203125
 10
0.8538178079947602
 20
0.9467384766188216
 10
0.8538178079947602
 20
0.9200948438063205
  0
LWPOLYLINE
  5
14FA13753A51
330
14FA13753AFA
100
AcDbEntity
  8
TEXT
100
AcDbPolyline
 90
        5
 70
     0
 43
0.0001332181640625
 10
0.89378325721351
 20
1.043321645564133
 10
0.8804614408072612
 20
1.043321645564133
 10
0.8804614408072612
 20
1.006686650446947
 10
0.8438264456900714
 20
1.006686650446947
 10
0.8438264456900714
 20
0.9933648340406966
  0
LWPOLYLINE
  5
14FA13753A58
330
14FA13753AFA
100
AcDbEntity
  8
TEXT
100
AcDbPolyline
 90
        2
 70
     0
 43
0.0006660908203125
 10
0.940409614635385
 20
1.073295732478196
 10
0.9670532474478861
 20
1.073295732478196
  0
LWPOLYLINE
  5
14FA13753A5C
330
14FA13753AFA
100
AcDbEntity
  8
TEXT
100
AcDbPolyline
 90
        2
 70
     0
 43
0.0006660908203125
 10
0.940409614635385
 20
1.033330283259448
 10
0.9670532474478861
 20
1.033330283259448
  0
LINE
  5
14FA13753A60
330
14FA13753AFA
100
AcDbEntity
  8
TEXT
100
AcDbLine
 10
1.23716738429591
 20
1.122254477274554
 30
0.0
 11
1.404073038324882
 21
1.122254477274554
 31
0.0
  0
LINE
  5
14FA13753A61
330
14FA13753AFA
100
AcDbEntity
  8
TEXT
100
AcDbLine
 10
1.302767520540212
 20
1.086449755663926
 30
0.0
 11
1.23716738429591
 21
1.086449755663926
 31
0.0
  0
LINE
  5
14FA13753A62
330
14FA13753AFA
100
AcDbEntity
  8
TEXT
100
AcDbLine
 10
1.149842594735159
 20
0.9200581389428093
 30
0.0
 11
1.302767520540212
 21
0.9200581389428093
 31
0.0
  0
LINE
  5
14FA13753A63
330
14FA13753AFA
100
AcDbEntity
  8
TEXT
100
AcDbLine
 10
1.307707894446491
 20
0.9884151452762486
 30
0.0
 11
1.149842594735157
 21
0.9884151452762486
 31
0.0
  0
LINE
  5
14FA13753A64
330
14FA13753AFA
100
AcDbEntity
  8
TEXT
100
AcDbLine
 10
1.231930054181662
 20
1.022356253038313
 30
0.0
 11
1.307707894446491
 21
1.022356253038313
 31
0.0
  0
ARC
  5
14FA13753A65
330
14FA13753AFA
100
AcDbEntity
  8
TEXT
100
AcDbCircle
 10
1.237167384295911
 20
1.104352116469242
 30
0.0
 40
0.017902360805315
100
AcDbArc
 50
90.0
 51
270.0
  0
LINE
  5
14FA13753A66
330
14FA13753AFA
100
AcDbEntity
  8
TEXT
100
AcDbLine
 10
1.149842594735157
 20
0.9884151452762486
 30
0.0
 11
1.149842594735159
 21
0.9200581389428093
 31
0.0
  0
LINE
  5
14FA13753A67
330
14FA13753AFA
100
AcDbEntity
  8
TEXT
100
AcDbLine
 10
1.404073038324882
 20
1.122254477274554
 30
0.0
 11
1.404073038324882
 21
0.9798505302808591
 31
0.0
  0
ARC
  5
14FA13753A68
330
14FA13753AFA
100
AcDbEntity
  8
TEXT
100
AcDbCircle
 10
1.302767520540212
 20
1.003253947303366
 30
0.0
 40
0.0831958083605586
100
AcDbArc
 50
270.0
 51
90.0
  0
ARC
  5
14FA13753A69
330
14FA13753AFA
100
AcDbEntity
  8
TEXT
100
AcDbCircle
 10
1.307707894446492
 20
1.005385699157282
 30
0.0
 40
0.0169705538810321
100
AcDbArc
 50
270.0
 51
90.0
  0
LWPOLYLINE
  5
14FA13753A6A
330
14FA13753AFA
100
AcDbEntity
  8
TEXT
100
AcDbPolyline
 90
        2
 70
     0
 43
0.0006660908203125
 10
0.8138523587760086
 20
1.159887539118822
 10
0.8138523587760086
 20
1.186531171931323
  0
LWPOLYLINE
  5
14FA13753A6E
330
14FA13753AFA
100
AcDbEntity
  8
TEXT
100
AcDbPolyline
 90
        2
 70
     0
 43
0.0006660908203125
 10
0.8538178079947602
 20
1.159887539118822
 10
0.8538178079947602
 20
1.186531171931323
  0
LINE
  5
14FA13753A72
330
14FA13753AFA
100
AcDbEntity
  8
TEXT
100
AcDbLine
 10
1.407661807080175
 20
1.18653117193132
 30
0.0
 11
1.231930054181662
 21
1.18653117193132
 31
0.0
  0
LINE
  5
14FA13753A73
330
14FA13753AFA
100
AcDbEntity
  8
TEXT
100
AcDbLine
 10
1.407661807080175
 20
1.220919089525458
 30
0.0
 11
1.407661807080175
 21
1.18653117193132
 31
0.0
  0
LINE
  5
14FA13753A74
330
14FA13753AFA
100
AcDbEntity
  8
TEXT
100
AcDbLine
 10
1.598133699100027
 20
1.085659175818199
 30
0.0
 11
1.539503378068089
 21
1.18653117193132
 31
0.0
  0
LINE
  5
14FA13753A75
330
14FA13753AFA
100
AcDbEntity
  8
TEXT
100
AcDbLine
 10
1.656882261905892
 20
1.18653117193132
 30
0.0
 11
1.598133699100027
 21
1.085659175818199
 31
0.0
  0
LINE
  5
14FA13753A76
330
14FA13753AFA
100
AcDbEntity
  8
TEXT
100
AcDbLine
 10
1.753812887265634
 20
1.002445977045808
 30
0.0
 11
1.753812887265634
 21
1.25454264967013
 31
0.0
  0
LINE
  5
14FA13753A77
330
14FA13753AFA
100
AcDbEntity
  8
TEXT
100
AcDbLine
 10
1.786124741403294
 20
1.18653117193132
 30
0.0
 11
1.786124741403294
 21
0.985666965198912
 31
0.0
  0
LINE
  5
14FA13753A78
330
14FA13753AFA
100
AcDbEntity
  8
TEXT
100
AcDbLine
 10
1.786124741403294
 20
0.985666965198912
 30
0.0
 11
1.769131104518693
 21
0.985666965198912
 31
0.0
  0
LINE
  5
14FA13753A79
330
14FA13753AFA
100
AcDbEntity
  8
TEXT
100
AcDbLine
 10
1.754952460761828
 20
0.9200581389428093
 30
0.0
 11
1.852955794461263
 21
0.9200581389428093
 31
0.0
  0
LINE
  5
14FA13753A7A
330
14FA13753AFA
100
AcDbEntity
  8
TEXT
100
AcDbLine
 10
1.588533462103073
 20
0.9400166450478222
 30
0.0
 11
1.685833168196517
 21
1.10436685598309
 31
0.0
  0
ARC
  5
14FA13753A7B
330
14FA13753AFA
100
AcDbEntity
  8
TEXT
100
AcDbCircle
 10
1.554489902190859
 20
0.959605861216505
 30
0.0
 40
0.0392772371940762
100
AcDbArc
 50
270.1604552698595
 51
330.0831797321295
  0
LINE
  5
14FA13753A7C
330
14FA13753AFA
100
AcDbEntity
  8
TEXT
100
AcDbLine
 10
1.457959645804987
 20
0.9200581389428093
 30
0.0
 11
1.554599896879982
 21
0.9203287780410915
 31
0.0
  0
LWPOLYLINE
  5
14FA13753A7D
330
14FA13753AFA
100
AcDbEntity
  8
TEXT
100
AcDbPolyline
 90
        6
 70
     1
 43
0.0
 10
1.500483449380137
 20
1.122254477274554
 10
1.470166855159929
 20
1.122254477274554
 10
1.470166855159929
 20
0.9991434792196605
 42
0.407328721240804
 10
1.481710506321405
 20
0.9873245645432744
 10
1.542332205366136
 20
0.9873245645432744
 10
1.559797545773454
 20
1.020136793586753
  0
LINE
  5
14FA13753A85
330
14FA13753AFA
100
AcDbEntity
  8
TEXT
100
AcDbLine
 10
1.685833168196517
 20
1.10436685598309
 30
0.0
 11
1.685833168196517
 21
0.971609481157734
 31
0.0
  0
ARC
  5
14FA13753A86
330
14FA13753AFA
100
AcDbEntity
  8
TEXT
100
AcDbCircle
 10
1.769131104518691
 20
1.001048771442337
 30
0.0
 40
0.0153818062434269
100
AcDbArc
 50
174.7883570302258
 51
270.0
  0
LWPOLYLINE
  5
14FA13753A87
330
14FA13753AFA
100
AcDbEntity
  8
TEXT
100
AcDbPolyline
 90
        2
 70
     0
 43
0.0
 10
1.685833168196515
 20
0.9716094811577375
 42
0.3318488747599744
 10
1.754952460761828
 20
0.9200581389428093
 42
-6.868794160588311
  0
LINE
  5
14FA13753A8B
330
14FA13753AFA
100
AcDbEntity
  8
TEXT
100
AcDbLine
 10
1.910344863450524
 20
0.9200581389428093
 30
0.0
 11
1.977402910232364
 21
0.9200581389428093
 31
0.0
  0
LINE
  5
14FA13753A8C
330
14FA13753AFA
100
AcDbEntity
  8
TEXT
100
AcDbLine
 10
1.910344863450524
 20
1.114700688108444
 30
0.0
 11
1.910344863450524
 21
0.9200581389428093
 31
0.0
  0
LINE
  5
14FA13753A8D
330
14FA13753AFA
100
AcDbEntity
  8
TEXT
100
AcDbLine
 10
1.852955794461263
 20
1.122254477274554
 30
0.0
 11
1.902791074284411
 21
1.122254477274554
 31
0.0
  0
LINE
  5
14FA13753A8E
330
14FA13753AFA
100
AcDbEntity
  8
TEXT
100
AcDbLine
 10
1.852955794461263
 20
0.9200581389428093
 30
0.0
 11
1.852955794461263
 21
1.122254477274554
 31
0.0
  0
LWPOLYLINE
  5
14FA13753A8F
330
14FA13753AFA
100
AcDbEntity
  8
TEXT
100
AcDbPolyline
 90
        2
 70
     0
 43
0.0
 10
1.902791074284409
 20
1.122254477274554
 42
-0.4142135623731017
 10
1.910344863450522
 20
1.114700688108444
 42
-0.9999999999999998
  0
LINE
  5
14FA13753A93
330
14FA13753AFA
100
AcDbEntity
  8
TEXT
100
AcDbLine
 10
2.108601075062094
 20
1.122254477274554
 30
0.0
 11
2.108601075062094
 21
1.047202071200348
 31
0.0
  0
LINE
  5
14FA13753A94
330
14FA13753AFA
100
AcDbEntity
  8
TEXT
100
AcDbLine
 10
1.977402910232364
 20
1.122254477274554
 30
0.0
 11
2.031536507153314
 21
1.122254477274554
 31
0.0
  0
LINE
  5
14FA13753A95
330
14FA13753AFA
100
AcDbEntity
  8
TEXT
100
AcDbLine
 10
1.977402910232364
 20
0.9200581389428093
 30
0.0
 11
1.977402910232364
 21
1.122254477274554
 31
0.0
  0
LWPOLYLINE
  5
14FA13753A96
330
14FA13753AFA
100
AcDbEntity
  8
TEXT
100
AcDbPolyline
 90
        2
 70
     0
 43
0.0
 10
2.031536507153313
 20
1.122254477274554
 42
-0.4142135623731017
 10
2.039090296319426
 20
1.114700688108444
 42
-0.9999999999999998
  0
LWPOLYLINE
  5
14FA13753A9A
330
14FA13753AFA
100
AcDbEntity
  8
TEXT
100
AcDbPolyline
 90
        4
 70
     0
 43
0.0
 10
2.039090296319426
 20
1.114700688108444
 10
2.039090296319426
 20
0.9200581389428093
 10
2.107568579607284
 20
0.9200581389428093
 10
2.107568579607284
 20
0.9635490838932474
 42
-1.714843617202739
  0
LINE
  5
14FA13753AA0
330
14FA13753AFA
100
AcDbEntity
  8
TEXT
100
AcDbLine
 10
1.467704411924182
 20
1.18653117193132
 30
0.0
 11
1.467704411924182
 21
1.220919089525458
 31
0.0
  0
LINE
  5
14FA13753AA1
330
14FA13753AFA
100
AcDbEntity
  8
TEXT
100
AcDbLine
 10
1.539503378068089
 20
1.18653117193132
 30
0.0
 11
1.467704411924182
 21
1.18653117193132
 31
0.0
  0
LINE
  5
14FA13753AA2
330
14FA13753AFA
100
AcDbEntity
  8
TEXT
100
AcDbLine
 10
1.687004174699269
 20
1.18653117193132
 30
0.0
 11
1.656882261905892
 21
1.18653117193132
 31
0.0
  0
LINE
  5
14FA13753AA3
330
14FA13753AFA
100
AcDbEntity
  8
TEXT
100
AcDbLine
 10
1.687004174699269
 20
1.25454264967013
 30
0.0
 11
1.687004174699269
 21
1.18653117193132
 31
0.0
  0
LINE
  5
14FA13753AA4
330
14FA13753AFA
100
AcDbEntity
  8
TEXT
100
AcDbLine
 10
1.753812887265634
 20
1.25454264967013
 30
0.0
 11
1.687004174699269
 21
1.25454264967013
 31
0.0
  0
LWPOLYLINE
  5
14FA13753AA5
330
14FA13753AFA
100
AcDbEntity
  8
TEXT
100
AcDbPolyline
 90
        3
 70
     0
 43
0.0
 10
2.074224646863636
 20
1.186531171931323
 10
1.955924488047592
 20
1.186531171931323
 10
1.955924488047592
 20
1.159363675170427
 42
-1.960274751411753
  0
LINE
  5
14FA13753AAA
330
14FA13753AFA
100
AcDbEntity
  8
TEXT
100
AcDbLine
 10
1.92014279733443
 20
1.18653117193132
 30
0.0
 11
1.786124741403294
 21
1.18653117193132
 31
0.0
  0
LWPOLYLINE
  5
14FA13753AAB
330
14FA13753AFA
100
AcDbEntity
  8
TEXT
100
AcDbPolyline
 90
        2
 70
     0
 43
0.0
 10
1.92014279733443
 20
1.186531171931323
 42
-0.3328679258950098
 10
1.955924488047592
 20
1.159363675170427
 42
6.772930709997214
  0
LINE
  5
14FA13753AAF
330
14FA13753AFA
100
AcDbEntity
  8
TEXT
100
AcDbLine
 10
2.110006337576803
 20
1.18653117193132
 30
0.0
 11
2.110006337576803
 21
1.158208626161676
 31
0.0
  0
LWPOLYLINE
  5
14FA13753AB0
330
14FA13753AFA
100
AcDbEntity
  8
TEXT
100
AcDbPolyline
 90
        2
 70
     0
 43
0.0
 10
2.074224646863636
 20
1.186531171931323
 42
-0.3277054968067132
 10
2.110006337576801
 20
1.158208626161679
 42
6.667889725900311
  0
LINE
  5
14FA13753AB4
330
14FA13753AFA
100
AcDbEntity
  8
TEXT
100
AcDbLine
 10
2.323798185668903
 20
1.081319193377892
 30
0.0
 11
2.280047414487001
 21
1.163569469374038
 31
0.0
  0
LINE
  5
14FA13753AB5
330
14FA13753AFA
100
AcDbEntity
  8
TEXT
100
AcDbLine
 10
2.323798185668903
 20
1.18653117193132
 30
0.0
 11
2.323798185668903
 21
1.081319193377892
 31
0.0
  0
LINE
  5
14FA13753AB6
330
14FA13753AFA
100
AcDbEntity
  8
TEXT
100
AcDbLine
 10
2.551481924607272
 20
1.110665845519782
 30
0.0
 11
2.551481924607272
 21
1.25199537769892
 31
0.0
  0
LINE
  5
14FA13753AB7
330
14FA13753AFA
100
AcDbEntity
  8
TEXT
100
AcDbLine
 10
2.598580083163256
 20
1.18653117193132
 30
0.0
 11
2.551481924607272
 21
1.110665845519782
 31
0.0
  0
LINE
  5
14FA13753AB8
330
14FA13753AFA
100
AcDbEntity
  8
TEXT
100
AcDbLine
 10
2.609014799927179
 20
1.076637928990346
 30
0.0
 11
2.673571915892885
 21
1.18653117193132
 31
0.0
  0
LINE
  5
14FA13753AB9
330
14FA13753AFA
100
AcDbEntity
  8
TEXT
100
AcDbLine
 10
2.487646933384499
 20
0.9200581389428093
 30
0.0
 11
2.552025117703119
 21
0.9200581389428093
 31
0.0
  0
LWPOLYLINE
  5
14FA13753ABA
330
14FA13753AFA
100
AcDbEntity
  8
TEXT
100
AcDbPolyline
 90
        2
 70
     0
 43
0.0
 10
2.327737862973941
 20
0.9635490838932474
 42
-0.2901071551932486
 10
2.284661930106296
 20
0.9200581389428093
 42
-5.328517124445184
  0
ARC
  5
14FA13753ABE
330
14FA13753AFA
100
AcDbEntity
  8
TEXT
100
AcDbCircle
 10
2.215807348449382
 20
1.093895102274557
 30
0.0
 40
0.028359375
100
AcDbArc
 50
25.78218179591245
 51
90.0
  0
LINE
  5
14FA13753ABF
330
14FA13753AFA
100
AcDbEntity
  8
TEXT
100
AcDbLine
 10
2.251608423753505
 20
1.084979503812422
 30
0.0
 11
2.24134366333994
 21
1.106230043385116
 31
0.0
  0
LINE
  5
14FA13753AC0
330
14FA13753AFA
100
AcDbEntity
  8
TEXT
100
AcDbLine
 10
2.169320433970121
 20
1.084979503812422
 30
0.0
 11
2.251608423753505
 21
1.084979503812422
 31
0.0
  0
LWPOLYLINE
  5
14FA13753AC1
330
14FA13753AFA
100
AcDbEntity
  8
TEXT
100
AcDbPolyline
 90
        4
 70
     1
 43
0.0
 10
2.264539465036404
 20
1.023022116926834
 10
2.175879146376545
 20
1.023022116926834
 42
0.9999999999999998
 10
2.175879146376545
 20
0.9806235764229738
 10
2.264539465036404
 20
0.9806235764229738
 42
1.0
  0
LWPOLYLINE
  5
14FA13753AC7
330
14FA13753AFA
100
AcDbEntity
  8
TEXT
100
AcDbPolyline
 90
        2
 70
     0
 43
0.0
 10
2.15064451247492
 20
0.9200581389428093
 10
2.284661930106296
 20
0.9200581389428093
 42
0.9999999999999998
  0
LINE
  5
14FA13753ACB
330
14FA13753AFA
100
AcDbEntity
  8
TEXT
100
AcDbLine
 10
2.410998952091936
 20
1.122254477274554
 30
0.0
 11
2.487646933384493
 21
1.122254477274554
 31
0.0
  0
LINE
  5
14FA13753ACC
330
14FA13753AFA
100
AcDbEntity
  8
TEXT
100
AcDbLine
 10
2.487646933384493
 20
1.122254477274554
 30
0.0
 11
2.487646933384499
 21
0.9200581389428093
 31
0.0
  0
ARC
  5
14FA13753ACD
330
14FA13753AFA
100
AcDbEntity
  8
TEXT
100
AcDbCircle
 10
2.410998952091934
 20
1.097348601991892
 30
0.0
 40
0.0249058752826653
100
AcDbArc
 50
89.99971217465335
 51
179.9999999999985
  0
LINE
  5
14FA13753ACE
330
14FA13753AFA
100
AcDbEntity
  8
TEXT
100
AcDbLine
 10
2.386093076809276
 20
0.9200581389428093
 30
0.0
 11
2.386093076809271
 21
1.097348644374277
 31
0.0
  0
LWPOLYLINE
  5
14FA13753ACF
330
14FA13753AFA
100
AcDbEntity
  8
TEXT
100
AcDbPolyline
 90
        2
 70
     0
 43
0.0
 10
2.327737862973941
 20
0.9200581389428093
 10
2.386093076809275
 20
0.9200581389428093
  0
LWPOLYLINE
  5
14FA13753AD3
330
14FA13753AFA
100
AcDbEntity
  8
TEXT
100
AcDbPolyline
 90
        2
 70
     0
 43
0.0
 10
2.327737862973941
 20
0.9635490838932474
 10
2.327737862973941
 20
0.9200581389428093
  0
LINE
  5
14FA13753AD7
330
14FA13753AFA
100
AcDbEntity
  8
TEXT
100
AcDbLine
 10
2.70450702329079
 20
0.9200581389428093
 30
0.0
 11
2.609014799927179
 21
1.076637928990346
 31
0.0
  0
LINE
  5
14FA13753AD8
330
14FA13753AFA
100
AcDbEntity
  8
TEXT
100
AcDbLine
 10
2.627928650914584
 20
0.9200581389428093
 30
0.0
 11
2.70450702329079
 21
0.9200581389428093
 31
0.0
  0
LINE
  5
14FA13753AD9
330
14FA13753AFA
100
AcDbEntity
  8
TEXT
100
AcDbLine
 10
2.552025117703119
 20
1.051637707418989
 30
0.0
 11
2.627928650914584
 21
0.9200581389428093
 31
0.0
  0
LINE
  5
14FA13753ADA
330
14FA13753AFA
100
AcDbEntity
  8
TEXT
100
AcDbLine
 10
2.552025117703119
 20
0.9200581389428093
 30
0.0
 11
2.552025117703119
 21
1.051637707418989
 31
0.0
  0
LINE
  5
14FA13753ADB
330
14FA13753AFA
100
AcDbEntity
  8
TEXT
100
AcDbLine
 10
2.551481924607272
 20
1.25199537769892
 30
0.0
 11
2.483167046057999
 21
1.25199537769892
 31
0.0
  0
ARC
  5
14FA13753ADC
330
14FA13753AFA
100
AcDbEntity
  8
TEXT
100
AcDbCircle
 10
2.242811307016792
 20
1.144947604810417
 30
0.0
 40
0.0416329381542859
100
AcDbArc
 50
26.56974201007528
 51
87.20939649401342
  0
LINE
  5
14FA13753ADD
330
14FA13753AFA
100
AcDbEntity
  8
TEXT
100
AcDbLine
 10
2.387695091968404
 20
1.18653117193132
 30
0.0
 11
2.323798185668903
 21
1.18653117193132
 31
0.0
  0
LINE
  5
14FA13753ADE
330
14FA13753AFA
100
AcDbEntity
  8
TEXT
100
AcDbLine
 10
2.387695091968404
 20
1.158983522070445
 30
0.0
 11
2.387695091968404
 21
1.18653117193132
 31
0.0
  0
ARC
  5
14FA13753ADF
330
14FA13753AFA
100
AcDbEntity
  8
TEXT
100
AcDbCircle
 10
2.418887909031512
 20
1.155285444649055
 30
0.0
 40
0.0314112657011332
100
AcDbArc
 50
95.88484768694724
 51
173.2388340632136
  0
LINE
  5
14FA13753AE0
330
14FA13753AFA
100
AcDbEntity
  8
TEXT
100
AcDbLine
 10
2.483167046057993
 20
1.18653117193132
 30
0.0
 11
2.415667328408477
 21
1.18653117193132
 31
0.0
  0
LINE
  5
14FA13753AE1
330
14FA13753AFA
100
AcDbEntity
  8
TEXT
100
AcDbLine
 10
2.483167046057999
 20
1.25199537769892
 30
0.0
 11
2.483167046057993
 21
1.18653117193132
 31
0.0
  0
LINE
  5
14FA13753AE2
330
14FA13753AFA
100
AcDbEntity
  8
TEXT
100
AcDbLine
 10
2.673571915892885
 20
1.18653117193132
 30
0.0
 11
2.598580083163258
 21
1.18653117193132
 31
0.0
  0
ENDSEC
  0
SECTION
  2
OBJECTS
  0
DICTIONARY
  5
14FA13753AEE
330
0
100
AcDbDictionary
  3
ACAD_GROUP
350
14FA13753AEF
  3
ACAD_LAYOUT
350
14FA13753B14
  3
ACAD_MLINESTYLE
350
14FA13753AF0
  3
ACAD_PLOTSETTINGS
350
14FA13753B15
  3
ACAD_PLOTSTYLENAME
350
14FA13753B12
  3
ACDBHEADERROUNDTRIPXREC
350
14FA13753B1F
  3
ACDBVARIABLEDICTIONARY
350
14FA13753B1C
  0
DICTIONARY
  5
14FA13753B41
330
14FA13753AFA
100
AcDbDictionary
280
     1
  3
ACAD_LAYOUTSELFREF
360
14FA13753B42
  0
DICTIONARY
  5
14FA13753B3F
330
14FA13753AF7
100
AcDbDictionary
280
     1
  3
ACAD_LAYOUTSELFREF
360
14FA13753B40
  0
DICTIONARY
  5
14FA13753AEF
102
{ACAD_REACTORS
330
14FA13753AEE
102
}
330
14FA13753AEE
100
AcDbDictionary
  0
DICTIONARY
  5
14FA13753B14
102
{ACAD_REACTORS
330
14FA13753AEE
102
}
330
14FA13753AEE
100
AcDbDictionary
  0
DICTIONARY
  5
14FA13753AF0
102
{ACAD_REACTORS
330
14FA13753AEE
102
}
330
14FA13753AEE
100
AcDbDictionary
  3
STANDARD
350
14FA13753AFD
  0
DICTIONARY
  5
14FA13753B15
102
{ACAD_REACTORS
330
14FA13753AEE
102
}
330
14FA13753AEE
100
AcDbDictionary
  0
ACDBDICTIONARYWDFLT
  5
14FA13753B12
102
{ACAD_REACTORS
330
14FA13753AEE
102
}
330
14FA13753AEE
100
AcDbDictionary
281
     1
  3
Normal
350
14FA13753B13
100
AcDbDictionaryWithDefault
340
14FA13753B13
  0
DICTIONARY
  5
14FA13753B1F
102
{ACAD_REACTORS
330
14FA13753AEE
102
}
330
14FA13753AEE
100
AcDbDictionary
  3
CEPSNTYPE
350
14FA13753B29
  3
FINGERPRINTGUID
350
14FA13753B2A
  3
HYPERLINKBASE
350
14FA13753B22
  3
INSUNITS
350
14FA13753B28
  3
LAYOUTDICT
350
14FA13753B24
  3
LWETCUNION
350
14FA13753B27
  3
PLOTSETDICT
350
14FA13753B25
  3
PLOTSTYLNAMDICT
350
14FA13753B26
  3
PSVPSCALE
350
14FA13753B2C
  3
PUCSBASE
350
14FA13753B2F
  3
PUCSORGBACK
350
14FA13753B35
  3
PUCSORGBOTTOM
350
14FA13753B31
  3
PUCSORGFRONT
350
14FA13753B34
  3
PUCSORGLEFT
350
14FA13753B32
  3
PUCSORGRIGHT
350
14FA13753B33
  3
PUCSORGTOP
350
14FA13753B30
  3
PUCSORTHOREF
350
14FA13753B2D
  3
PUCSORTHOVIEW
350
14FA13753B2E
  3
STYLESHEET
350
14FA13753B23
  3
TSTACKALIGN
350
14FA13753B20
  3
TSTACKSIZE
350
14FA13753B21
  3
UCSBASE
350
14FA13753B38
  3
UCSORGBACK
350
14FA13753B3E
  3
UCSORGBOTTOM
350
14FA13753B3A
  3
UCSORGFRONT
350
14FA13753B3D
  3
UCSORGLEFT
350
14FA13753B3B
  3
UCSORGRIGHT
350
14FA13753B3C
  3
UCSORGTOP
350
14FA13753B39
  3
UCSORTHOREF
350
14FA13753B36
  3
UCSORTHOVIEW
350
14FA13753B37
  3
VERSIONGUID
350
14FA13753B2B
  0
DICTIONARY
  5
14FA13753B1C
102
{ACAD_REACTORS
330
14FA13753AEE
102
}
330
14FA13753AEE
100
AcDbDictionary
  3
DIMASSOC
350
14FA13753B1D
  0
XRECORD
  5
14FA13753B42
102
{ACAD_REACTORS
330
14FA13753B41
102
}
330
14FA13753B41
100
AcDbXrecord
340
14FA13753AFA
  0
XRECORD
  5
14FA13753B40
102
{ACAD_REACTORS
330
14FA13753B3F
102
}
330
14FA13753B3F
100
AcDbXrecord
340
14FA13753AF7
  0
MLINESTYLE
  5
14FA13753AFD
102
{ACAD_REACTORS
330
14FA13753AF0
102
}
330
14FA13753AF0
100
AcDbMlineStyle
  2
STANDARD
 70
     0
  3

 62
     0
 51
90.0
 52
90.0
 71
     2
 49
0.5
 62
   256
  6
BYLAYER
 49
-0.5
 62
   256
  6
BYLAYER
  0
ACDBPLACEHOLDER
  5
14FA13753B13
102
{ACAD_REACTORS
330
14FA13753B12
102
}
330
14FA13753B12
100
AcDbPlaceHolder
280
     0
  0
XRECORD
  5
14FA13753B29
102
{ACAD_REACTORS
330
14FA13753B1F
102
}
330
14FA13753B1F
100
AcDbXrecord
 90
        0
  0
XRECORD
  5
14FA13753B2A
102
{ACAD_REACTORS
330
14FA13753B1F
102
}
330
14FA13753B1F
100
AcDbXrecord
  1
{CD85B7E0-8DB3-11D6-88E6-0090279574E7}
  0
XRECORD
  5
14FA13753B22
102
{ACAD_REACTORS
330
14FA13753B1F
102
}
330
14FA13753B1F
100
AcDbXrecord
  1

  0
XRECORD
  5
14FA13753B28
102
{ACAD_REACTORS
330
14FA13753B1F
102
}
330
14FA13753B1F
100
AcDbXrecord
 90
        0
  0
XRECORD
  5
14FA13753B24
102
{ACAD_REACTORS
330
14FA13753B1F
102
}
330
14FA13753B1F
100
AcDbXrecord
340
14FA13753B14
  0
XRECORD
  5
14FA13753B27
102
{ACAD_REACTORS
330
14FA13753B1F
102
}
330
14FA13753B1F
100
AcDbXrecord
 90
    14877
  0
XRECORD
  5
14FA13753B25
102
{ACAD_REACTORS
330
14FA13753B1F
102
}
330
14FA13753B1F
100
AcDbXrecord
340
14FA13753B15
  0
XRECORD
  5
14FA13753B26
102
{ACAD_REACTORS
330
14FA13753B1F
102
}
330
14FA13753B1F
100
AcDbXrecord
340
14FA13753B12
  0
XRECORD
  5
14FA13753B2C
102
{ACAD_REACTORS
330
14FA13753B1F
102
}
330
14FA13753B1F
100
AcDbXrecord
 40
0.0
  0
XRECORD
  5
14FA13753B2F
102
{ACAD_REACTORS
330
14FA13753B1F
102
}
330
14FA13753B1F
100
AcDbXrecord
340
0
  0
XRECORD
  5
14FA13753B35
102
{ACAD_REACTORS
330
14FA13753B1F
102
}
330
14FA13753B1F
100
AcDbXrecord
 10
0.0
 20
0.0
 30
0.0
  0
XRECORD
  5
14FA13753B31
102
{ACAD_REACTORS
330
14FA13753B1F
102
}
330
14FA13753B1F
100
AcDbXrecord
 10
0.0
 20
0.0
 30
0.0
  0
XRECORD
  5
14FA13753B34
102
{ACAD_REACTORS
330
14FA13753B1F
102
}
330
14FA13753B1F
100
AcDbXrecord
 10
0.0
 20
0.0
 30
0.0
  0
XRECORD
  5
14FA13753B32
102
{ACAD_REACTORS
330
14FA13753B1F
102
}
330
14FA13753B1F
100
AcDbXrecord
 10
0.0
 20
0.0
 30
0.0
  0
XRECORD
  5
14FA13753B33
102
{ACAD_REACTORS
330
14FA13753B1F
102
}
330
14FA13753B1F
100
AcDbXrecord
 10
0.0
 20
0.0
 30
0.0
  0
XRECORD
  5
14FA13753B30
102
{ACAD_REACTORS
330
14FA13753B1F
102
}
330
14FA13753B1F
100
AcDbXrecord
 10
0.0
 20
0.0
 30
0.0
  0
XRECORD
  5
14FA13753B2D
102
{ACAD_REACTORS
330
14FA13753B1F
102
}
330
14FA13753B1F
100
AcDbXrecord
340
0
  0
XRECORD
  5
14FA13753B2E
102
{ACAD_REACTORS
330
14FA13753B1F
102
}
330
14FA13753B1F
100
AcDbXrecord
 70
     0
  0
XRECORD
  5
14FA13753B23
102
{ACAD_REACTORS
330
14FA13753B1F
102
}
330
14FA13753B1F
100
AcDbXrecord
  1

  0
XRECORD
  5
14FA13753B20
102
{ACAD_REACTORS
330
14FA13753B1F
102
}
330
14FA13753B1F
100
AcDbXrecord
 90
        1
  0
XRECORD
  5
14FA13753B21
102
{ACAD_REACTORS
330
14FA13753B1F
102
}
330
14FA13753B1F
100
AcDbXrecord
 90
       70
  0
XRECORD
  5
14FA13753B38
102
{ACAD_REACTORS
330
14FA13753B1F
102
}
330
14FA13753B1F
100
AcDbXrecord
340
0
  0
XRECORD
  5
14FA13753B3E
102
{ACAD_REACTORS
330
14FA13753B1F
102
}
330
14FA13753B1F
100
AcDbXrecord
 10
0.0
 20
0.0
 30
0.0
  0
XRECORD
  5
14FA13753B3A
102
{ACAD_REACTORS
330
14FA13753B1F
102
}
330
14FA13753B1F
100
AcDbXrecord
 10
0.0
 20
0.0
 30
0.0
  0
XRECORD
  5
14FA13753B3D
102
{ACAD_REACTORS
330
14FA13753B1F
102
}
330
14FA13753B1F
100
AcDbXrecord
 10
0.0
 20
0.0
 30
0.0
  0
XRECORD
  5
14FA13753B3B
102
{ACAD_REACTORS
330
14FA13753B1F
102
}
330
14FA13753B1F
100
AcDbXrecord
 10
0.0
 20
0.0
 30
0.0
  0
XRECORD
  5
14FA13753B3C
102
{ACAD_REACTORS
330
14FA13753B1F
102
}
330
14FA13753B1F
100
AcDbXrecord
 10
0.0
 20
0.0
 30
0.0
  0
XRECORD
  5
14FA13753B39
102
{ACAD_REACTORS
330
14FA13753B1F
102
}
330
14FA13753B1F
100
AcDbXrecord
 10
0.0
 20
0.0
 30
0.0
  0
XRECORD
  5
14FA13753B36
102
{ACAD_REACTORS
330
14FA13753B1F
102
}
330
14FA13753B1F
100
AcDbXrecord
340
0
  0
XRECORD
  5
14FA13753B37
102
{ACAD_REACTORS
330
14FA13753B1F
102
}
330
14FA13753B1F
100
AcDbXrecord
 70
     0
  0
XRECORD
  5
14FA13753B2B
102
{ACAD_REACTORS
330
14FA13753B1F
102
}
330
14FA13753B1F
100
AcDbXrecord
  1
{CD85B7E2-8DB3-11D6-88E6-0090279574E7}
  0
DICTIONARYVAR
  5
14FA13753B1D
102
{ACAD_REACTORS
330
14FA13753B1C
102
}
330
14FA13753B1C
100
DictionaryVariables
280
     0
  1
1
  0
ENDSEC
  0
EOF
