  0
SECTION
  2
HEADER
  9
$ACADVER
  1
AC1014
  9
$ACADMAINTVER
 70
     9
  9
$DWGCODEPAGE
  3
ANSI_1252
  9
$INSBASE
 10
2.107704643182197
 20
1.24521072029128
 30
0.0
  9
$EXTMIN
 10
0.3647230639550544
 20
0.3653171162086986
 30
0.0
  9
$EXTMAX
 10
3.849942385702182
 20
1.601423923726876
 30
0.0
  9
$LIMMIN
 10
0.0
 20
0.0
  9
$LIMMAX
 10
18.0
 20
12.0
  9
$ORTHOMODE
 70
     1
  9
$REGENMODE
 70
     1
  9
$FILLMODE
 70
     1
  9
$QTEXTMODE
 70
     0
  9
$MIRRTEXT
 70
     0
  9
$DRAGMODE
 70
     2
  9
$LTSCALE
 40
1.0
  9
$OSMODE
 70
    39
  9
$ATTMODE
 70
     1
  9
$TEXTSIZE
 40
0.125
  9
$TRACEWID
 40
0.05
  9
$TEXTSTYLE
  7
ROMANS
  9
$CLAYER
  8
0
  9
$CELTYPE
  6
BYLAYER
  9
$CECOLOR
 62
   256
  9
$CELTSCALE
 40
1.0
  9
$DELOBJ
 70
     1
  9
$DISPSILH
 70
     1
  9
$DIMSCALE
 40
1.0
  9
$DIMASZ
 40
0.125
  9
$DIMEXO
 40
0.125
  9
$DIMDLI
 40
0.375
  9
$DIMRND
 40
0.0
  9
$DIMDLE
 40
0.0
  9
$DIMEXE
 40
0.125
  9
$DIMTP
 40
0.0
  9
$DIMTM
 40
0.0
  9
$DIMTXT
 40
0.125
  9
$DIMCEN
 40
-0.125
  9
$DIMTSZ
 40
0.0
  9
$DIMTOL
 70
     0
  9
$DIMLIM
 70
     0
  9
$DIMTIH
 70
     1
  9
$DIMTOH
 70
     1
  9
$DIMSE1
 70
     0
  9
$DIMSE2
 70
     0
  9
$DIMTAD
 70
     0
  9
$DIMZIN
 70
     4
  9
$DIMBLK
  1

  9
$DIMASO
 70
     1
  9
$DIMSHO
 70
     1
  9
$DIMPOST
  1

  9
$DIMAPOST
  1

  9
$DIMALT
 70
     0
  9
$DIMALTD
 70
     2
  9
$DIMALTF
 40
25.4
  9
$DIMLFAC
 40
1.0
  9
$DIMTOFL
 70
     0
  9
$DIMTVP
 40
0.0
  9
$DIMTIX
 70
     1
  9
$DIMSOXD
 70
     0
  9
$DIMSAH
 70
     0
  9
$DIMBLK1
  1

  9
$DIMBLK2
  1

  9
$DIMSTYLE
  2
STANDARD
  9
$DIMCLRD
 70
     0
  9
$DIMCLRE
 70
     0
  9
$DIMCLRT
 70
     0
  9
$DIMTFAC
 40
1.0
  9
$DIMGAP
 40
0.09
  9
$DIMJUST
 70
     0
  9
$DIMSD1
 70
     0
  9
$DIMSD2
 70
     0
  9
$DIMTOLJ
 70
     1
  9
$DIMTZIN
 70
     4
  9
$DIMALTZ
 70
     0
  9
$DIMALTTZ
 70
     0
  9
$DIMFIT
 70
     3
  9
$DIMUPT
 70
     0
  9
$DIMUNIT
 70
     2
  9
$DIMDEC
 70
     3
  9
$DIMTDEC
 70
     3
  9
$DIMALTU
 70
     2
  9
$DIMALTTD
 70
     2
  9
$DIMTXSTY
  7
ROMANS
  9
$DIMAUNIT
 70
     0
  9
$LUNITS
 70
     2
  9
$LUPREC
 70
     3
  9
$SKETCHINC
 40
0.1
  9
$FILLETRAD
 40
0.03125
  9
$AUNITS
 70
     0
  9
$AUPREC
 70
     0
  9
$MENU
  1
ACAD
  9
$ELEVATION
 40
0.0
  9
$PELEVATION
 40
0.0
  9
$THICKNESS
 40
0.0
  9
$LIMCHECK
 70
     0
  9
$BLIPMODE
 70
     0
  9
$CHAMFERA
 40
0.0
  9
$CHAMFERB
 40
0.0
  9
$CHAMFERC
 40
0.0
  9
$CHAMFERD
 40
0.0
  9
$SKPOLY
 70
     0
  9
$TDCREATE
 40
2448993.473729166
  9
$TDUPDATE
 40
2452458.294460659
  9
$TDINDWG
 40
0.0007371412
  9
$TDUSRTIMER
 40
0.0007371412
  9
$USRTIMER
 70
     1
  9
$ANGBASE
 50
0.0
  9
$ANGDIR
 70
     0
  9
$PDMODE
 70
     0
  9
$PDSIZE
 40
0.0
  9
$PLINEWID
 40
0.0
  9
$COORDS
 70
     2
  9
$SPLFRAME
 70
     0
  9
$SPLINETYPE
 70
     6
  9
$SPLINESEGS
 70
     8
  9
$ATTDIA
 70
     0
  9
$ATTREQ
 70
     1
  9
$HANDLING
 70
 22529
  9
$HANDSEED
  5
3EEE3A5F8EE3
  9
$SURFTAB1
 70
     6
  9
$SURFTAB2
 70
     6
  9
$SURFTYPE
 70
     6
  9
$SURFU
 70
     6
  9
$SURFV
 70
     6
  9
$UCSNAME
  2

  9
$UCSORG
 10
0.0
 20
0.0
 30
0.0
  9
$UCSXDIR
 10
1.0
 20
0.0
 30
0.0
  9
$UCSYDIR
 10
0.0
 20
1.0
 30
0.0
  9
$PUCSNAME
  2

  9
$PUCSORG
 10
0.0
 20
0.0
 30
0.0
  9
$PUCSXDIR
 10
1.0
 20
0.0
 30
0.0
  9
$PUCSYDIR
 10
0.0
 20
1.0
 30
0.0
  9
$USERI1
 70
     0
  9
$USERI2
 70
     0
  9
$USERI3
 70
     0
  9
$USERI4
 70
     0
  9
$USERI5
 70
     0
  9
$USERR1
 40
0.0
  9
$USERR2
 40
0.0
  9
$USERR3
 40
0.0
  9
$USERR4
 40
0.0
  9
$USERR5
 40
0.0
  9
$WORLDVIEW
 70
     1
  9
$SHADEDGE
 70
     3
  9
$SHADEDIF
 70
    70
  9
$TILEMODE
 70
     1
  9
$MAXACTVP
 70
    16
  9
$PINSBASE
 10
1.233923287438347
 20
50.00000000000001
 30
1.667682927144677
  9
$PLIMCHECK
 70
     0
  9
$PEXTMIN
 10
1.000000000000000E+20
 20
1.000000000000000E+20
 30
1.000000000000000E+20
  9
$PEXTMAX
 10
-1.000000000000000E+20
 20
-1.000000000000000E+20
 30
-1.000000000000000E+20
  9
$PLIMMIN
 10
0.0
 20
0.0
  9
$PLIMMAX
 10
12.0
 20
9.0
  9
$UNITMODE
 70
     0
  9
$VISRETAIN
 70
     0
  9
$PLINEGEN
 70
     1
  9
$PSLTSCALE
 70
     0
  9
$TREEDEPTH
 70
  3020
  9
$PICKSTYLE
 70
     1
  9
$CMLSTYLE
  2
STANDARD
  9
$CMLJUST
 70
     0
  9
$CMLSCALE
 40
1.0
  9
$PROXYGRAPHICS
 70
     1
  9
$MEASUREMENT
 70
     0
  0
ENDSEC
  0
SECTION
  2
CLASSES
  0
CLASS
  1
LWPOLYLINE
  2
AcDbPolyline
  3
AutoCAD 2000
 90
        0
280
     0
281
     1
  0
CLASS
  1
ACDBDICTIONARYWDFLT
  2
AcDbDictionaryWithDefault
  3
AutoCAD 2000
 90
        0
280
     0
281
     0
  0
CLASS
  1
ACDBPLACEHOLDER
  2
AcDbPlaceHolder
  3
AutoCAD 2000
 90
        0
280
     0
281
     0
  0
CLASS
  1
LAYOUT
  2
AcDbLayout
  3
AutoCAD 2000
 90
        0
280
     0
281
     0
  0
CLASS
  1
DICTIONARYVAR
  2
AcDbDictionaryVar
  3
AutoCAD 2000
 90
        0
280
     0
281
     0
  0
CLASS
  1
LONG_TRANSACTION
  2
AcDbLongTransaction
  3
AutoCAD 2000
 90
        0
280
     0
281
     0
  0
CLASS
  1
LWPOLYLINE
  2
AcDbPolyline
  3
AutoCAD 2000
 90
        0
280
     0
281
     1
  0
CLASS
  1
HATCH
  2
AcDbHatch
  3
AutoCAD 2000
 90
        0
280
     0
281
     1
  0
CLASS
  1
XRECORD
  2
AcDbXrecord
  3
AutoCAD 2000
 90
        0
280
     0
281
     0
  0
ENDSEC
  0
SECTION
  2
TABLES
  0
TABLE
  2
VPORT
  5
3EEE3A5F8E8A
330
0
100
AcDbSymbolTable
 70
     2
  0
VPORT
  5
3EEE3A5F8EBE
330
3EEE3A5F8E8A
100
AcDbSymbolTableRecord
100
AcDbViewportTableRecord
  2
*ACTIVE
 70
     0
 10
0.0
 20
0.0
 11
1.0
 21
1.0
 12
5.083102069993654
 22
0.9833679420214238
 13
0.0
 23
0.0
 14
0.015625
 24
0.015625
 15
0.0
 25
0.0
 16
0.0
 26
0.0
 36
1.0
 17
0.0
 27
0.0
 37
0.0
 40
2.282647215150728
 41
4.320930232558139
 42
50.0
 43
0.0
 44
0.0
 50
0.0
 51
0.0
 71
     0
 72
  2000
 73
     1
 74
     0
 75
     1
 76
     0
 77
     0
 78
     0
  0
ENDTAB
  0
TABLE
  2
LTYPE
  5
3EEE3A5F8E87
330
0
100
AcDbSymbolTable
 70
     1
  0
LTYPE
  5
3EEE3A5F8E94
330
3EEE3A5F8E87
100
AcDbSymbolTableRecord
100
AcDbLinetypeTableRecord
  2
BYBLOCK
 70
     0
  3

 72
    65
 73
     0
 40
0.0
  0
LTYPE
  5
3EEE3A5F8E95
330
3EEE3A5F8E87
100
AcDbSymbolTableRecord
100
AcDbLinetypeTableRecord
  2
BYLAYER
 70
     0
  3

 72
    65
 73
     0
 40
0.0
  0
LTYPE
  5
3EEE3A5F8E96
330
3EEE3A5F8E87
100
AcDbSymbolTableRecord
100
AcDbLinetypeTableRecord
  2
CONTINUOUS
 70
     0
  3
Solid line
 72
    65
 73
     0
 40
0.0
  0
ENDTAB
  0
TABLE
  2
LAYER
  5
3EEE3A5F8E84
330
0
100
AcDbSymbolTable
 70
     2
  0
LAYER
  5
3EEE3A5F8E91
330
3EEE3A5F8E84
100
AcDbSymbolTableRecord
100
AcDbLayerTableRecord
  2
0
 70
     0
 62
     7
  6
CONTINUOUS
  0
LAYER
  5
3EEE3A5F8EA1
330
3EEE3A5F8E84
100
AcDbSymbolTableRecord
100
AcDbLayerTableRecord
  2
TEXT
 70
     0
 62
     3
  6
CONTINUOUS
  0
ENDTAB
  0
TABLE
  2
STYLE
  5
3EEE3A5F8E85
330
0
100
AcDbSymbolTable
 70
     3
  0
STYLE
  5
3EEE3A5F8E92
330
3EEE3A5F8E85
100
AcDbSymbolTableRecord
100
AcDbTextStyleTableRecord
  2
STANDARD
 70
     0
 40
0.0
 41
1.0
 50
0.0
 71
     0
 42
0.3125
  3
txt
  4

  0
STYLE
  5
3EEE3A5F8E9E
330
3EEE3A5F8E85
100
AcDbSymbolTableRecord
100
AcDbTextStyleTableRecord
  2
ITALICC
 70
     0
 40
0.0
 41
1.0
 50
0.0
 71
     0
 42
0.125
  3
italicc
  4

  0
STYLE
  5
3EEE3A5F8EAE
330
3EEE3A5F8E85
100
AcDbSymbolTableRecord
100
AcDbTextStyleTableRecord
  2
ROMANS
 70
     0
 40
0.0
 41
1.0
 50
0.0
 71
     0
 42
0.125
  3
romans.shx
  4

  0
ENDTAB
  0
TABLE
  2
VIEW
  5
3EEE3A5F8E88
330
0
100
AcDbSymbolTable
 70
     0
  0
ENDTAB
  0
TABLE
  2
UCS
  5
3EEE3A5F8E89
330
0
100
AcDbSymbolTable
 70
     0
  0
ENDTAB
  0
TABLE
  2
APPID
  5
3EEE3A5F8E8B
330
0
100
AcDbSymbolTable
 70
     1
  0
APPID
  5
3EEE3A5F8E93
330
3EEE3A5F8E8B
100
AcDbSymbolTableRecord
100
AcDbRegAppTableRecord
  2
ACAD
 70
     0
  0
ENDTAB
  0
TABLE
  2
DIMSTYLE
  5
3EEE3A5F8E8C
330
0
100
AcDbSymbolTable
 70
     1
  0
DIMSTYLE
105
3EEE3A5F8EA6
330
3EEE3A5F8E8C
100
AcDbSymbolTableRecord
100
AcDbDimStyleTableRecord
  2
STANDARD
 70
     0
  3

  4

  5

  6

  7

 40
1.0
 41
0.125
 42
0.125
 43
0.375
 44
0.125
 45
0.0
 46
0.0
 47
0.0
 48
0.0
140
0.125
141
-0.125
142
0.0
143
25.4
144
1.0
145
0.0
146
1.0
147
0.09
 71
     0
 72
     0
 73
     1
 74
     1
 75
     0
 76
     0
 77
     0
 78
     4
170
     0
171
     2
172
     0
173
     0
174
     1
175
     0
176
     0
177
     0
178
     0
270
     2
271
     3
272
     3
273
     2
274
     2
340
3EEE3A5F8EAE
275
     0
280
     0
281
     0
282
     0
283
     1
284
     4
285
     0
286
     0
287
     3
288
     0
  0
ENDTAB
  0
TABLE
  2
BLOCK_RECORD
  5
3EEE3A5F8E83
330
0
100
AcDbSymbolTable
 70
     0
  0
BLOCK_RECORD
  5
3EEE3A5F8E9A
102
{ACAD_XDICTIONARY
360
3EEE3A5F8EE1
102
}
330
3EEE3A5F8E83
100
AcDbSymbolTableRecord
100
AcDbBlockTableRecord
  2
*MODEL_SPACE
  0
BLOCK_RECORD
  5
3EEE3A5F8E97
102
{ACAD_XDICTIONARY
360
3EEE3A5F8EDF
102
}
330
3EEE3A5F8E83
100
AcDbSymbolTableRecord
100
AcDbBlockTableRecord
  2
*PAPER_SPACE
  0
ENDTAB
  0
ENDSEC
  0
SECTION
  2
BLOCKS
  0
BLOCK
  5
3EEE3A5F8EA4
330
3EEE3A5F8E9A
100
AcDbEntity
  8
0
100
AcDbBlockBegin
  2
*MODEL_SPACE
 70
     0
 10
0.0
 20
0.0
 30
0.0
  3
*MODEL_SPACE
  1

  0
ENDBLK
  5
3EEE3A5F8EA5
330
3EEE3A5F8E9A
100
AcDbEntity
  8
0
100
AcDbBlockEnd
  0
BLOCK
  5
3EEE3A5F8EA2
330
3EEE3A5F8E97
100
AcDbEntity
 67
     1
  8
0
100
AcDbBlockBegin
  2
*PAPER_SPACE
 70
     0
 10
0.0
 20
0.0
 30
0.0
  3
*PAPER_SPACE
  1

  0
ENDBLK
  5
3EEE3A5F8EA3
330
3EEE3A5F8E97
100
AcDbEntity
 67
     1
  8
0
100
AcDbBlockEnd
  0
ENDSEC
  0
SECTION
  2
ENTITIES
  0
LWPOLYLINE
  5
3EEE3A5F78A7
330
3EEE3A5F8E9A
100
AcDbEntity
  8
0
100
AcDbPolyline
 90
       46
 70
     1
 43
0.0
 10
2.671204643182197
 20
1.595210720291279
 10
2.671204643182197
 20
1.595210720291279
 42
0.4142135623730951
 10
2.641204643182197
 20
1.565210720291279
 10
2.641204643182197
 20
1.343210720291279
 42
-0.4142135623730951
 10
2.611204643182197
 20
1.313210720291279
 10
2.46062869528482
 20
1.313210720291279
 42
-0.3639702342662025
 10
2.431084462694454
 20
1.338001274961272
 10
2.418704643182197
 20
1.408210720291279
 10
2.418704643182197
 20
1.47521072029128
 10
2.463704643182197
 20
1.52021072029128
 42
1.0
 10
2.313704643182197
 20
1.52021072029128
 10
2.358704643182197
 20
1.47521072029128
 10
2.358704643182197
 20
1.408210720291279
 10
2.346324823669941
 20
1.338001274961272
 42
-0.3639702342662025
 10
2.316780591079575
 20
1.31321072029128
 10
1.89862869528482
 20
1.313210720291279
 42
-0.3639702342662025
 10
1.869084462694453
 20
1.338001274961271
 10
1.856704643182197
 20
1.408210720291279
 10
1.856704643182197
 20
1.47521072029128
 10
1.901704643182197
 20
1.52021072029128
 42
1.0
 10
1.751704643182197
 20
1.52021072029128
 10
1.796704643182197
 20
1.47521072029128
 10
1.796704643182197
 20
1.408210720291279
 10
1.784324823669941
 20
1.338001274961271
 42
-0.3639702342662025
 10
1.754780591079575
 20
1.313210720291279
 10
1.604204643182197
 20
1.313210720291279
 42
-0.4142135623730948
 10
1.574204643182197
 20
1.343210720291279
 10
1.574204643182197
 20
1.565210720291279
 42
0.414213562373095
 10
1.544204643182197
 20
1.595210720291279
 10
1.544204643182197
 20
1.595210720291279
 42
0.4142135623730951
 10
1.514204643182197
 20
1.565210720291279
 10
1.514204643182197
 20
1.095210720291279
 10
1.574204643182197
 20
1.095210720291279
 10
1.574204643182197
 20
1.20521072029128
 42
-0.4142135623730954
 10
1.604204643182197
 20
1.23521072029128
 10
2.097704643182197
 20
1.23521072029128
 10
2.107704643182197
 20
1.24521072029128
 10
2.117704643182197
 20
1.23521072029128
 10
2.611204643182198
 20
1.23521072029128
 42
-0.414213562373094
 10
2.641204643182197
 20
1.20521072029128
 10
2.641204643182197
 20
1.167210720291279
 10
2.651204643182197
 20
1.15721072029128
 10
2.641204643182197
 20
1.14721072029128
 10
2.641204643182197
 20
1.095210720291279
 10
2.701204643182197
 20
1.095210720291279
 10
2.701204643182197
 20
1.565210720291279
 42
0.4142135623730951
  0
TEXT
  5
3EEE3A5F8D45
330
3EEE3A5F8E9A
100
AcDbEntity
  8
TEXT
100
AcDbText
 10
1.354728452706007
 20
0.8233357202912801
 30
0.0
 40
0.125
  1
PART #110078
  7
ITALICC
 72
     1
 11
2.107704643182197
 21
0.8233357202912801
 31
0.0
100
AcDbText
  0
TEXT
  5
3EEE3A5F8D46
330
3EEE3A5F8E9A
100
AcDbEntity
  8
TEXT
100
AcDbText
 10
2.521009801432518
 20
0.376413077618905
 30
0.0
 40
0.0522247191011236
  1
Phone  1-800-328-2495
 41
1.272321428571429
 72
     5
 11
3.849942385702182
 21
0.376413077618905
 31
0.0
100
AcDbText
  0
TEXT
  5
3EEE3A5F8D47
330
3EEE3A5F8E9A
100
AcDbEntity
  8
TEXT
100
AcDbText
 10
2.521009801432518
 20
0.6561883585177815
 30
0.0
 40
0.0522247191011236
  1
Stylmark  Incorporated
 41
1.221428571428573
 72
     5
 11
3.849942385702182
 21
0.6561883585177815
 31
0.0
100
AcDbText
  0
TEXT
  5
3EEE3A5F8D48
330
3EEE3A5F8E9A
100
AcDbEntity
  8
TEXT
100
AcDbText
 10
2.521009801432518
 20
0.5629299315514893
 30
0.0
 40
0.0522247191011236
  1
6536 Main St. N.E. * P.O. Box 32008
 41
0.8388932496075366
 72
     5
 11
3.849942385702182
 21
0.5629299315514893
 31
0.0
100
AcDbText
  0
TEXT
  5
3EEE3A5F8D49
330
3EEE3A5F8E9A
100
AcDbEntity
  8
TEXT
100
AcDbText
 10
2.521009801432518
 20
0.4696715045851972
 30
0.0
 40
0.0522247191011236
  1
Minneapolis, MN 55432-0008
 41
1.11444212721585
 72
     5
 11
3.849942385702182
 21
0.4696715045851972
 31
0.0
100
AcDbText
  0
LWPOLYLINE
  5
3EEE3A5F8D4A
330
3EEE3A5F8E9A
100
AcDbEntity
  8
TEXT
100
AcDbPolyline
 90
        3
 70
     0
 43
0.0006660908203125
 10
0.3650561093652107
 20
0.4900578402563398
 10
0.3650561093652107
 20
0.3768224008032122
 10
0.4782915488183331
 20
0.3768224008032122
  0
LWPOLYLINE
  5
3EEE3A5F8D4F
330
3EEE3A5F8E9A
100
AcDbEntity
  8
TEXT
100
AcDbPolyline
 90
        3
 70
     0
 43
0.0006660908203125
 10
0.3916997421777082
 20
0.4900578402563398
 10
0.3916997421777082
 20
0.4034660336157132
 10
0.4782915488183331
 20
0.4034660336157132
  0
LWPOLYLINE
  5
3EEE3A5F8D54
330
3EEE3A5F8E9A
100
AcDbEntity
  8
TEXT
100
AcDbPolyline
 90
        2
 70
     0
 43
0.0001332181640625
 10
0.4383260995995851
 20
0.5000492025610251
 10
0.3650561093652107
 20
0.4900578402563398
  0
LWPOLYLINE
  5
3EEE3A5F8D58
330
3EEE3A5F8E9A
100
AcDbEntity
  8
TEXT
100
AcDbPolyline
 90
        2
 70
     0
 43
0.0001332181640625
 10
0.3916997421777082
 20
0.4900578402563398
 10
0.4516479160058356
 20
0.5000492025610251
  0
LWPOLYLINE
  5
3EEE3A5F8D5C
330
3EEE3A5F8E9A
100
AcDbEntity
  8
TEXT
100
AcDbPolyline
 90
        2
 70
     0
 43
0.0001332181640625
 10
0.3916997421777082
 20
0.4034660336157132
 10
0.4516479160058356
 20
0.4634142074438388
  0
LWPOLYLINE
  5
3EEE3A5F8D60
330
3EEE3A5F8E9A
100
AcDbEntity
  8
TEXT
100
AcDbPolyline
 90
        3
 70
     0
 43
0.0006660908203125
 10
0.4782915488183331
 20
0.6432587289282155
 10
0.3650561093652107
 20
0.6432587289282155
 10
0.3650561093652107
 20
0.5300232894750878
  0
LWPOLYLINE
  5
3EEE3A5F8D65
330
3EEE3A5F8E9A
100
AcDbEntity
  8
TEXT
100
AcDbPolyline
 90
        3
 70
     0
 43
0.0006660908203125
 10
0.4782915488183331
 20
0.6166150961157145
 10
0.3916997421777082
 20
0.6166150961157145
 10
0.3916997421777082
 20
0.5300232894750878
  0
LWPOLYLINE
  5
3EEE3A5F8D6A
330
3EEE3A5F8E9A
100
AcDbEntity
  8
TEXT
100
AcDbPolyline
 90
        2
 70
     0
 43
0.0001332181640625
 10
0.3916997421777082
 20
0.6166150961157145
 10
0.4516479160058338
 20
0.5566669222875889
  0
LWPOLYLINE
  5
3EEE3A5F8D6E
330
3EEE3A5F8E9A
100
AcDbEntity
  8
TEXT
100
AcDbPolyline
 90
        2
 70
     0
 43
0.0001332181640625
 10
0.3916997421777082
 20
0.5300232894750878
 10
0.4516479160058338
 20
0.5200319271703991
  0
LWPOLYLINE
  5
3EEE3A5F8D72
330
3EEE3A5F8E9A
100
AcDbEntity
  8
TEXT
100
AcDbPolyline
 90
        2
 70
     0
 43
0.0001332181640625
 10
0.3650561093652107
 20
0.5300232894750878
 10
0.4383260995995851
 20
0.5200319271703991
  0
LWPOLYLINE
  5
3EEE3A5F8D76
330
3EEE3A5F8E9A
100
AcDbEntity
  8
TEXT
100
AcDbPolyline
 90
        2
 70
     0
 43
0.0006660908203125
 10
0.3916997421777082
 20
0.4900578402563398
 10
0.3650561093652107
 20
0.4900578402563398
  0
LWPOLYLINE
  5
3EEE3A5F8D7A
330
3EEE3A5F8E9A
100
AcDbEntity
  8
TEXT
100
AcDbPolyline
 90
        2
 70
     0
 43
0.0006660908203125
 10
0.3916997421777082
 20
0.5300232894750878
 10
0.3650561093652107
 20
0.5300232894750878
  0
LINE
  5
3EEE3A5F8D7E
330
3EEE3A5F8E9A
100
AcDbEntity
  8
TEXT
100
AcDbLine
 10
1.880246538491708
 20
0.5789820342714465
 30
0.0
 11
1.773040265104418
 21
0.5789820342714465
 31
0.0
  0
LINE
  5
3EEE3A5F8D7F
330
3EEE3A5F8E9A
100
AcDbEntity
  8
TEXT
100
AcDbLine
 10
1.909277436836186
 20
0.6432587289282119
 30
0.0
 11
1.774445527619127
 21
0.6432587289282119
 31
0.0
  0
ARC
  5
3EEE3A5F8D80
330
3EEE3A5F8E9A
100
AcDbEntity
  8
TEXT
100
AcDbCircle
 10
1.833759624012444
 20
0.4740214796651956
 30
0.0
 40
0.0676855811441166
100
AcDbArc
 50
90.0
 51
153.7768192527749
  0
LWPOLYLINE
  5
3EEE3A5F8D81
330
3EEE3A5F8E9A
100
AcDbEntity
  8
TEXT
100
AcDbPolyline
 90
        2
 70
     0
 43
0.0
 10
1.772007769649608
 20
0.4202766408901391
 42
0.2901071551932823
 10
1.815083702517244
 20
0.3767856959397009
 42
5.328517124445801
  0
ARC
  5
3EEE3A5F8D85
330
3EEE3A5F8E9A
100
AcDbEntity
  8
TEXT
100
AcDbCircle
 10
1.128628246340958
 20
0.4365780872777508
 30
0.0
 40
0.0601160179737537
100
AcDbArc
 50
180.0000000000003
 51
264.0521544866073
  0
LINE
  5
3EEE3A5F8D86
330
3EEE3A5F8E9A
100
AcDbEntity
  8
TEXT
100
AcDbLine
 10
1.132143601966506
 20
0.6776466465223501
 30
0.0
 11
1.072100997122499
 21
0.6776466465223501
 31
0.0
  0
ARC
  5
3EEE3A5F8D87
330
3EEE3A5F8E9A
100
AcDbEntity
  8
TEXT
100
AcDbCircle
 10
0.8963692442239882
 20
0.5611712694817102
 30
0.0
 40
0.0820874594465043
100
AcDbArc
 50
90.0
 51
270.0
  0
LWPOLYLINE
  5
3EEE3A5F8D88
330
3EEE3A5F8E9A
100
AcDbEntity
  8
TEXT
100
AcDbPolyline
 90
        2
 70
     0
 43
0.0001332181640625
 10
0.4882829111230236
 20
0.5699887386938359
 10
0.4782915488183331
 20
0.6432587289282155
  0
LWPOLYLINE
  5
3EEE3A5F8D8C
330
3EEE3A5F8E9A
100
AcDbEntity
  8
TEXT
100
AcDbPolyline
 90
        2
 70
     0
 43
0.0001332181640625
 10
0.4782915488183331
 20
0.6166150961157145
 10
0.4882829111230236
 20
0.5566669222875889
  0
LWPOLYLINE
  5
3EEE3A5F8D90
330
3EEE3A5F8E9A
100
AcDbEntity
  8
TEXT
100
AcDbPolyline
 90
        3
 70
     0
 43
0.0006660908203125
 10
0.6314924374902105
 20
0.5300232894750878
 10
0.6314924374902105
 20
0.6432587289282155
 10
0.5182569980370846
 20
0.6432587289282155
  0
LWPOLYLINE
  5
3EEE3A5F8D95
330
3EEE3A5F8E9A
100
AcDbEntity
  8
TEXT
100
AcDbPolyline
 90
        3
 70
     0
 43
0.0006660908203125
 10
0.6048488046777094
 20
0.5300232894750878
 10
0.6048488046777094
 20
0.6166150961157145
 10
0.5182569980370846
 20
0.6166150961157145
  0
LWPOLYLINE
  5
3EEE3A5F8D9A
330
3EEE3A5F8E9A
100
AcDbEntity
  8
TEXT
100
AcDbPolyline
 90
        2
 70
     0
 43
0.0001332181640625
 10
0.6048488046777094
 20
0.6166150961157145
 10
0.5449006308495857
 20
0.5566669222875889
  0
LWPOLYLINE
  5
3EEE3A5F8D9E
330
3EEE3A5F8E9A
100
AcDbEntity
  8
TEXT
100
AcDbPolyline
 90
        2
 70
     0
 43
0.0001332181640625
 10
0.5182569980370846
 20
0.6166150961157145
 10
0.5082656357323958
 20
0.5566669222875889
  0
LWPOLYLINE
  5
3EEE3A5F8DA2
330
3EEE3A5F8E9A
100
AcDbEntity
  8
TEXT
100
AcDbPolyline
 90
        2
 70
     0
 43
0.0001332181640625
 10
0.5182569980370846
 20
0.6432587289282155
 10
0.5082656357323958
 20
0.5699887386938359
  0
LWPOLYLINE
  5
3EEE3A5F8DA6
330
3EEE3A5F8E9A
100
AcDbEntity
  8
TEXT
100
AcDbPolyline
 90
        2
 70
     0
 43
0.0001332181640625
 10
0.5582224472558344
 20
0.5200319271703991
 10
0.6314924374902105
 20
0.5300232894750878
  0
LWPOLYLINE
  5
3EEE3A5F8DAA
330
3EEE3A5F8E9A
100
AcDbEntity
  8
TEXT
100
AcDbPolyline
 90
        2
 70
     0
 43
0.0001332181640625
 10
0.6048488046777094
 20
0.5300232894750878
 10
0.5449006308495857
 20
0.5200319271703991
  0
LWPOLYLINE
  5
3EEE3A5F8DAE
330
3EEE3A5F8E9A
100
AcDbEntity
  8
TEXT
100
AcDbPolyline
 90
        2
 70
     0
 43
0.0001332181640625
 10
0.6314924374902105
 20
0.4900578402563398
 10
0.5582224472558344
 20
0.5000492025610251
  0
LWPOLYLINE
  5
3EEE3A5F8DB2
330
3EEE3A5F8E9A
100
AcDbEntity
  8
TEXT
100
AcDbPolyline
 90
        2
 70
     0
 43
0.0001332181640625
 10
0.6048488046777094
 20
0.4900578402563398
 10
0.5449006308495857
 20
0.5000492025610251
  0
LWPOLYLINE
  5
3EEE3A5F8DB6
330
3EEE3A5F8E9A
100
AcDbEntity
  8
TEXT
100
AcDbPolyline
 90
        2
 70
     0
 43
0.0001332181640625
 10
0.6048488046777094
 20
0.4034660336157132
 10
0.5449006308495857
 20
0.4634142074438388
  0
LWPOLYLINE
  5
3EEE3A5F8DBA
330
3EEE3A5F8E9A
100
AcDbEntity
  8
TEXT
100
AcDbPolyline
 90
        3
 70
     0
 43
0.0006660908203125
 10
0.5182569980370846
 20
0.4034660336157132
 10
0.6048488046777094
 20
0.4034660336157132
 10
0.6048488046777094
 20
0.4900578402563398
  0
LWPOLYLINE
  5
3EEE3A5F8DBF
330
3EEE3A5F8E9A
100
AcDbEntity
  8
TEXT
100
AcDbPolyline
 90
        3
 70
     0
 43
0.0006660908203125
 10
0.5182569980370846
 20
0.3768224008032122
 10
0.6314924374902105
 20
0.3768224008032122
 10
0.6314924374902105
 20
0.4900578402563398
  0
LWPOLYLINE
  5
3EEE3A5F8DC4
330
3EEE3A5F8E9A
100
AcDbEntity
  8
TEXT
100
AcDbPolyline
 90
        5
 70
     0
 43
0.0001332181640625
 10
0.4882829111230236
 20
0.4500923910375883
 10
0.4882829111230236
 20
0.4634142074438388
 10
0.4516479160058356
 20
0.4634142074438388
 10
0.4516479160058356
 20
0.5000492025610251
 10
0.4383260995995851
 20
0.5000492025610251
  0
LWPOLYLINE
  5
3EEE3A5F8DCB
330
3EEE3A5F8E9A
100
AcDbEntity
  8
TEXT
100
AcDbPolyline
 90
        2
 70
     0
 43
0.0006660908203125
 10
0.4782915488183331
 20
0.4034660336157132
 10
0.4782915488183331
 20
0.3768224008032122
  0
LWPOLYLINE
  5
3EEE3A5F8DCF
330
3EEE3A5F8E9A
100
AcDbEntity
  8
TEXT
100
AcDbPolyline
 90
        2
 70
     0
 43
0.0001332181640625
 10
0.4782915488183331
 20
0.4034660336157132
 10
0.4882829111230236
 20
0.4634142074438388
  0
LWPOLYLINE
  5
3EEE3A5F8DD3
330
3EEE3A5F8E9A
100
AcDbEntity
  8
TEXT
100
AcDbPolyline
 90
        2
 70
     0
 43
0.0001332181640625
 10
0.4782915488183331
 20
0.3768224008032122
 10
0.4882829111230236
 20
0.4500923910375883
  0
LWPOLYLINE
  5
3EEE3A5F8DD7
330
3EEE3A5F8E9A
100
AcDbEntity
  8
TEXT
100
AcDbPolyline
 90
        5
 70
     0
 43
0.0001332181640625
 10
0.4383260995995851
 20
0.5200319271703991
 10
0.4516479160058338
 20
0.5200319271703991
 10
0.4516479160058338
 20
0.5566669222875889
 10
0.4882829111230236
 20
0.5566669222875889
 10
0.4882829111230236
 20
0.5699887386938359
  0
LWPOLYLINE
  5
3EEE3A5F8DDE
330
3EEE3A5F8E9A
100
AcDbEntity
  8
TEXT
100
AcDbPolyline
 90
        5
 70
     0
 43
0.0001332181640625
 10
0.5082656357323958
 20
0.5699887386938359
 10
0.5082656357323958
 20
0.5566669222875889
 10
0.5449006308495857
 20
0.5566669222875889
 10
0.5449006308495857
 20
0.5200319271703991
 10
0.5582224472558344
 20
0.5200319271703991
  0
LWPOLYLINE
  5
3EEE3A5F8DE5
330
3EEE3A5F8E9A
100
AcDbEntity
  8
TEXT
100
AcDbPolyline
 90
        2
 70
     0
 43
0.0001332181640625
 10
0.5182569980370846
 20
0.4034660336157132
 10
0.5082656357323958
 20
0.4634142074438388
  0
LWPOLYLINE
  5
3EEE3A5F8DE9
330
3EEE3A5F8E9A
100
AcDbEntity
  8
TEXT
100
AcDbPolyline
 90
        2
 70
     0
 43
0.0001332181640625
 10
0.5082656357323958
 20
0.4500923910375883
 10
0.5182569980370846
 20
0.3768224008032122
  0
LWPOLYLINE
  5
3EEE3A5F8DED
330
3EEE3A5F8E9A
100
AcDbEntity
  8
TEXT
100
AcDbPolyline
 90
        2
 70
     0
 43
0.0006660908203125
 10
0.5182569980370846
 20
0.4034660336157132
 10
0.5182569980370846
 20
0.3768224008032122
  0
LWPOLYLINE
  5
3EEE3A5F8DF1
330
3EEE3A5F8E9A
100
AcDbEntity
  8
TEXT
100
AcDbPolyline
 90
        5
 70
     0
 43
0.0001332181640625
 10
0.5582224472558344
 20
0.5000492025610251
 10
0.5449006308495857
 20
0.5000492025610251
 10
0.5449006308495857
 20
0.4634142074438388
 10
0.5082656357323958
 20
0.4634142074438388
 10
0.5082656357323958
 20
0.4500923910375883
  0
LWPOLYLINE
  5
3EEE3A5F8DF8
330
3EEE3A5F8E9A
100
AcDbEntity
  8
TEXT
100
AcDbPolyline
 90
        2
 70
     0
 43
0.0006660908203125
 10
0.6048488046777094
 20
0.5300232894750878
 10
0.6314924374902105
 20
0.5300232894750878
  0
LWPOLYLINE
  5
3EEE3A5F8DFC
330
3EEE3A5F8E9A
100
AcDbEntity
  8
TEXT
100
AcDbPolyline
 90
        2
 70
     0
 43
0.0006660908203125
 10
0.6048488046777094
 20
0.4900578402563398
 10
0.6314924374902105
 20
0.4900578402563398
  0
LINE
  5
3EEE3A5F8E00
330
3EEE3A5F8E9A
100
AcDbEntity
  8
TEXT
100
AcDbLine
 10
0.9016065743382352
 20
0.5789820342714465
 30
0.0
 11
1.068512228367206
 21
0.5789820342714465
 31
0.0
  0
LINE
  5
3EEE3A5F8E01
330
3EEE3A5F8E9A
100
AcDbEntity
  8
TEXT
100
AcDbLine
 10
0.9672067105825362
 20
0.5431773126608186
 30
0.0
 11
0.9016065743382352
 21
0.5431773126608186
 31
0.0
  0
LINE
  5
3EEE3A5F8E02
330
3EEE3A5F8E9A
100
AcDbEntity
  8
TEXT
100
AcDbLine
 10
0.8142817847774836
 20
0.3767856959397009
 30
0.0
 11
0.9672067105825362
 21
0.3767856959397009
 31
0.0
  0
LINE
  5
3EEE3A5F8E03
330
3EEE3A5F8E9A
100
AcDbEntity
  8
TEXT
100
AcDbLine
 10
0.9721470844888159
 20
0.4451427022731403
 30
0.0
 11
0.8142817847774818
 21
0.4451427022731403
 31
0.0
  0
LINE
  5
3EEE3A5F8E04
330
3EEE3A5F8E9A
100
AcDbEntity
  8
TEXT
100
AcDbLine
 10
0.8963692442239871
 20
0.4790838100352049
 30
0.0
 11
0.9721470844888159
 21
0.4790838100352049
 31
0.0
  0
ARC
  5
3EEE3A5F8E05
330
3EEE3A5F8E9A
100
AcDbEntity
  8
TEXT
100
AcDbCircle
 10
0.9016065743382362
 20
0.5610796734661343
 30
0.0
 40
0.017902360805315
100
AcDbArc
 50
90.0
 51
270.0
  0
LINE
  5
3EEE3A5F8E06
330
3EEE3A5F8E9A
100
AcDbEntity
  8
TEXT
100
AcDbLine
 10
0.8142817847774818
 20
0.4451427022731403
 30
0.0
 11
0.8142817847774836
 21
0.3767856959397009
 31
0.0
  0
LINE
  5
3EEE3A5F8E07
330
3EEE3A5F8E9A
100
AcDbEntity
  8
TEXT
100
AcDbLine
 10
1.068512228367206
 20
0.5789820342714465
 30
0.0
 11
1.068512228367206
 21
0.4365780872777508
 31
0.0
  0
ARC
  5
3EEE3A5F8E08
330
3EEE3A5F8E9A
100
AcDbEntity
  8
TEXT
100
AcDbCircle
 10
0.9672067105825373
 20
0.459981504300258
 30
0.0
 40
0.0831958083605586
100
AcDbArc
 50
270.0
 51
90.0
  0
ARC
  5
3EEE3A5F8E09
330
3EEE3A5F8E9A
100
AcDbEntity
  8
TEXT
100
AcDbCircle
 10
0.972147084488817
 20
0.4621132561541744
 30
0.0
 40
0.0169705538810321
100
AcDbArc
 50
270.0
 51
90.0
  0
LWPOLYLINE
  5
3EEE3A5F8E0A
330
3EEE3A5F8E9A
100
AcDbEntity
  8
TEXT
100
AcDbPolyline
 90
        2
 70
     0
 43
0.0006660908203125
 10
0.4782915488183331
 20
0.6166150961157145
 10
0.4782915488183331
 20
0.6432587289282155
  0
LWPOLYLINE
  5
3EEE3A5F8E0E
330
3EEE3A5F8E9A
100
AcDbEntity
  8
TEXT
100
AcDbPolyline
 90
        2
 70
     0
 43
0.0006660908203125
 10
0.5182569980370846
 20
0.6166150961157145
 10
0.5182569980370846
 20
0.6432587289282155
  0
LINE
  5
3EEE3A5F8E12
330
3EEE3A5F8E9A
100
AcDbEntity
  8
TEXT
100
AcDbLine
 10
1.072100997122499
 20
0.6432587289282119
 30
0.0
 11
0.8963692442239871
 21
0.6432587289282119
 31
0.0
  0
LINE
  5
3EEE3A5F8E13
330
3EEE3A5F8E9A
100
AcDbEntity
  8
TEXT
100
AcDbLine
 10
1.072100997122499
 20
0.6776466465223501
 30
0.0
 11
1.072100997122499
 21
0.6432587289282119
 31
0.0
  0
LINE
  5
3EEE3A5F8E14
330
3EEE3A5F8E9A
100
AcDbEntity
  8
TEXT
100
AcDbLine
 10
1.262572889142351
 20
0.5423867328150913
 30
0.0
 11
1.203942568110413
 21
0.6432587289282119
 31
0.0
  0
LINE
  5
3EEE3A5F8E15
330
3EEE3A5F8E9A
100
AcDbEntity
  8
TEXT
100
AcDbLine
 10
1.321321451948217
 20
0.6432587289282119
 30
0.0
 11
1.262572889142351
 21
0.5423867328150913
 31
0.0
  0
LINE
  5
3EEE3A5F8E16
330
3EEE3A5F8E9A
100
AcDbEntity
  8
TEXT
100
AcDbLine
 10
1.418252077307958
 20
0.4591735340427002
 30
0.0
 11
1.418252077307958
 21
0.7112702066670225
 31
0.0
  0
LINE
  5
3EEE3A5F8E17
330
3EEE3A5F8E9A
100
AcDbEntity
  8
TEXT
100
AcDbLine
 10
1.450563931445618
 20
0.6432587289282119
 30
0.0
 11
1.450563931445618
 21
0.4423945221958037
 31
0.0
  0
LINE
  5
3EEE3A5F8E18
330
3EEE3A5F8E9A
100
AcDbEntity
  8
TEXT
100
AcDbLine
 10
1.450563931445618
 20
0.4423945221958037
 30
0.0
 11
1.433570294561017
 21
0.4423945221958037
 31
0.0
  0
LINE
  5
3EEE3A5F8E19
330
3EEE3A5F8E9A
100
AcDbEntity
  8
TEXT
100
AcDbLine
 10
1.419391650804153
 20
0.3767856959397009
 30
0.0
 11
1.517394984503587
 21
0.3767856959397009
 31
0.0
  0
LINE
  5
3EEE3A5F8E1A
330
3EEE3A5F8E9A
100
AcDbEntity
  8
TEXT
100
AcDbLine
 10
1.252972652145397
 20
0.3967442020447138
 30
0.0
 11
1.350272358238842
 21
0.561094412979982
 31
0.0
  0
ARC
  5
3EEE3A5F8E1B
330
3EEE3A5F8E9A
100
AcDbEntity
  8
TEXT
100
AcDbCircle
 10
1.218929092233183
 20
0.4163334182133967
 30
0.0
 40
0.0392772371940762
100
AcDbArc
 50
270.1604552698595
 51
330.0831797321295
  0
LINE
  5
3EEE3A5F8E1C
330
3EEE3A5F8E9A
100
AcDbEntity
  8
TEXT
100
AcDbLine
 10
1.122398835847312
 20
0.3767856959397009
 30
0.0
 11
1.219039086922306
 21
0.3770563350379832
 31
0.0
  0
LWPOLYLINE
  5
3EEE3A5F8E1D
330
3EEE3A5F8E9A
100
AcDbEntity
  8
TEXT
100
AcDbPolyline
 90
        6
 70
     1
 43
0.0
 10
1.164922639422461
 20
0.5789820342714465
 10
1.134606045202253
 20
0.5789820342714465
 10
1.134606045202253
 20
0.4558710362165522
 42
0.407328721240804
 10
1.14614969636373
 20
0.4440521215401661
 10
1.20677139540846
 20
0.4440521215401661
 10
1.224236735815778
 20
0.4768643505836452
  0
LINE
  5
3EEE3A5F8E25
330
3EEE3A5F8E9A
100
AcDbEntity
  8
TEXT
100
AcDbLine
 10
1.350272358238842
 20
0.561094412979982
 30
0.0
 11
1.350272358238842
 21
0.4283370381546257
 31
0.0
  0
ARC
  5
3EEE3A5F8E26
330
3EEE3A5F8E9A
100
AcDbEntity
  8
TEXT
100
AcDbCircle
 10
1.433570294561015
 20
0.4577763284392291
 30
0.0
 40
0.0153818062434269
100
AcDbArc
 50
174.7883570302258
 51
270.0
  0
LWPOLYLINE
  5
3EEE3A5F8E27
330
3EEE3A5F8E9A
100
AcDbEntity
  8
TEXT
100
AcDbPolyline
 90
        2
 70
     0
 43
0.0
 10
1.35027235823884
 20
0.4283370381546292
 42
0.3318488747599744
 10
1.419391650804153
 20
0.3767856959397009
 42
-6.868794160588311
  0
LINE
  5
3EEE3A5F8E2B
330
3EEE3A5F8E9A
100
AcDbEntity
  8
TEXT
100
AcDbLine
 10
1.574784053492849
 20
0.3767856959397009
 30
0.0
 11
1.641842100274689
 21
0.3767856959397009
 31
0.0
  0
LINE
  5
3EEE3A5F8E2C
330
3EEE3A5F8E9A
100
AcDbEntity
  8
TEXT
100
AcDbLine
 10
1.574784053492849
 20
0.5714282451053366
 30
0.0
 11
1.574784053492849
 21
0.3767856959397009
 31
0.0
  0
LINE
  5
3EEE3A5F8E2D
330
3EEE3A5F8E9A
100
AcDbEntity
  8
TEXT
100
AcDbLine
 10
1.517394984503587
 20
0.5789820342714465
 30
0.0
 11
1.567230264326735
 21
0.5789820342714465
 31
0.0
  0
LINE
  5
3EEE3A5F8E2E
330
3EEE3A5F8E9A
100
AcDbEntity
  8
TEXT
100
AcDbLine
 10
1.517394984503587
 20
0.3767856959397009
 30
0.0
 11
1.517394984503587
 21
0.5789820342714465
 31
0.0
  0
LWPOLYLINE
  5
3EEE3A5F8E2F
330
3EEE3A5F8E9A
100
AcDbEntity
  8
TEXT
100
AcDbPolyline
 90
        2
 70
     0
 43
0.0
 10
1.567230264326733
 20
0.5789820342714465
 42
-0.4142135623731017
 10
1.574784053492847
 20
0.5714282451053366
 42
-0.9999999999999998
  0
LINE
  5
3EEE3A5F8E33
330
3EEE3A5F8E9A
100
AcDbEntity
  8
TEXT
100
AcDbLine
 10
1.773040265104418
 20
0.5789820342714465
 30
0.0
 11
1.773040265104418
 21
0.5039296281972399
 31
0.0
  0
LINE
  5
3EEE3A5F8E34
330
3EEE3A5F8E9A
100
AcDbEntity
  8
TEXT
100
AcDbLine
 10
1.641842100274689
 20
0.5789820342714465
 30
0.0
 11
1.695975697195639
 21
0.5789820342714465
 31
0.0
  0
LINE
  5
3EEE3A5F8E35
330
3EEE3A5F8E9A
100
AcDbEntity
  8
TEXT
100
AcDbLine
 10
1.641842100274689
 20
0.3767856959397009
 30
0.0
 11
1.641842100274689
 21
0.5789820342714465
 31
0.0
  0
LWPOLYLINE
  5
3EEE3A5F8E36
330
3EEE3A5F8E9A
100
AcDbEntity
  8
TEXT
100
AcDbPolyline
 90
        2
 70
     0
 43
0.0
 10
1.695975697195637
 20
0.5789820342714465
 42
-0.4142135623731017
 10
1.70352948636175
 20
0.5714282451053366
 42
-0.9999999999999998
  0
LWPOLYLINE
  5
3EEE3A5F8E3A
330
3EEE3A5F8E9A
100
AcDbEntity
  8
TEXT
100
AcDbPolyline
 90
        4
 70
     0
 43
0.0
 10
1.70352948636175
 20
0.5714282451053366
 10
1.70352948636175
 20
0.3767856959397009
 10
1.772007769649608
 20
0.3767856959397009
 10
1.772007769649608
 20
0.4202766408901391
 42
-1.714843617202739
  0
LINE
  5
3EEE3A5F8E40
330
3EEE3A5F8E9A
100
AcDbEntity
  8
TEXT
100
AcDbLine
 10
1.132143601966506
 20
0.6432587289282119
 30
0.0
 11
1.132143601966506
 21
0.6776466465223501
 31
0.0
  0
LINE
  5
3EEE3A5F8E41
330
3EEE3A5F8E9A
100
AcDbEntity
  8
TEXT
100
AcDbLine
 10
1.203942568110413
 20
0.6432587289282119
 30
0.0
 11
1.132143601966506
 21
0.6432587289282119
 31
0.0
  0
LINE
  5
3EEE3A5F8E42
330
3EEE3A5F8E9A
100
AcDbEntity
  8
TEXT
100
AcDbLine
 10
1.351443364741593
 20
0.6432587289282119
 30
0.0
 11
1.321321451948217
 21
0.6432587289282119
 31
0.0
  0
LINE
  5
3EEE3A5F8E43
330
3EEE3A5F8E9A
100
AcDbEntity
  8
TEXT
100
AcDbLine
 10
1.351443364741593
 20
0.7112702066670225
 30
0.0
 11
1.351443364741593
 21
0.6432587289282119
 31
0.0
  0
LINE
  5
3EEE3A5F8E44
330
3EEE3A5F8E9A
100
AcDbEntity
  8
TEXT
100
AcDbLine
 10
1.418252077307958
 20
0.7112702066670225
 30
0.0
 11
1.351443364741593
 21
0.7112702066670225
 31
0.0
  0
LWPOLYLINE
  5
3EEE3A5F8E45
330
3EEE3A5F8E9A
100
AcDbEntity
  8
TEXT
100
AcDbPolyline
 90
        3
 70
     0
 43
0.0
 10
1.73866383690596
 20
0.6432587289282155
 10
1.620363678089916
 20
0.6432587289282155
 10
1.620363678089916
 20
0.6160912321673196
 42
-1.960274751411753
  0
LINE
  5
3EEE3A5F8E4A
330
3EEE3A5F8E9A
100
AcDbEntity
  8
TEXT
100
AcDbLine
 10
1.584581987376755
 20
0.6432587289282119
 30
0.0
 11
1.450563931445618
 21
0.6432587289282119
 31
0.0
  0
LWPOLYLINE
  5
3EEE3A5F8E4B
330
3EEE3A5F8E9A
100
AcDbEntity
  8
TEXT
100
AcDbPolyline
 90
        2
 70
     0
 43
0.0
 10
1.584581987376755
 20
0.6432587289282155
 42
-0.3328679258950098
 10
1.620363678089916
 20
0.6160912321673196
 42
6.772930709997214
  0
LINE
  5
3EEE3A5F8E4F
330
3EEE3A5F8E9A
100
AcDbEntity
  8
TEXT
100
AcDbLine
 10
1.774445527619127
 20
0.6432587289282119
 30
0.0
 11
1.774445527619127
 21
0.6149361831585681
 31
0.0
  0
LWPOLYLINE
  5
3EEE3A5F8E50
330
3EEE3A5F8E9A
100
AcDbEntity
  8
TEXT
100
AcDbPolyline
 90
        2
 70
     0
 43
0.0
 10
1.73866383690596
 20
0.6432587289282155
 42
-0.3277054968067132
 10
1.774445527619125
 20
0.6149361831585716
 42
6.667889725900311
  0
LINE
  5
3EEE3A5F8E54
330
3EEE3A5F8E9A
100
AcDbEntity
  8
TEXT
100
AcDbLine
 10
1.988237375711227
 20
0.5380467503747846
 30
0.0
 11
1.944486604529326
 21
0.6202970263709298
 31
0.0
  0
LINE
  5
3EEE3A5F8E55
330
3EEE3A5F8E9A
100
AcDbEntity
  8
TEXT
100
AcDbLine
 10
1.988237375711227
 20
0.6432587289282119
 30
0.0
 11
1.988237375711227
 21
0.5380467503747846
 31
0.0
  0
LINE
  5
3EEE3A5F8E56
330
3EEE3A5F8E9A
100
AcDbEntity
  8
TEXT
100
AcDbLine
 10
2.215921114649596
 20
0.5673934025166738
 30
0.0
 11
2.215921114649596
 21
0.7087229346958126
 31
0.0
  0
LINE
  5
3EEE3A5F8E57
330
3EEE3A5F8E9A
100
AcDbEntity
  8
TEXT
100
AcDbLine
 10
2.263019273205581
 20
0.6432587289282119
 30
0.0
 11
2.215921114649596
 21
0.5673934025166738
 31
0.0
  0
LINE
  5
3EEE3A5F8E58
330
3EEE3A5F8E9A
100
AcDbEntity
  8
TEXT
100
AcDbLine
 10
2.273453989969504
 20
0.5333654859872384
 30
0.0
 11
2.338011105935209
 21
0.6432587289282119
 31
0.0
  0
LINE
  5
3EEE3A5F8E59
330
3EEE3A5F8E9A
100
AcDbEntity
  8
TEXT
100
AcDbLine
 10
2.152086123426823
 20
0.3767856959397009
 30
0.0
 11
2.216464307745444
 21
0.3767856959397009
 31
0.0
  0
LWPOLYLINE
  5
3EEE3A5F8E5A
330
3EEE3A5F8E9A
100
AcDbEntity
  8
TEXT
100
AcDbPolyline
 90
        2
 70
     0
 43
0.0
 10
1.992177053016265
 20
0.4202766408901391
 42
-0.2901071551932486
 10
1.94910112014862
 20
0.3767856959397009
 42
-5.328517124445184
  0
ARC
  5
3EEE3A5F8E5E
330
3EEE3A5F8E9A
100
AcDbEntity
  8
TEXT
100
AcDbCircle
 10
1.880246538491706
 20
0.5506226592714492
 30
0.0
 40
0.028359375
100
AcDbArc
 50
25.78218179591245
 51
90.0
  0
LINE
  5
3EEE3A5F8E5F
330
3EEE3A5F8E9A
100
AcDbEntity
  8
TEXT
100
AcDbLine
 10
1.916047613795829
 20
0.5417070608093142
 30
0.0
 11
1.905782853382265
 21
0.5629576003820085
 31
0.0
  0
LINE
  5
3EEE3A5F8E60
330
3EEE3A5F8E9A
100
AcDbEntity
  8
TEXT
100
AcDbLine
 10
1.833759624012446
 20
0.5417070608093142
 30
0.0
 11
1.916047613795829
 21
0.5417070608093142
 31
0.0
  0
LWPOLYLINE
  5
3EEE3A5F8E61
330
3EEE3A5F8E9A
100
AcDbEntity
  8
TEXT
100
AcDbPolyline
 90
        4
 70
     1
 43
0.0
 10
1.928978655078728
 20
0.4797496739237262
 10
1.840318336418869
 20
0.4797496739237262
 42
0.9999999999999998
 10
1.840318336418869
 20
0.4373511334198655
 10
1.928978655078728
 20
0.4373511334198655
 42
1.0
  0
LWPOLYLINE
  5
3EEE3A5F8E67
330
3EEE3A5F8E9A
100
AcDbEntity
  8
TEXT
100
AcDbPolyline
 90
        2
 70
     0
 43
0.0
 10
1.815083702517244
 20
0.3767856959397009
 10
1.94910112014862
 20
0.3767856959397009
 42
0.9999999999999998
  0
LINE
  5
3EEE3A5F8E6B
330
3EEE3A5F8E9A
100
AcDbEntity
  8
TEXT
100
AcDbLine
 10
2.07543814213426
 20
0.5789820342714465
 30
0.0
 11
2.152086123426818
 21
0.5789820342714465
 31
0.0
  0
LINE
  5
3EEE3A5F8E6C
330
3EEE3A5F8E9A
100
AcDbEntity
  8
TEXT
100
AcDbLine
 10
2.152086123426818
 20
0.5789820342714465
 30
0.0
 11
2.152086123426823
 21
0.3767856959397009
 31
0.0
  0
ARC
  5
3EEE3A5F8E6D
330
3EEE3A5F8E9A
100
AcDbEntity
  8
TEXT
100
AcDbCircle
 10
2.075438142134258
 20
0.5540761589887837
 30
0.0
 40
0.0249058752826653
100
AcDbArc
 50
89.99971217465335
 51
179.9999999999985
  0
LINE
  5
3EEE3A5F8E6E
330
3EEE3A5F8E9A
100
AcDbEntity
  8
TEXT
100
AcDbLine
 10
2.050532266851601
 20
0.3767856959397009
 30
0.0
 11
2.050532266851595
 21
0.5540762013711693
 31
0.0
  0
LWPOLYLINE
  5
3EEE3A5F8E6F
330
3EEE3A5F8E9A
100
AcDbEntity
  8
TEXT
100
AcDbPolyline
 90
        2
 70
     0
 43
0.0
 10
1.992177053016265
 20
0.3767856959397009
 10
2.050532266851599
 20
0.3767856959397009
  0
LWPOLYLINE
  5
3EEE3A5F8E73
330
3EEE3A5F8E9A
100
AcDbEntity
  8
TEXT
100
AcDbPolyline
 90
        2
 70
     0
 43
0.0
 10
1.992177053016265
 20
0.4202766408901391
 10
1.992177053016265
 20
0.3767856959397009
  0
LINE
  5
3EEE3A5F8E77
330
3EEE3A5F8E9A
100
AcDbEntity
  8
TEXT
100
AcDbLine
 10
2.368946213333114
 20
0.3767856959397009
 30
0.0
 11
2.273453989969504
 21
0.5333654859872384
 31
0.0
  0
LINE
  5
3EEE3A5F8E78
330
3EEE3A5F8E9A
100
AcDbEntity
  8
TEXT
100
AcDbLine
 10
2.292367840956908
 20
0.3767856959397009
 30
0.0
 11
2.368946213333114
 21
0.3767856959397009
 31
0.0
  0
LINE
  5
3EEE3A5F8E79
330
3EEE3A5F8E9A
100
AcDbEntity
  8
TEXT
100
AcDbLine
 10
2.216464307745444
 20
0.5083652644158812
 30
0.0
 11
2.292367840956908
 21
0.3767856959397009
 31
0.0
  0
LINE
  5
3EEE3A5F8E7A
330
3EEE3A5F8E9A
100
AcDbEntity
  8
TEXT
100
AcDbLine
 10
2.216464307745444
 20
0.3767856959397009
 30
0.0
 11
2.216464307745444
 21
0.5083652644158812
 31
0.0
  0
LINE
  5
3EEE3A5F8E7B
330
3EEE3A5F8E9A
100
AcDbEntity
  8
TEXT
100
AcDbLine
 10
2.215921114649596
 20
0.7087229346958126
 30
0.0
 11
2.147606236100323
 21
0.7087229346958126
 31
0.0
  0
ARC
  5
3EEE3A5F8E7C
330
3EEE3A5F8E9A
100
AcDbEntity
  8
TEXT
100
AcDbCircle
 10
1.907250497059117
 20
0.6016751618073095
 30
0.0
 40
0.0416329381542859
100
AcDbArc
 50
26.56974201007528
 51
87.20939649401342
  0
LINE
  5
3EEE3A5F8E7D
330
3EEE3A5F8E9A
100
AcDbEntity
  8
TEXT
100
AcDbLine
 10
2.052134282010728
 20
0.6432587289282119
 30
0.0
 11
1.988237375711227
 21
0.6432587289282119
 31
0.0
  0
LINE
  5
3EEE3A5F8E7E
330
3EEE3A5F8E9A
100
AcDbEntity
  8
TEXT
100
AcDbLine
 10
2.052134282010728
 20
0.6157110790673373
 30
0.0
 11
2.052134282010728
 21
0.6432587289282119
 31
0.0
  0
ARC
  5
3EEE3A5F8E7F
330
3EEE3A5F8E9A
100
AcDbEntity
  8
TEXT
100
AcDbCircle
 10
2.083327099073836
 20
0.6120130016459471
 30
0.0
 40
0.0314112657011332
100
AcDbArc
 50
95.88484768694724
 51
173.2388340632136
  0
LINE
  5
3EEE3A5F8E80
330
3EEE3A5F8E9A
100
AcDbEntity
  8
TEXT
100
AcDbLine
 10
2.147606236100318
 20
0.6432587289282119
 30
0.0
 11
2.080106518450801
 21
0.6432587289282119
 31
0.0
  0
LINE
  5
3EEE3A5F8E81
330
3EEE3A5F8E9A
100
AcDbEntity
  8
TEXT
100
AcDbLine
 10
2.147606236100323
 20
0.7087229346958126
 30
0.0
 11
2.147606236100318
 21
0.6432587289282119
 31
0.0
  0
LINE
  5
3EEE3A5F8E82
330
3EEE3A5F8E9A
100
AcDbEntity
  8
TEXT
100
AcDbLine
 10
2.338011105935209
 20
0.6432587289282119
 30
0.0
 11
2.263019273205582
 21
0.6432587289282119
 31
0.0
  0
ENDSEC
  0
SECTION
  2
OBJECTS
  0
DICTIONARY
  5
3EEE3A5F8E8E
330
0
100
AcDbDictionary
  3
ACAD_GROUP
350
3EEE3A5F8E8F
  3
ACAD_LAYOUT
350
3EEE3A5F8EB4
  3
ACAD_MLINESTYLE
350
3EEE3A5F8E90
  3
ACAD_PLOTSETTINGS
350
3EEE3A5F8EB5
  3
ACAD_PLOTSTYLENAME
350
3EEE3A5F8EB2
  3
ACDBHEADERROUNDTRIPXREC
350
3EEE3A5F8EBF
  3
ACDBVARIABLEDICTIONARY
350
3EEE3A5F8EBC
  0
DICTIONARY
  5
3EEE3A5F8EE1
330
3EEE3A5F8E9A
100
AcDbDictionary
280
     1
  3
ACAD_LAYOUTSELFREF
360
3EEE3A5F8EE2
  0
DICTIONARY
  5
3EEE3A5F8EDF
330
3EEE3A5F8E97
100
AcDbDictionary
280
     1
  3
ACAD_LAYOUTSELFREF
360
3EEE3A5F8EE0
  0
DICTIONARY
  5
3EEE3A5F8E8F
102
{ACAD_REACTORS
330
3EEE3A5F8E8E
102
}
330
3EEE3A5F8E8E
100
AcDbDictionary
  0
DICTIONARY
  5
3EEE3A5F8EB4
102
{ACAD_REACTORS
330
3EEE3A5F8E8E
102
}
330
3EEE3A5F8E8E
100
AcDbDictionary
  0
DICTIONARY
  5
3EEE3A5F8E90
102
{ACAD_REACTORS
330
3EEE3A5F8E8E
102
}
330
3EEE3A5F8E8E
100
AcDbDictionary
  3
STANDARD
350
3EEE3A5F8E9D
  0
DICTIONARY
  5
3EEE3A5F8EB5
102
{ACAD_REACTORS
330
3EEE3A5F8E8E
102
}
330
3EEE3A5F8E8E
100
AcDbDictionary
  0
ACDBDICTIONARYWDFLT
  5
3EEE3A5F8EB2
102
{ACAD_REACTORS
330
3EEE3A5F8E8E
102
}
330
3EEE3A5F8E8E
100
AcDbDictionary
281
     1
  3
Normal
350
3EEE3A5F8EB3
100
AcDbDictionaryWithDefault
340
3EEE3A5F8EB3
  0
DICTIONARY
  5
3EEE3A5F8EBF
102
{ACAD_REACTORS
330
3EEE3A5F8E8E
102
}
330
3EEE3A5F8E8E
100
AcDbDictionary
  3
CEPSNTYPE
350
3EEE3A5F8EC9
  3
FINGERPRINTGUID
350
3EEE3A5F8ECA
  3
HYPERLINKBASE
350
3EEE3A5F8EC2
  3
INSUNITS
350
3EEE3A5F8EC8
  3
LAYOUTDICT
350
3EEE3A5F8EC4
  3
LWETCUNION
350
3EEE3A5F8EC7
  3
PLOTSETDICT
350
3EEE3A5F8EC5
  3
PLOTSTYLNAMDICT
350
3EEE3A5F8EC6
  3
PSVPSCALE
350
3EEE3A5F8ECC
  3
PUCSBASE
350
3EEE3A5F8ECF
  3
PUCSORGBACK
350
3EEE3A5F8ED5
  3
PUCSORGBOTTOM
350
3EEE3A5F8ED1
  3
PUCSORGFRONT
350
3EEE3A5F8ED4
  3
PUCSORGLEFT
350
3EEE3A5F8ED2
  3
PUCSORGRIGHT
350
3EEE3A5F8ED3
  3
PUCSORGTOP
350
3EEE3A5F8ED0
  3
PUCSORTHOREF
350
3EEE3A5F8ECD
  3
PUCSORTHOVIEW
350
3EEE3A5F8ECE
  3
STYLESHEET
350
3EEE3A5F8EC3
  3
TSTACKALIGN
350
3EEE3A5F8EC0
  3
TSTACKSIZE
350
3EEE3A5F8EC1
  3
UCSBASE
350
3EEE3A5F8ED8
  3
UCSORGBACK
350
3EEE3A5F8EDE
  3
UCSORGBOTTOM
350
3EEE3A5F8EDA
  3
UCSORGFRONT
350
3EEE3A5F8EDD
  3
UCSORGLEFT
350
3EEE3A5F8EDB
  3
UCSORGRIGHT
350
3EEE3A5F8EDC
  3
UCSORGTOP
350
3EEE3A5F8ED9
  3
UCSORTHOREF
350
3EEE3A5F8ED6
  3
UCSORTHOVIEW
350
3EEE3A5F8ED7
  3
VERSIONGUID
350
3EEE3A5F8ECB
  0
DICTIONARY
  5
3EEE3A5F8EBC
102
{ACAD_REACTORS
330
3EEE3A5F8E8E
102
}
330
3EEE3A5F8E8E
100
AcDbDictionary
  3
DIMASSOC
350
3EEE3A5F8EBD
  0
XRECORD
  5
3EEE3A5F8EE2
102
{ACAD_REACTORS
330
3EEE3A5F8EE1
102
}
330
3EEE3A5F8EE1
100
AcDbXrecord
340
3EEE3A5F8E9A
  0
XRECORD
  5
3EEE3A5F8EE0
102
{ACAD_REACTORS
330
3EEE3A5F8EDF
102
}
330
3EEE3A5F8EDF
100
AcDbXrecord
340
3EEE3A5F8E97
  0
MLINESTYLE
  5
3EEE3A5F8E9D
102
{ACAD_REACTORS
330
3EEE3A5F8E90
102
}
330
3EEE3A5F8E90
100
AcDbMlineStyle
  2
STANDARD
 70
     0
  3

 62
     0
 51
90.0
 52
90.0
 71
     2
 49
0.5
 62
   256
  6
BYLAYER
 49
-0.5
 62
   256
  6
BYLAYER
  0
ACDBPLACEHOLDER
  5
3EEE3A5F8EB3
102
{ACAD_REACTORS
330
3EEE3A5F8EB2
102
}
330
3EEE3A5F8EB2
100
AcDbPlaceHolder
280
     0
  0
XRECORD
  5
3EEE3A5F8EC9
102
{ACAD_REACTORS
330
3EEE3A5F8EBF
102
}
330
3EEE3A5F8EBF
100
AcDbXrecord
 90
        0
  0
XRECORD
  5
3EEE3A5F8ECA
102
{ACAD_REACTORS
330
3EEE3A5F8EBF
102
}
330
3EEE3A5F8EBF
100
AcDbXrecord
  1
{C94BD720-8DB3-11D6-88E6-0090279574E7}
  0
XRECORD
  5
3EEE3A5F8EC2
102
{ACAD_REACTORS
330
3EEE3A5F8EBF
102
}
330
3EEE3A5F8EBF
100
AcDbXrecord
  1

  0
XRECORD
  5
3EEE3A5F8EC8
102
{ACAD_REACTORS
330
3EEE3A5F8EBF
102
}
330
3EEE3A5F8EBF
100
AcDbXrecord
 90
        0
  0
XRECORD
  5
3EEE3A5F8EC4
102
{ACAD_REACTORS
330
3EEE3A5F8EBF
102
}
330
3EEE3A5F8EBF
100
AcDbXrecord
340
3EEE3A5F8EB4
  0
XRECORD
  5
3EEE3A5F8EC7
102
{ACAD_REACTORS
330
3EEE3A5F8EBF
102
}
330
3EEE3A5F8EBF
100
AcDbXrecord
 90
    14877
  0
XRECORD
  5
3EEE3A5F8EC5
102
{ACAD_REACTORS
330
3EEE3A5F8EBF
102
}
330
3EEE3A5F8EBF
100
AcDbXrecord
340
3EEE3A5F8EB5
  0
XRECORD
  5
3EEE3A5F8EC6
102
{ACAD_REACTORS
330
3EEE3A5F8EBF
102
}
330
3EEE3A5F8EBF
100
AcDbXrecord
340
3EEE3A5F8EB2
  0
XRECORD
  5
3EEE3A5F8ECC
102
{ACAD_REACTORS
330
3EEE3A5F8EBF
102
}
330
3EEE3A5F8EBF
100
AcDbXrecord
 40
0.0
  0
XRECORD
  5
3EEE3A5F8ECF
102
{ACAD_REACTORS
330
3EEE3A5F8EBF
102
}
330
3EEE3A5F8EBF
100
AcDbXrecord
340
0
  0
XRECORD
  5
3EEE3A5F8ED5
102
{ACAD_REACTORS
330
3EEE3A5F8EBF
102
}
330
3EEE3A5F8EBF
100
AcDbXrecord
 10
0.0
 20
0.0
 30
0.0
  0
XRECORD
  5
3EEE3A5F8ED1
102
{ACAD_REACTORS
330
3EEE3A5F8EBF
102
}
330
3EEE3A5F8EBF
100
AcDbXrecord
 10
0.0
 20
0.0
 30
0.0
  0
XRECORD
  5
3EEE3A5F8ED4
102
{ACAD_REACTORS
330
3EEE3A5F8EBF
102
}
330
3EEE3A5F8EBF
100
AcDbXrecord
 10
0.0
 20
0.0
 30
0.0
  0
XRECORD
  5
3EEE3A5F8ED2
102
{ACAD_REACTORS
330
3EEE3A5F8EBF
102
}
330
3EEE3A5F8EBF
100
AcDbXrecord
 10
0.0
 20
0.0
 30
0.0
  0
XRECORD
  5
3EEE3A5F8ED3
102
{ACAD_REACTORS
330
3EEE3A5F8EBF
102
}
330
3EEE3A5F8EBF
100
AcDbXrecord
 10
0.0
 20
0.0
 30
0.0
  0
XRECORD
  5
3EEE3A5F8ED0
102
{ACAD_REACTORS
330
3EEE3A5F8EBF
102
}
330
3EEE3A5F8EBF
100
AcDbXrecord
 10
0.0
 20
0.0
 30
0.0
  0
XRECORD
  5
3EEE3A5F8ECD
102
{ACAD_REACTORS
330
3EEE3A5F8EBF
102
}
330
3EEE3A5F8EBF
100
AcDbXrecord
340
0
  0
XRECORD
  5
3EEE3A5F8ECE
102
{ACAD_REACTORS
330
3EEE3A5F8EBF
102
}
330
3EEE3A5F8EBF
100
AcDbXrecord
 70
     0
  0
XRECORD
  5
3EEE3A5F8EC3
102
{ACAD_REACTORS
330
3EEE3A5F8EBF
102
}
330
3EEE3A5F8EBF
100
AcDbXrecord
  1

  0
XRECORD
  5
3EEE3A5F8EC0
102
{ACAD_REACTORS
330
3EEE3A5F8EBF
102
}
330
3EEE3A5F8EBF
100
AcDbXrecord
 90
        1
  0
XRECORD
  5
3EEE3A5F8EC1
102
{ACAD_REACTORS
330
3EEE3A5F8EBF
102
}
330
3EEE3A5F8EBF
100
AcDbXrecord
 90
       70
  0
XRECORD
  5
3EEE3A5F8ED8
102
{ACAD_REACTORS
330
3EEE3A5F8EBF
102
}
330
3EEE3A5F8EBF
100
AcDbXrecord
340
0
  0
XRECORD
  5
3EEE3A5F8EDE
102
{ACAD_REACTORS
330
3EEE3A5F8EBF
102
}
330
3EEE3A5F8EBF
100
AcDbXrecord
 10
0.0
 20
0.0
 30
0.0
  0
XRECORD
  5
3EEE3A5F8EDA
102
{ACAD_REACTORS
330
3EEE3A5F8EBF
102
}
330
3EEE3A5F8EBF
100
AcDbXrecord
 10
0.0
 20
0.0
 30
0.0
  0
XRECORD
  5
3EEE3A5F8EDD
102
{ACAD_REACTORS
330
3EEE3A5F8EBF
102
}
330
3EEE3A5F8EBF
100
AcDbXrecord
 10
0.0
 20
0.0
 30
0.0
  0
XRECORD
  5
3EEE3A5F8EDB
102
{ACAD_REACTORS
330
3EEE3A5F8EBF
102
}
330
3EEE3A5F8EBF
100
AcDbXrecord
 10
0.0
 20
0.0
 30
0.0
  0
XRECORD
  5
3EEE3A5F8EDC
102
{ACAD_REACTORS
330
3EEE3A5F8EBF
102
}
330
3EEE3A5F8EBF
100
AcDbXrecord
 10
0.0
 20
0.0
 30
0.0
  0
XRECORD
  5
3EEE3A5F8ED9
102
{ACAD_REACTORS
330
3EEE3A5F8EBF
102
}
330
3EEE3A5F8EBF
100
AcDbXrecord
 10
0.0
 20
0.0
 30
0.0
  0
XRECORD
  5
3EEE3A5F8ED6
102
{ACAD_REACTORS
330
3EEE3A5F8EBF
102
}
330
3EEE3A5F8EBF
100
AcDbXrecord
340
0
  0
XRECORD
  5
3EEE3A5F8ED7
102
{ACAD_REACTORS
330
3EEE3A5F8EBF
102
}
330
3EEE3A5F8EBF
100
AcDbXrecord
 70
     0
  0
XRECORD
  5
3EEE3A5F8ECB
102
{ACAD_REACTORS
330
3EEE3A5F8EBF
102
}
330
3EEE3A5F8EBF
100
AcDbXrecord
  1
{C94BD722-8DB3-11D6-88E6-0090279574E7}
  0
DICTIONARYVAR
  5
3EEE3A5F8EBD
102
{ACAD_REACTORS
330
3EEE3A5F8EBC
102
}
330
3EEE3A5F8EBC
100
DictionaryVariables
280
     0
  1
1
  0
ENDSEC
  0
EOF
