  0
SECTION
  2
HEADER
  9
$ACADVER
  1
AC1014
  9
$ACADMAINTVER
 70
     9
  9
$DWGCODEPAGE
  3
ANSI_1252
  9
$INSBASE
 10
2.043124999999999
 20
1.6875
 30
0.0
  9
$EXTMIN
 10
0.3001434207728566
 20
0.1513563959174185
 30
0.0
  9
$EXTMAX
 10
3.785362742519984
 20
2.199
 30
0.0
  9
$LIMMIN
 10
0.0
 20
0.0
  9
$LIMMAX
 10
18.0
 20
12.0
  9
$ORTHOMODE
 70
     1
  9
$REGENMODE
 70
     1
  9
$FILLMODE
 70
     1
  9
$QTEXTMODE
 70
     0
  9
$MIRRTEXT
 70
     0
  9
$DRAGMODE
 70
     2
  9
$LTSCALE
 40
1.0
  9
$OSMODE
 70
    39
  9
$ATTMODE
 70
     1
  9
$TEXTSIZE
 40
0.125
  9
$TRACEWID
 40
0.05
  9
$TEXTSTYLE
  7
ROMANS
  9
$CLAYER
  8
0
  9
$CELTYPE
  6
BYLAYER
  9
$CECOLOR
 62
   256
  9
$CELTSCALE
 40
1.0
  9
$DELOBJ
 70
     1
  9
$DISPSILH
 70
     1
  9
$DIMSCALE
 40
1.0
  9
$DIMASZ
 40
0.125
  9
$DIMEXO
 40
0.125
  9
$DIMDLI
 40
0.375
  9
$DIMRND
 40
0.0
  9
$DIMDLE
 40
0.0
  9
$DIMEXE
 40
0.125
  9
$DIMTP
 40
0.0
  9
$DIMTM
 40
0.0
  9
$DIMTXT
 40
0.125
  9
$DIMCEN
 40
-0.125
  9
$DIMTSZ
 40
0.0
  9
$DIMTOL
 70
     0
  9
$DIMLIM
 70
     0
  9
$DIMTIH
 70
     1
  9
$DIMTOH
 70
     1
  9
$DIMSE1
 70
     0
  9
$DIMSE2
 70
     0
  9
$DIMTAD
 70
     0
  9
$DIMZIN
 70
     4
  9
$DIMBLK
  1

  9
$DIMASO
 70
     1
  9
$DIMSHO
 70
     1
  9
$DIMPOST
  1

  9
$DIMAPOST
  1

  9
$DIMALT
 70
     0
  9
$DIMALTD
 70
     2
  9
$DIMALTF
 40
25.4
  9
$DIMLFAC
 40
1.0
  9
$DIMTOFL
 70
     0
  9
$DIMTVP
 40
0.0
  9
$DIMTIX
 70
     1
  9
$DIMSOXD
 70
     0
  9
$DIMSAH
 70
     0
  9
$DIMBLK1
  1

  9
$DIMBLK2
  1

  9
$DIMSTYLE
  2
STANDARD
  9
$DIMCLRD
 70
     0
  9
$DIMCLRE
 70
     0
  9
$DIMCLRT
 70
     0
  9
$DIMTFAC
 40
1.0
  9
$DIMGAP
 40
0.09
  9
$DIMJUST
 70
     0
  9
$DIMSD1
 70
     0
  9
$DIMSD2
 70
     0
  9
$DIMTOLJ
 70
     1
  9
$DIMTZIN
 70
     4
  9
$DIMALTZ
 70
     0
  9
$DIMALTTZ
 70
     0
  9
$DIMFIT
 70
     3
  9
$DIMUPT
 70
     0
  9
$DIMUNIT
 70
     2
  9
$DIMDEC
 70
     3
  9
$DIMTDEC
 70
     3
  9
$DIMALTU
 70
     2
  9
$DIMALTTD
 70
     2
  9
$DIMTXSTY
  7
ROMANS
  9
$DIMAUNIT
 70
     0
  9
$LUNITS
 70
     2
  9
$LUPREC
 70
     3
  9
$SKETCHINC
 40
0.1
  9
$FILLETRAD
 40
0.03125
  9
$AUNITS
 70
     0
  9
$AUPREC
 70
     0
  9
$MENU
  1
ACAD
  9
$ELEVATION
 40
0.0
  9
$PELEVATION
 40
0.0
  9
$THICKNESS
 40
0.0
  9
$LIMCHECK
 70
     0
  9
$BLIPMODE
 70
     0
  9
$CHAMFERA
 40
0.0
  9
$CHAMFERB
 40
0.0
  9
$CHAMFERC
 40
0.0
  9
$CHAMFERD
 40
0.0
  9
$SKPOLY
 70
     0
  9
$TDCREATE
 40
2448993.469179398
  9
$TDUPDATE
 40
2452458.294378356
  9
$TDINDWG
 40
0.0006374769
  9
$TDUSRTIMER
 40
0.0006374769
  9
$USRTIMER
 70
     1
  9
$ANGBASE
 50
0.0
  9
$ANGDIR
 70
     0
  9
$PDMODE
 70
     0
  9
$PDSIZE
 40
0.0
  9
$PLINEWID
 40
0.0
  9
$COORDS
 70
     2
  9
$SPLFRAME
 70
     0
  9
$SPLINETYPE
 70
     6
  9
$SPLINESEGS
 70
     8
  9
$ATTDIA
 70
     0
  9
$ATTREQ
 70
     1
  9
$HANDLING
 70
 22529
  9
$HANDSEED
  5
A7D09BAA587
  9
$SURFTAB1
 70
     6
  9
$SURFTAB2
 70
     6
  9
$SURFTYPE
 70
     6
  9
$SURFU
 70
     6
  9
$SURFV
 70
     6
  9
$UCSNAME
  2

  9
$UCSORG
 10
0.0
 20
0.0
 30
0.0
  9
$UCSXDIR
 10
1.0
 20
0.0
 30
0.0
  9
$UCSYDIR
 10
0.0
 20
1.0
 30
0.0
  9
$PUCSNAME
  2

  9
$PUCSORG
 10
0.0
 20
0.0
 30
0.0
  9
$PUCSXDIR
 10
1.0
 20
0.0
 30
0.0
  9
$PUCSYDIR
 10
0.0
 20
1.0
 30
0.0
  9
$USERI1
 70
     0
  9
$USERI2
 70
     0
  9
$USERI3
 70
     0
  9
$USERI4
 70
     0
  9
$USERI5
 70
     0
  9
$USERR1
 40
0.0
  9
$USERR2
 40
0.0
  9
$USERR3
 40
0.0
  9
$USERR4
 40
0.0
  9
$USERR5
 40
0.0
  9
$WORLDVIEW
 70
     1
  9
$SHADEDGE
 70
     3
  9
$SHADEDIF
 70
    70
  9
$TILEMODE
 70
     1
  9
$MAXACTVP
 70
    16
  9
$PINSBASE
 10
1.62999742856902
 20
50.00000000000001
 30
2.021341461625815
  9
$PLIMCHECK
 70
     0
  9
$PEXTMIN
 10
1.000000000000000E+20
 20
1.000000000000000E+20
 30
1.000000000000000E+20
  9
$PEXTMAX
 10
-1.000000000000000E+20
 20
-1.000000000000000E+20
 30
-1.000000000000000E+20
  9
$PLIMMIN
 10
0.0
 20
0.0
  9
$PLIMMAX
 10
12.0
 20
9.0
  9
$UNITMODE
 70
     0
  9
$VISRETAIN
 70
     0
  9
$PLINEGEN
 70
     1
  9
$PSLTSCALE
 70
     0
  9
$TREEDEPTH
 70
  3020
  9
$PICKSTYLE
 70
     1
  9
$CMLSTYLE
  2
STANDARD
  9
$CMLJUST
 70
     0
  9
$CMLSCALE
 40
1.0
  9
$PROXYGRAPHICS
 70
     1
  9
$MEASUREMENT
 70
     0
  0
ENDSEC
  0
SECTION
  2
CLASSES
  0
CLASS
  1
LWPOLYLINE
  2
AcDbPolyline
  3
AutoCAD 2000
 90
        0
280
     0
281
     1
  0
CLASS
  1
ACDBDICTIONARYWDFLT
  2
AcDbDictionaryWithDefault
  3
AutoCAD 2000
 90
        0
280
     0
281
     0
  0
CLASS
  1
ACDBPLACEHOLDER
  2
AcDbPlaceHolder
  3
AutoCAD 2000
 90
        0
280
     0
281
     0
  0
CLASS
  1
LAYOUT
  2
AcDbLayout
  3
AutoCAD 2000
 90
        0
280
     0
281
     0
  0
CLASS
  1
DICTIONARYVAR
  2
AcDbDictionaryVar
  3
AutoCAD 2000
 90
        0
280
     0
281
     0
  0
CLASS
  1
LONG_TRANSACTION
  2
AcDbLongTransaction
  3
AutoCAD 2000
 90
        0
280
     0
281
     0
  0
CLASS
  1
LWPOLYLINE
  2
AcDbPolyline
  3
AutoCAD 2000
 90
        0
280
     0
281
     1
  0
CLASS
  1
HATCH
  2
AcDbHatch
  3
AutoCAD 2000
 90
        0
280
     0
281
     1
  0
CLASS
  1
XRECORD
  2
AcDbXrecord
  3
AutoCAD 2000
 90
        0
280
     0
281
     0
  0
ENDSEC
  0
SECTION
  2
TABLES
  0
TABLE
  2
VPORT
  5
A7D09BAA52E
330
0
100
AcDbSymbolTable
 70
     2
  0
VPORT
  5
A7D09BAA562
330
A7D09BAA52E
100
AcDbSymbolTableRecord
100
AcDbViewportTableRecord
  2
*ACTIVE
 70
     0
 10
0.0
 20
0.0
 11
1.0
 21
1.0
 12
5.058309652696856
 22
1.175170920760336
 13
0.0
 23
0.0
 14
0.015625
 24
0.015625
 15
0.0
 25
0.0
 16
0.0
 26
0.0
 36
1.0
 17
0.0
 27
0.0
 37
0.0
 40
2.313134491433815
 41
4.320930232558139
 42
50.0
 43
0.0
 44
0.0
 50
0.0
 51
0.0
 71
     0
 72
  2000
 73
     1
 74
     0
 75
     1
 76
     0
 77
     0
 78
     0
  0
ENDTAB
  0
TABLE
  2
LTYPE
  5
A7D09BAA52B
330
0
100
AcDbSymbolTable
 70
     1
  0
LTYPE
  5
A7D09BAA538
330
A7D09BAA52B
100
AcDbSymbolTableRecord
100
AcDbLinetypeTableRecord
  2
BYBLOCK
 70
     0
  3

 72
    65
 73
     0
 40
0.0
  0
LTYPE
  5
A7D09BAA539
330
A7D09BAA52B
100
AcDbSymbolTableRecord
100
AcDbLinetypeTableRecord
  2
BYLAYER
 70
     0
  3

 72
    65
 73
     0
 40
0.0
  0
LTYPE
  5
A7D09BAA53A
330
A7D09BAA52B
100
AcDbSymbolTableRecord
100
AcDbLinetypeTableRecord
  2
CONTINUOUS
 70
     0
  3
Solid line
 72
    65
 73
     0
 40
0.0
  0
ENDTAB
  0
TABLE
  2
LAYER
  5
A7D09BAA528
330
0
100
AcDbSymbolTable
 70
     2
  0
LAYER
  5
A7D09BAA535
330
A7D09BAA528
100
AcDbSymbolTableRecord
100
AcDbLayerTableRecord
  2
0
 70
     0
 62
     7
  6
CONTINUOUS
  0
LAYER
  5
A7D09BAA545
330
A7D09BAA528
100
AcDbSymbolTableRecord
100
AcDbLayerTableRecord
  2
TEXT
 70
     0
 62
     3
  6
CONTINUOUS
  0
ENDTAB
  0
TABLE
  2
STYLE
  5
A7D09BAA529
330
0
100
AcDbSymbolTable
 70
     3
  0
STYLE
  5
A7D09BAA536
330
A7D09BAA529
100
AcDbSymbolTableRecord
100
AcDbTextStyleTableRecord
  2
STANDARD
 70
     0
 40
0.0
 41
1.0
 50
0.0
 71
     0
 42
0.3125
  3
txt
  4

  0
STYLE
  5
A7D09BAA542
330
A7D09BAA529
100
AcDbSymbolTableRecord
100
AcDbTextStyleTableRecord
  2
ITALICC
 70
     0
 40
0.0
 41
1.0
 50
0.0
 71
     0
 42
0.125
  3
italicc
  4

  0
STYLE
  5
A7D09BAA552
330
A7D09BAA529
100
AcDbSymbolTableRecord
100
AcDbTextStyleTableRecord
  2
ROMANS
 70
     0
 40
0.0
 41
1.0
 50
0.0
 71
     0
 42
0.125
  3
romans.shx
  4

  0
ENDTAB
  0
TABLE
  2
VIEW
  5
A7D09BAA52C
330
0
100
AcDbSymbolTable
 70
     0
  0
ENDTAB
  0
TABLE
  2
UCS
  5
A7D09BAA52D
330
0
100
AcDbSymbolTable
 70
     0
  0
ENDTAB
  0
TABLE
  2
APPID
  5
A7D09BAA52F
330
0
100
AcDbSymbolTable
 70
     1
  0
APPID
  5
A7D09BAA537
330
A7D09BAA52F
100
AcDbSymbolTableRecord
100
AcDbRegAppTableRecord
  2
ACAD
 70
     0
  0
ENDTAB
  0
TABLE
  2
DIMSTYLE
  5
A7D09BAA530
330
0
100
AcDbSymbolTable
 70
     1
  0
DIMSTYLE
105
A7D09BAA54A
330
A7D09BAA530
100
AcDbSymbolTableRecord
100
AcDbDimStyleTableRecord
  2
STANDARD
 70
     0
  3

  4

  5

  6

  7

 40
1.0
 41
0.125
 42
0.125
 43
0.375
 44
0.125
 45
0.0
 46
0.0
 47
0.0
 48
0.0
140
0.125
141
-0.125
142
0.0
143
25.4
144
1.0
145
0.0
146
1.0
147
0.09
 71
     0
 72
     0
 73
     1
 74
     1
 75
     0
 76
     0
 77
     0
 78
     4
170
     0
171
     2
172
     0
173
     0
174
     1
175
     0
176
     0
177
     0
178
     0
270
     2
271
     3
272
     3
273
     2
274
     2
340
A7D09BAA552
275
     0
280
     0
281
     0
282
     0
283
     1
284
     4
285
     0
286
     0
287
     3
288
     0
  0
ENDTAB
  0
TABLE
  2
BLOCK_RECORD
  5
A7D09BAA527
330
0
100
AcDbSymbolTable
 70
     0
  0
BLOCK_RECORD
  5
A7D09BAA53E
102
{ACAD_XDICTIONARY
360
A7D09BAA585
102
}
330
A7D09BAA527
100
AcDbSymbolTableRecord
100
AcDbBlockTableRecord
  2
*MODEL_SPACE
  0
BLOCK_RECORD
  5
A7D09BAA53B
102
{ACAD_XDICTIONARY
360
A7D09BAA583
102
}
330
A7D09BAA527
100
AcDbSymbolTableRecord
100
AcDbBlockTableRecord
  2
*PAPER_SPACE
  0
ENDTAB
  0
ENDSEC
  0
SECTION
  2
BLOCKS
  0
BLOCK
  5
A7D09BAA548
330
A7D09BAA53E
100
AcDbEntity
  8
0
100
AcDbBlockBegin
  2
*MODEL_SPACE
 70
     0
 10
0.0
 20
0.0
 30
0.0
  3
*MODEL_SPACE
  1

  0
ENDBLK
  5
A7D09BAA549
330
A7D09BAA53E
100
AcDbEntity
  8
0
100
AcDbBlockEnd
  0
BLOCK
  5
A7D09BAA546
330
A7D09BAA53B
100
AcDbEntity
 67
     1
  8
0
100
AcDbBlockBegin
  2
*PAPER_SPACE
 70
     0
 10
0.0
 20
0.0
 30
0.0
  3
*PAPER_SPACE
  1

  0
ENDBLK
  5
A7D09BAA547
330
A7D09BAA53B
100
AcDbEntity
 67
     1
  8
0
100
AcDbBlockEnd
  0
ENDSEC
  0
SECTION
  2
ENTITIES
  0
LWPOLYLINE
  5
A7D09BA8F59
330
A7D09BAA53E
100
AcDbEntity
  8
0
100
AcDbPolyline
 90
       21
 70
     1
 43
0.0
 10
1.655168757400071
 20
1.958908836368366
 42
-1.000000000000001
 10
1.696126359614521
 20
1.987587658185918
 10
1.861029585065447
 20
1.752081445452833
 10
2.106775198352144
 20
1.924154376358147
 10
1.941871972901224
 20
2.159660589091223
 42
-1.000000000000007
 10
1.982829575115674
 20
2.188339410908775
 10
2.235519005536123
 20
1.827461504529011
 42
-0.1539147210598291
 10
2.258124999999999
 20
1.75576444998513
 10
2.258125
 20
1.5625
 42
-0.0344556421513527
 10
2.211638185415607
 20
0.8887115731335697
 42
-0.9333840123300053
 10
2.179999999999999
 20
0.8908943925477323
 10
2.179999999999999
 20
1.552499999999999
 10
2.189999999999999
 20
1.5625
 10
2.179999999999999
 20
1.572499999999999
 10
2.179999999999999
 20
1.6875
 10
1.90625
 20
1.6875
 10
1.90625
 20
0.8908943925477323
 42
-0.9333840123300053
 10
1.874611814584392
 20
0.8887115731335697
 42
-0.0344556421513527
 10
1.828125
 20
1.5625
 10
1.828125
 20
1.677415918212033
 42
0.1539147210598292
 10
1.808344754844108
 20
1.740150840937929
  0
TEXT
  5
A7D09BAA3E9
330
A7D09BAA53E
100
AcDbEntity
  8
TEXT
100
AcDbText
 10
1.290148809523809
 20
0.609375
 30
0.0
 40
0.125
  1
PART #110076
  7
ITALICC
 72
     1
 11
2.043124999999999
 21
0.609375
 31
0.0
100
AcDbText
  0
TEXT
  5
A7D09BAA3EA
330
A7D09BAA53E
100
AcDbEntity
  8
TEXT
100
AcDbText
 10
2.45643015825032
 20
0.1624523573276249
 30
0.0
 40
0.0522247191011236
  1
Phone  1-800-328-2495
 41
1.272321428571429
 72
     5
 11
3.785362742519984
 21
0.1624523573276249
 31
0.0
100
AcDbText
  0
TEXT
  5
A7D09BAA3EB
330
A7D09BAA53E
100
AcDbEntity
  8
TEXT
100
AcDbText
 10
2.45643015825032
 20
0.4422276382265014
 30
0.0
 40
0.0522247191011236
  1
Stylmark  Incorporated
 41
1.221428571428573
 72
     5
 11
3.785362742519984
 21
0.4422276382265014
 31
0.0
100
AcDbText
  0
TEXT
  5
A7D09BAA3EC
330
A7D09BAA53E
100
AcDbEntity
  8
TEXT
100
AcDbText
 10
2.45643015825032
 20
0.3489692112602092
 30
0.0
 40
0.0522247191011236
  1
6536 Main St. N.E. * P.O. Box 32008
 41
0.8388932496075366
 72
     5
 11
3.785362742519984
 21
0.3489692112602092
 31
0.0
100
AcDbText
  0
TEXT
  5
A7D09BAA3ED
330
A7D09BAA53E
100
AcDbEntity
  8
TEXT
100
AcDbText
 10
2.45643015825032
 20
0.255710784293917
 30
0.0
 40
0.0522247191011236
  1
Minneapolis, MN 55432-0008
 41
1.11444212721585
 72
     5
 11
3.785362742519984
 21
0.255710784293917
 31
0.0
100
AcDbText
  0
LWPOLYLINE
  5
A7D09BAA3EE
330
A7D09BAA53E
100
AcDbEntity
  8
TEXT
100
AcDbPolyline
 90
        3
 70
     0
 43
0.0006660908203125
 10
0.3004764661830128
 20
0.2760971199650597
 10
0.3004764661830128
 20
0.1628616805119321
 10
0.4137119056361352
 20
0.1628616805119321
  0
LWPOLYLINE
  5
A7D09BAA3F3
330
A7D09BAA53E
100
AcDbEntity
  8
TEXT
100
AcDbPolyline
 90
        3
 70
     0
 43
0.0006660908203125
 10
0.3271200989955103
 20
0.2760971199650597
 10
0.3271200989955103
 20
0.1895053133244331
 10
0.4137119056361352
 20
0.1895053133244331
  0
LWPOLYLINE
  5
A7D09BAA3F8
330
A7D09BAA53E
100
AcDbEntity
  8
TEXT
100
AcDbPolyline
 90
        2
 70
     0
 43
0.0001332181640625
 10
0.3737464564173871
 20
0.2860884822697449
 10
0.3004764661830128
 20
0.2760971199650597
  0
LWPOLYLINE
  5
A7D09BAA3FC
330
A7D09BAA53E
100
AcDbEntity
  8
TEXT
100
AcDbPolyline
 90
        2
 70
     0
 43
0.0001332181640625
 10
0.3271200989955103
 20
0.2760971199650597
 10
0.3870682728236376
 20
0.2860884822697449
  0
LWPOLYLINE
  5
A7D09BAA400
330
A7D09BAA53E
100
AcDbEntity
  8
TEXT
100
AcDbPolyline
 90
        2
 70
     0
 43
0.0001332181640625
 10
0.3271200989955103
 20
0.1895053133244331
 10
0.3870682728236376
 20
0.2494534871525587
  0
LWPOLYLINE
  5
A7D09BAA404
330
A7D09BAA53E
100
AcDbEntity
  8
TEXT
100
AcDbPolyline
 90
        3
 70
     0
 43
0.0006660908203125
 10
0.4137119056361352
 20
0.4292980086369354
 10
0.3004764661830128
 20
0.4292980086369354
 10
0.3004764661830128
 20
0.3160625691838077
  0
LWPOLYLINE
  5
A7D09BAA409
330
A7D09BAA53E
100
AcDbEntity
  8
TEXT
100
AcDbPolyline
 90
        3
 70
     0
 43
0.0006660908203125
 10
0.4137119056361352
 20
0.4026543758244343
 10
0.3271200989955103
 20
0.4026543758244343
 10
0.3271200989955103
 20
0.3160625691838077
  0
LWPOLYLINE
  5
A7D09BAA40E
330
A7D09BAA53E
100
AcDbEntity
  8
TEXT
100
AcDbPolyline
 90
        2
 70
     0
 43
0.0001332181640625
 10
0.3271200989955103
 20
0.4026543758244343
 10
0.3870682728236359
 20
0.3427062019963087
  0
LWPOLYLINE
  5
A7D09BAA412
330
A7D09BAA53E
100
AcDbEntity
  8
TEXT
100
AcDbPolyline
 90
        2
 70
     0
 43
0.0001332181640625
 10
0.3271200989955103
 20
0.3160625691838077
 10
0.3870682728236359
 20
0.3060712068791189
  0
LWPOLYLINE
  5
A7D09BAA416
330
A7D09BAA53E
100
AcDbEntity
  8
TEXT
100
AcDbPolyline
 90
        2
 70
     0
 43
0.0001332181640625
 10
0.3004764661830128
 20
0.3160625691838077
 10
0.3737464564173871
 20
0.3060712068791189
  0
LWPOLYLINE
  5
A7D09BAA41A
330
A7D09BAA53E
100
AcDbEntity
  8
TEXT
100
AcDbPolyline
 90
        2
 70
     0
 43
0.0006660908203125
 10
0.3271200989955103
 20
0.2760971199650597
 10
0.3004764661830128
 20
0.2760971199650597
  0
LWPOLYLINE
  5
A7D09BAA41E
330
A7D09BAA53E
100
AcDbEntity
  8
TEXT
100
AcDbPolyline
 90
        2
 70
     0
 43
0.0006660908203125
 10
0.3271200989955103
 20
0.3160625691838077
 10
0.3004764661830128
 20
0.3160625691838077
  0
LINE
  5
A7D09BAA422
330
A7D09BAA53E
100
AcDbEntity
  8
TEXT
100
AcDbLine
 10
1.81566689530951
 20
0.3650213139801663
 30
0.0
 11
1.70846062192222
 21
0.3650213139801663
 31
0.0
  0
LINE
  5
A7D09BAA423
330
A7D09BAA53E
100
AcDbEntity
  8
TEXT
100
AcDbLine
 10
1.844697793653988
 20
0.4292980086369318
 30
0.0
 11
1.709865884436929
 21
0.4292980086369318
 31
0.0
  0
ARC
  5
A7D09BAA424
330
A7D09BAA53E
100
AcDbEntity
  8
TEXT
100
AcDbCircle
 10
1.769179980830246
 20
0.2600607593739155
 30
0.0
 40
0.0676855811441166
100
AcDbArc
 50
90.0
 51
153.7768192527749
  0
LWPOLYLINE
  5
A7D09BAA425
330
A7D09BAA53E
100
AcDbEntity
  8
TEXT
100
AcDbPolyline
 90
        2
 70
     0
 43
0.0
 10
1.70742812646741
 20
0.2063159205988589
 42
0.2901071551932823
 10
1.750504059335046
 20
0.1628249756484208
 42
5.328517124445801
  0
ARC
  5
A7D09BAA429
330
A7D09BAA53E
100
AcDbEntity
  8
TEXT
100
AcDbCircle
 10
1.06404860315876
 20
0.2226173669864706
 30
0.0
 40
0.0601160179737537
100
AcDbArc
 50
180.0000000000003
 51
264.0521544866073
  0
LINE
  5
A7D09BAA42A
330
A7D09BAA53E
100
AcDbEntity
  8
TEXT
100
AcDbLine
 10
1.067563958784308
 20
0.46368592623107
 30
0.0
 11
1.007521353940301
 21
0.46368592623107
 31
0.0
  0
ARC
  5
A7D09BAA42B
330
A7D09BAA53E
100
AcDbEntity
  8
TEXT
100
AcDbCircle
 10
0.8317896010417902
 20
0.34721054919043
 30
0.0
 40
0.0820874594465043
100
AcDbArc
 50
90.0
 51
270.0
  0
LWPOLYLINE
  5
A7D09BAA42C
330
A7D09BAA53E
100
AcDbEntity
  8
TEXT
100
AcDbPolyline
 90
        2
 70
     0
 43
0.0001332181640625
 10
0.4237032679408257
 20
0.3560280184025557
 10
0.4137119056361352
 20
0.4292980086369354
  0
LWPOLYLINE
  5
A7D09BAA430
330
A7D09BAA53E
100
AcDbEntity
  8
TEXT
100
AcDbPolyline
 90
        2
 70
     0
 43
0.0001332181640625
 10
0.4137119056361352
 20
0.4026543758244343
 10
0.4237032679408257
 20
0.3427062019963087
  0
LWPOLYLINE
  5
A7D09BAA434
330
A7D09BAA53E
100
AcDbEntity
  8
TEXT
100
AcDbPolyline
 90
        3
 70
     0
 43
0.0006660908203125
 10
0.5669127943080126
 20
0.3160625691838077
 10
0.5669127943080126
 20
0.4292980086369354
 10
0.4536773548548867
 20
0.4292980086369354
  0
LWPOLYLINE
  5
A7D09BAA439
330
A7D09BAA53E
100
AcDbEntity
  8
TEXT
100
AcDbPolyline
 90
        3
 70
     0
 43
0.0006660908203125
 10
0.5402691614955116
 20
0.3160625691838077
 10
0.5402691614955116
 20
0.4026543758244343
 10
0.4536773548548867
 20
0.4026543758244343
  0
LWPOLYLINE
  5
A7D09BAA43E
330
A7D09BAA53E
100
AcDbEntity
  8
TEXT
100
AcDbPolyline
 90
        2
 70
     0
 43
0.0001332181640625
 10
0.5402691614955116
 20
0.4026543758244343
 10
0.4803209876673878
 20
0.3427062019963087
  0
LWPOLYLINE
  5
A7D09BAA442
330
A7D09BAA53E
100
AcDbEntity
  8
TEXT
100
AcDbPolyline
 90
        2
 70
     0
 43
0.0001332181640625
 10
0.4536773548548867
 20
0.4026543758244343
 10
0.443685992550198
 20
0.3427062019963087
  0
LWPOLYLINE
  5
A7D09BAA446
330
A7D09BAA53E
100
AcDbEntity
  8
TEXT
100
AcDbPolyline
 90
        2
 70
     0
 43
0.0001332181640625
 10
0.4536773548548867
 20
0.4292980086369354
 10
0.443685992550198
 20
0.3560280184025557
  0
LWPOLYLINE
  5
A7D09BAA44A
330
A7D09BAA53E
100
AcDbEntity
  8
TEXT
100
AcDbPolyline
 90
        2
 70
     0
 43
0.0001332181640625
 10
0.4936428040736365
 20
0.3060712068791189
 10
0.5669127943080126
 20
0.3160625691838077
  0
LWPOLYLINE
  5
A7D09BAA44E
330
A7D09BAA53E
100
AcDbEntity
  8
TEXT
100
AcDbPolyline
 90
        2
 70
     0
 43
0.0001332181640625
 10
0.5402691614955116
 20
0.3160625691838077
 10
0.4803209876673878
 20
0.3060712068791189
  0
LWPOLYLINE
  5
A7D09BAA452
330
A7D09BAA53E
100
AcDbEntity
  8
TEXT
100
AcDbPolyline
 90
        2
 70
     0
 43
0.0001332181640625
 10
0.5669127943080126
 20
0.2760971199650597
 10
0.4936428040736365
 20
0.2860884822697449
  0
LWPOLYLINE
  5
A7D09BAA456
330
A7D09BAA53E
100
AcDbEntity
  8
TEXT
100
AcDbPolyline
 90
        2
 70
     0
 43
0.0001332181640625
 10
0.5402691614955116
 20
0.2760971199650597
 10
0.4803209876673878
 20
0.2860884822697449
  0
LWPOLYLINE
  5
A7D09BAA45A
330
A7D09BAA53E
100
AcDbEntity
  8
TEXT
100
AcDbPolyline
 90
        2
 70
     0
 43
0.0001332181640625
 10
0.5402691614955116
 20
0.1895053133244331
 10
0.4803209876673878
 20
0.2494534871525587
  0
LWPOLYLINE
  5
A7D09BAA45E
330
A7D09BAA53E
100
AcDbEntity
  8
TEXT
100
AcDbPolyline
 90
        3
 70
     0
 43
0.0006660908203125
 10
0.4536773548548867
 20
0.1895053133244331
 10
0.5402691614955116
 20
0.1895053133244331
 10
0.5402691614955116
 20
0.2760971199650597
  0
LWPOLYLINE
  5
A7D09BAA463
330
A7D09BAA53E
100
AcDbEntity
  8
TEXT
100
AcDbPolyline
 90
        3
 70
     0
 43
0.0006660908203125
 10
0.4536773548548867
 20
0.1628616805119321
 10
0.5669127943080126
 20
0.1628616805119321
 10
0.5669127943080126
 20
0.2760971199650597
  0
LWPOLYLINE
  5
A7D09BAA468
330
A7D09BAA53E
100
AcDbEntity
  8
TEXT
100
AcDbPolyline
 90
        5
 70
     0
 43
0.0001332181640625
 10
0.4237032679408257
 20
0.2361316707463081
 10
0.4237032679408257
 20
0.2494534871525587
 10
0.3870682728236376
 20
0.2494534871525587
 10
0.3870682728236376
 20
0.2860884822697449
 10
0.3737464564173871
 20
0.2860884822697449
  0
LWPOLYLINE
  5
A7D09BAA46F
330
A7D09BAA53E
100
AcDbEntity
  8
TEXT
100
AcDbPolyline
 90
        2
 70
     0
 43
0.0006660908203125
 10
0.4137119056361352
 20
0.1895053133244331
 10
0.4137119056361352
 20
0.1628616805119321
  0
LWPOLYLINE
  5
A7D09BAA473
330
A7D09BAA53E
100
AcDbEntity
  8
TEXT
100
AcDbPolyline
 90
        2
 70
     0
 43
0.0001332181640625
 10
0.4137119056361352
 20
0.1895053133244331
 10
0.4237032679408257
 20
0.2494534871525587
  0
LWPOLYLINE
  5
A7D09BAA477
330
A7D09BAA53E
100
AcDbEntity
  8
TEXT
100
AcDbPolyline
 90
        2
 70
     0
 43
0.0001332181640625
 10
0.4137119056361352
 20
0.1628616805119321
 10
0.4237032679408257
 20
0.2361316707463081
  0
LWPOLYLINE
  5
A7D09BAA47B
330
A7D09BAA53E
100
AcDbEntity
  8
TEXT
100
AcDbPolyline
 90
        5
 70
     0
 43
0.0001332181640625
 10
0.3737464564173871
 20
0.3060712068791189
 10
0.3870682728236359
 20
0.3060712068791189
 10
0.3870682728236359
 20
0.3427062019963087
 10
0.4237032679408257
 20
0.3427062019963087
 10
0.4237032679408257
 20
0.3560280184025557
  0
LWPOLYLINE
  5
A7D09BAA482
330
A7D09BAA53E
100
AcDbEntity
  8
TEXT
100
AcDbPolyline
 90
        5
 70
     0
 43
0.0001332181640625
 10
0.443685992550198
 20
0.3560280184025557
 10
0.443685992550198
 20
0.3427062019963087
 10
0.4803209876673878
 20
0.3427062019963087
 10
0.4803209876673878
 20
0.3060712068791189
 10
0.4936428040736365
 20
0.3060712068791189
  0
LWPOLYLINE
  5
A7D09BAA489
330
A7D09BAA53E
100
AcDbEntity
  8
TEXT
100
AcDbPolyline
 90
        2
 70
     0
 43
0.0001332181640625
 10
0.4536773548548867
 20
0.1895053133244331
 10
0.443685992550198
 20
0.2494534871525587
  0
LWPOLYLINE
  5
A7D09BAA48D
330
A7D09BAA53E
100
AcDbEntity
  8
TEXT
100
AcDbPolyline
 90
        2
 70
     0
 43
0.0001332181640625
 10
0.443685992550198
 20
0.2361316707463081
 10
0.4536773548548867
 20
0.1628616805119321
  0
LWPOLYLINE
  5
A7D09BAA491
330
A7D09BAA53E
100
AcDbEntity
  8
TEXT
100
AcDbPolyline
 90
        2
 70
     0
 43
0.0006660908203125
 10
0.4536773548548867
 20
0.1895053133244331
 10
0.4536773548548867
 20
0.1628616805119321
  0
LWPOLYLINE
  5
A7D09BAA495
330
A7D09BAA53E
100
AcDbEntity
  8
TEXT
100
AcDbPolyline
 90
        5
 70
     0
 43
0.0001332181640625
 10
0.4936428040736365
 20
0.2860884822697449
 10
0.4803209876673878
 20
0.2860884822697449
 10
0.4803209876673878
 20
0.2494534871525587
 10
0.443685992550198
 20
0.2494534871525587
 10
0.443685992550198
 20
0.2361316707463081
  0
LWPOLYLINE
  5
A7D09BAA49C
330
A7D09BAA53E
100
AcDbEntity
  8
TEXT
100
AcDbPolyline
 90
        2
 70
     0
 43
0.0006660908203125
 10
0.5402691614955116
 20
0.3160625691838077
 10
0.5669127943080126
 20
0.3160625691838077
  0
LWPOLYLINE
  5
A7D09BAA4A0
330
A7D09BAA53E
100
AcDbEntity
  8
TEXT
100
AcDbPolyline
 90
        2
 70
     0
 43
0.0006660908203125
 10
0.5402691614955116
 20
0.2760971199650597
 10
0.5669127943080126
 20
0.2760971199650597
  0
LINE
  5
A7D09BAA4A4
330
A7D09BAA53E
100
AcDbEntity
  8
TEXT
100
AcDbLine
 10
0.8370269311560374
 20
0.3650213139801663
 30
0.0
 11
1.003932585185008
 21
0.3650213139801663
 31
0.0
  0
LINE
  5
A7D09BAA4A5
330
A7D09BAA53E
100
AcDbEntity
  8
TEXT
100
AcDbLine
 10
0.9026270674003384
 20
0.3292165923695385
 30
0.0
 11
0.8370269311560374
 21
0.3292165923695385
 31
0.0
  0
LINE
  5
A7D09BAA4A6
330
A7D09BAA53E
100
AcDbEntity
  8
TEXT
100
AcDbLine
 10
0.7497021415952858
 20
0.1628249756484208
 30
0.0
 11
0.9026270674003384
 21
0.1628249756484208
 31
0.0
  0
LINE
  5
A7D09BAA4A7
330
A7D09BAA53E
100
AcDbEntity
  8
TEXT
100
AcDbLine
 10
0.9075674413066181
 20
0.2311819819818601
 30
0.0
 11
0.7497021415952841
 21
0.2311819819818601
 31
0.0
  0
LINE
  5
A7D09BAA4A8
330
A7D09BAA53E
100
AcDbEntity
  8
TEXT
100
AcDbLine
 10
0.8317896010417893
 20
0.2651230897439247
 30
0.0
 11
0.9075674413066181
 21
0.2651230897439247
 31
0.0
  0
ARC
  5
A7D09BAA4A9
330
A7D09BAA53E
100
AcDbEntity
  8
TEXT
100
AcDbCircle
 10
0.8370269311560383
 20
0.3471189531748542
 30
0.0
 40
0.017902360805315
100
AcDbArc
 50
90.0
 51
270.0
  0
LINE
  5
A7D09BAA4AA
330
A7D09BAA53E
100
AcDbEntity
  8
TEXT
100
AcDbLine
 10
0.7497021415952841
 20
0.2311819819818601
 30
0.0
 11
0.7497021415952858
 21
0.1628249756484208
 31
0.0
  0
LINE
  5
A7D09BAA4AB
330
A7D09BAA53E
100
AcDbEntity
  8
TEXT
100
AcDbLine
 10
1.003932585185008
 20
0.3650213139801663
 30
0.0
 11
1.003932585185008
 21
0.2226173669864706
 31
0.0
  0
ARC
  5
A7D09BAA4AC
330
A7D09BAA53E
100
AcDbEntity
  8
TEXT
100
AcDbCircle
 10
0.9026270674003393
 20
0.2460207840089779
 30
0.0
 40
0.0831958083605586
100
AcDbArc
 50
270.0
 51
90.0
  0
ARC
  5
A7D09BAA4AD
330
A7D09BAA53E
100
AcDbEntity
  8
TEXT
100
AcDbCircle
 10
0.907567441306619
 20
0.2481525358628942
 30
0.0
 40
0.0169705538810321
100
AcDbArc
 50
270.0
 51
90.0
  0
LWPOLYLINE
  5
A7D09BAA4AE
330
A7D09BAA53E
100
AcDbEntity
  8
TEXT
100
AcDbPolyline
 90
        2
 70
     0
 43
0.0006660908203125
 10
0.4137119056361352
 20
0.4026543758244343
 10
0.4137119056361352
 20
0.4292980086369354
  0
LWPOLYLINE
  5
A7D09BAA4B2
330
A7D09BAA53E
100
AcDbEntity
  8
TEXT
100
AcDbPolyline
 90
        2
 70
     0
 43
0.0006660908203125
 10
0.4536773548548867
 20
0.4026543758244343
 10
0.4536773548548867
 20
0.4292980086369354
  0
LINE
  5
A7D09BAA4B6
330
A7D09BAA53E
100
AcDbEntity
  8
TEXT
100
AcDbLine
 10
1.007521353940301
 20
0.4292980086369318
 30
0.0
 11
0.8317896010417893
 21
0.4292980086369318
 31
0.0
  0
LINE
  5
A7D09BAA4B7
330
A7D09BAA53E
100
AcDbEntity
  8
TEXT
100
AcDbLine
 10
1.007521353940301
 20
0.46368592623107
 30
0.0
 11
1.007521353940301
 21
0.4292980086369318
 31
0.0
  0
LINE
  5
A7D09BAA4B8
330
A7D09BAA53E
100
AcDbEntity
  8
TEXT
100
AcDbLine
 10
1.197993245960153
 20
0.3284260125238112
 30
0.0
 11
1.139362924928216
 21
0.4292980086369318
 31
0.0
  0
LINE
  5
A7D09BAA4B9
330
A7D09BAA53E
100
AcDbEntity
  8
TEXT
100
AcDbLine
 10
1.256741808766019
 20
0.4292980086369318
 30
0.0
 11
1.197993245960153
 21
0.3284260125238112
 31
0.0
  0
LINE
  5
A7D09BAA4BA
330
A7D09BAA53E
100
AcDbEntity
  8
TEXT
100
AcDbLine
 10
1.35367243412576
 20
0.24521281375142
 30
0.0
 11
1.35367243412576
 21
0.4973094863757424
 31
0.0
  0
LINE
  5
A7D09BAA4BB
330
A7D09BAA53E
100
AcDbEntity
  8
TEXT
100
AcDbLine
 10
1.38598428826342
 20
0.4292980086369318
 30
0.0
 11
1.38598428826342
 21
0.2284338019045236
 31
0.0
  0
LINE
  5
A7D09BAA4BC
330
A7D09BAA53E
100
AcDbEntity
  8
TEXT
100
AcDbLine
 10
1.38598428826342
 20
0.2284338019045236
 30
0.0
 11
1.368990651378819
 21
0.2284338019045236
 31
0.0
  0
LINE
  5
A7D09BAA4BD
330
A7D09BAA53E
100
AcDbEntity
  8
TEXT
100
AcDbLine
 10
1.354812007621955
 20
0.1628249756484208
 30
0.0
 11
1.45281534132139
 21
0.1628249756484208
 31
0.0
  0
LINE
  5
A7D09BAA4BE
330
A7D09BAA53E
100
AcDbEntity
  8
TEXT
100
AcDbLine
 10
1.188393008963199
 20
0.1827834817534337
 30
0.0
 11
1.285692715056644
 21
0.3471336926887019
 31
0.0
  0
ARC
  5
A7D09BAA4BF
330
A7D09BAA53E
100
AcDbEntity
  8
TEXT
100
AcDbCircle
 10
1.154349449050985
 20
0.2023726979221165
 30
0.0
 40
0.0392772371940762
100
AcDbArc
 50
270.1604552698595
 51
330.0831797321295
  0
LINE
  5
A7D09BAA4C0
330
A7D09BAA53E
100
AcDbEntity
  8
TEXT
100
AcDbLine
 10
1.057819192665114
 20
0.1628249756484208
 30
0.0
 11
1.154459443740108
 21
0.1630956147467031
 31
0.0
  0
LWPOLYLINE
  5
A7D09BAA4C1
330
A7D09BAA53E
100
AcDbEntity
  8
TEXT
100
AcDbPolyline
 90
        6
 70
     1
 43
0.0
 10
1.100342996240263
 20
0.3650213139801663
 10
1.070026402020055
 20
0.3650213139801663
 10
1.070026402020055
 20
0.241910315925272
 42
0.407328721240804
 10
1.081570053181532
 20
0.2300914012488859
 10
1.142191752226263
 20
0.2300914012488859
 10
1.15965709263358
 20
0.2629036302923651
  0
LINE
  5
A7D09BAA4C9
330
A7D09BAA53E
100
AcDbEntity
  8
TEXT
100
AcDbLine
 10
1.285692715056644
 20
0.3471336926887019
 30
0.0
 11
1.285692715056644
 21
0.2143763178633455
 31
0.0
  0
ARC
  5
A7D09BAA4CA
330
A7D09BAA53E
100
AcDbEntity
  8
TEXT
100
AcDbCircle
 10
1.368990651378817
 20
0.243815608147949
 30
0.0
 40
0.0153818062434269
100
AcDbArc
 50
174.7883570302258
 51
270.0
  0
LWPOLYLINE
  5
A7D09BAA4CB
330
A7D09BAA53E
100
AcDbEntity
  8
TEXT
100
AcDbPolyline
 90
        2
 70
     0
 43
0.0
 10
1.285692715056642
 20
0.2143763178633491
 42
0.3318488747599744
 10
1.354812007621955
 20
0.1628249756484208
 42
-6.868794160588311
  0
LINE
  5
A7D09BAA4CF
330
A7D09BAA53E
100
AcDbEntity
  8
TEXT
100
AcDbLine
 10
1.510204410310651
 20
0.1628249756484208
 30
0.0
 11
1.577262457092491
 21
0.1628249756484208
 31
0.0
  0
LINE
  5
A7D09BAA4D0
330
A7D09BAA53E
100
AcDbEntity
  8
TEXT
100
AcDbLine
 10
1.510204410310651
 20
0.3574675248140564
 30
0.0
 11
1.510204410310651
 21
0.1628249756484208
 31
0.0
  0
LINE
  5
A7D09BAA4D1
330
A7D09BAA53E
100
AcDbEntity
  8
TEXT
100
AcDbLine
 10
1.45281534132139
 20
0.3650213139801663
 30
0.0
 11
1.502650621144537
 21
0.3650213139801663
 31
0.0
  0
LINE
  5
A7D09BAA4D2
330
A7D09BAA53E
100
AcDbEntity
  8
TEXT
100
AcDbLine
 10
1.45281534132139
 20
0.1628249756484208
 30
0.0
 11
1.45281534132139
 21
0.3650213139801663
 31
0.0
  0
LWPOLYLINE
  5
A7D09BAA4D3
330
A7D09BAA53E
100
AcDbEntity
  8
TEXT
100
AcDbPolyline
 90
        2
 70
     0
 43
0.0
 10
1.502650621144535
 20
0.3650213139801663
 42
-0.4142135623731017
 10
1.510204410310649
 20
0.3574675248140564
 42
-0.9999999999999998
  0
LINE
  5
A7D09BAA4D7
330
A7D09BAA53E
100
AcDbEntity
  8
TEXT
100
AcDbLine
 10
1.70846062192222
 20
0.3650213139801663
 30
0.0
 11
1.70846062192222
 21
0.2899689079059598
 31
0.0
  0
LINE
  5
A7D09BAA4D8
330
A7D09BAA53E
100
AcDbEntity
  8
TEXT
100
AcDbLine
 10
1.577262457092491
 20
0.3650213139801663
 30
0.0
 11
1.631396054013441
 21
0.3650213139801663
 31
0.0
  0
LINE
  5
A7D09BAA4D9
330
A7D09BAA53E
100
AcDbEntity
  8
TEXT
100
AcDbLine
 10
1.577262457092491
 20
0.1628249756484208
 30
0.0
 11
1.577262457092491
 21
0.3650213139801663
 31
0.0
  0
LWPOLYLINE
  5
A7D09BAA4DA
330
A7D09BAA53E
100
AcDbEntity
  8
TEXT
100
AcDbPolyline
 90
        2
 70
     0
 43
0.0
 10
1.631396054013439
 20
0.3650213139801663
 42
-0.4142135623731017
 10
1.638949843179553
 20
0.3574675248140564
 42
-0.9999999999999998
  0
LWPOLYLINE
  5
A7D09BAA4DE
330
A7D09BAA53E
100
AcDbEntity
  8
TEXT
100
AcDbPolyline
 90
        4
 70
     0
 43
0.0
 10
1.638949843179553
 20
0.3574675248140564
 10
1.638949843179553
 20
0.1628249756484208
 10
1.70742812646741
 20
0.1628249756484208
 10
1.70742812646741
 20
0.2063159205988589
 42
-1.714843617202739
  0
LINE
  5
A7D09BAA4E4
330
A7D09BAA53E
100
AcDbEntity
  8
TEXT
100
AcDbLine
 10
1.067563958784308
 20
0.4292980086369318
 30
0.0
 11
1.067563958784308
 21
0.46368592623107
 31
0.0
  0
LINE
  5
A7D09BAA4E5
330
A7D09BAA53E
100
AcDbEntity
  8
TEXT
100
AcDbLine
 10
1.139362924928216
 20
0.4292980086369318
 30
0.0
 11
1.067563958784308
 21
0.4292980086369318
 31
0.0
  0
LINE
  5
A7D09BAA4E6
330
A7D09BAA53E
100
AcDbEntity
  8
TEXT
100
AcDbLine
 10
1.286863721559395
 20
0.4292980086369318
 30
0.0
 11
1.256741808766019
 21
0.4292980086369318
 31
0.0
  0
LINE
  5
A7D09BAA4E7
330
A7D09BAA53E
100
AcDbEntity
  8
TEXT
100
AcDbLine
 10
1.286863721559395
 20
0.4973094863757424
 30
0.0
 11
1.286863721559395
 21
0.4292980086369318
 31
0.0
  0
LINE
  5
A7D09BAA4E8
330
A7D09BAA53E
100
AcDbEntity
  8
TEXT
100
AcDbLine
 10
1.35367243412576
 20
0.4973094863757424
 30
0.0
 11
1.286863721559395
 21
0.4973094863757424
 31
0.0
  0
LWPOLYLINE
  5
A7D09BAA4E9
330
A7D09BAA53E
100
AcDbEntity
  8
TEXT
100
AcDbPolyline
 90
        3
 70
     0
 43
0.0
 10
1.674084193723762
 20
0.4292980086369354
 10
1.555784034907718
 20
0.4292980086369354
 10
1.555784034907718
 20
0.4021305118760395
 42
-1.960274751411753
  0
LINE
  5
A7D09BAA4EE
330
A7D09BAA53E
100
AcDbEntity
  8
TEXT
100
AcDbLine
 10
1.520002344194557
 20
0.4292980086369318
 30
0.0
 11
1.38598428826342
 21
0.4292980086369318
 31
0.0
  0
LWPOLYLINE
  5
A7D09BAA4EF
330
A7D09BAA53E
100
AcDbEntity
  8
TEXT
100
AcDbPolyline
 90
        2
 70
     0
 43
0.0
 10
1.520002344194557
 20
0.4292980086369354
 42
-0.3328679258950098
 10
1.555784034907718
 20
0.4021305118760395
 42
6.772930709997214
  0
LINE
  5
A7D09BAA4F3
330
A7D09BAA53E
100
AcDbEntity
  8
TEXT
100
AcDbLine
 10
1.709865884436929
 20
0.4292980086369318
 30
0.0
 11
1.709865884436929
 21
0.400975462867288
 31
0.0
  0
LWPOLYLINE
  5
A7D09BAA4F4
330
A7D09BAA53E
100
AcDbEntity
  8
TEXT
100
AcDbPolyline
 90
        2
 70
     0
 43
0.0
 10
1.674084193723762
 20
0.4292980086369354
 42
-0.3277054968067132
 10
1.709865884436927
 20
0.4009754628672915
 42
6.667889725900311
  0
LINE
  5
A7D09BAA4F8
330
A7D09BAA53E
100
AcDbEntity
  8
TEXT
100
AcDbLine
 10
1.923657732529029
 20
0.3240860300835044
 30
0.0
 11
1.879906961347128
 21
0.4063363060796497
 31
0.0
  0
LINE
  5
A7D09BAA4F9
330
A7D09BAA53E
100
AcDbEntity
  8
TEXT
100
AcDbLine
 10
1.923657732529029
 20
0.4292980086369318
 30
0.0
 11
1.923657732529029
 21
0.3240860300835044
 31
0.0
  0
LINE
  5
A7D09BAA4FA
330
A7D09BAA53E
100
AcDbEntity
  8
TEXT
100
AcDbLine
 10
2.151341471467398
 20
0.3534326822253937
 30
0.0
 11
2.151341471467398
 21
0.4947622144045325
 31
0.0
  0
LINE
  5
A7D09BAA4FB
330
A7D09BAA53E
100
AcDbEntity
  8
TEXT
100
AcDbLine
 10
2.198439630023383
 20
0.4292980086369318
 30
0.0
 11
2.151341471467398
 21
0.3534326822253937
 31
0.0
  0
LINE
  5
A7D09BAA4FC
330
A7D09BAA53E
100
AcDbEntity
  8
TEXT
100
AcDbLine
 10
2.208874346787306
 20
0.3194047656959582
 30
0.0
 11
2.273431462753011
 21
0.4292980086369318
 31
0.0
  0
LINE
  5
A7D09BAA4FD
330
A7D09BAA53E
100
AcDbEntity
  8
TEXT
100
AcDbLine
 10
2.087506480244625
 20
0.1628249756484208
 30
0.0
 11
2.151884664563246
 21
0.1628249756484208
 31
0.0
  0
LWPOLYLINE
  5
A7D09BAA4FE
330
A7D09BAA53E
100
AcDbEntity
  8
TEXT
100
AcDbPolyline
 90
        2
 70
     0
 43
0.0
 10
1.927597409834067
 20
0.2063159205988589
 42
-0.2901071551932486
 10
1.884521476966423
 20
0.1628249756484208
 42
-5.328517124445184
  0
ARC
  5
A7D09BAA502
330
A7D09BAA53E
100
AcDbEntity
  8
TEXT
100
AcDbCircle
 10
1.815666895309508
 20
0.336661938980169
 30
0.0
 40
0.028359375
100
AcDbArc
 50
25.78218179591245
 51
90.0
  0
LINE
  5
A7D09BAA503
330
A7D09BAA53E
100
AcDbEntity
  8
TEXT
100
AcDbLine
 10
1.851467970613631
 20
0.3277463405180341
 30
0.0
 11
1.841203210200067
 21
0.3489968800907284
 31
0.0
  0
LINE
  5
A7D09BAA504
330
A7D09BAA53E
100
AcDbEntity
  8
TEXT
100
AcDbLine
 10
1.769179980830248
 20
0.3277463405180341
 30
0.0
 11
1.851467970613631
 21
0.3277463405180341
 31
0.0
  0
LWPOLYLINE
  5
A7D09BAA505
330
A7D09BAA53E
100
AcDbEntity
  8
TEXT
100
AcDbPolyline
 90
        4
 70
     1
 43
0.0
 10
1.86439901189653
 20
0.265788953632446
 10
1.775738693236672
 20
0.265788953632446
 42
0.9999999999999998
 10
1.775738693236672
 20
0.2233904131285853
 10
1.86439901189653
 20
0.2233904131285853
 42
1.0
  0
LWPOLYLINE
  5
A7D09BAA50B
330
A7D09BAA53E
100
AcDbEntity
  8
TEXT
100
AcDbPolyline
 90
        2
 70
     0
 43
0.0
 10
1.750504059335046
 20
0.1628249756484208
 10
1.884521476966423
 20
0.1628249756484208
 42
0.9999999999999998
  0
LINE
  5
A7D09BAA50F
330
A7D09BAA53E
100
AcDbEntity
  8
TEXT
100
AcDbLine
 10
2.010858498952062
 20
0.3650213139801663
 30
0.0
 11
2.08750648024462
 21
0.3650213139801663
 31
0.0
  0
LINE
  5
A7D09BAA510
330
A7D09BAA53E
100
AcDbEntity
  8
TEXT
100
AcDbLine
 10
2.08750648024462
 20
0.3650213139801663
 30
0.0
 11
2.087506480244625
 21
0.1628249756484208
 31
0.0
  0
ARC
  5
A7D09BAA511
330
A7D09BAA53E
100
AcDbEntity
  8
TEXT
100
AcDbCircle
 10
2.01085849895206
 20
0.3401154386975036
 30
0.0
 40
0.0249058752826653
100
AcDbArc
 50
89.99971217465335
 51
179.9999999999985
  0
LINE
  5
A7D09BAA512
330
A7D09BAA53E
100
AcDbEntity
  8
TEXT
100
AcDbLine
 10
1.985952623669403
 20
0.1628249756484208
 30
0.0
 11
1.985952623669398
 21
0.3401154810798892
 31
0.0
  0
LWPOLYLINE
  5
A7D09BAA513
330
A7D09BAA53E
100
AcDbEntity
  8
TEXT
100
AcDbPolyline
 90
        2
 70
     0
 43
0.0
 10
1.927597409834067
 20
0.1628249756484208
 10
1.985952623669401
 20
0.1628249756484208
  0
LWPOLYLINE
  5
A7D09BAA517
330
A7D09BAA53E
100
AcDbEntity
  8
TEXT
100
AcDbPolyline
 90
        2
 70
     0
 43
0.0
 10
1.927597409834067
 20
0.2063159205988589
 10
1.927597409834067
 20
0.1628249756484208
  0
LINE
  5
A7D09BAA51B
330
A7D09BAA53E
100
AcDbEntity
  8
TEXT
100
AcDbLine
 10
2.304366570150916
 20
0.1628249756484208
 30
0.0
 11
2.208874346787306
 21
0.3194047656959582
 31
0.0
  0
LINE
  5
A7D09BAA51C
330
A7D09BAA53E
100
AcDbEntity
  8
TEXT
100
AcDbLine
 10
2.22778819777471
 20
0.1628249756484208
 30
0.0
 11
2.304366570150916
 21
0.1628249756484208
 31
0.0
  0
LINE
  5
A7D09BAA51D
330
A7D09BAA53E
100
AcDbEntity
  8
TEXT
100
AcDbLine
 10
2.151884664563246
 20
0.294404544124601
 30
0.0
 11
2.22778819777471
 21
0.1628249756484208
 31
0.0
  0
LINE
  5
A7D09BAA51E
330
A7D09BAA53E
100
AcDbEntity
  8
TEXT
100
AcDbLine
 10
2.151884664563246
 20
0.1628249756484208
 30
0.0
 11
2.151884664563246
 21
0.294404544124601
 31
0.0
  0
LINE
  5
A7D09BAA51F
330
A7D09BAA53E
100
AcDbEntity
  8
TEXT
100
AcDbLine
 10
2.151341471467398
 20
0.4947622144045325
 30
0.0
 11
2.083026592918125
 21
0.4947622144045325
 31
0.0
  0
ARC
  5
A7D09BAA520
330
A7D09BAA53E
100
AcDbEntity
  8
TEXT
100
AcDbCircle
 10
1.842670853876919
 20
0.3877144415160294
 30
0.0
 40
0.0416329381542859
100
AcDbArc
 50
26.56974201007528
 51
87.20939649401342
  0
LINE
  5
A7D09BAA521
330
A7D09BAA53E
100
AcDbEntity
  8
TEXT
100
AcDbLine
 10
1.98755463882853
 20
0.4292980086369318
 30
0.0
 11
1.923657732529029
 21
0.4292980086369318
 31
0.0
  0
LINE
  5
A7D09BAA522
330
A7D09BAA53E
100
AcDbEntity
  8
TEXT
100
AcDbLine
 10
1.98755463882853
 20
0.4017503587760572
 30
0.0
 11
1.98755463882853
 21
0.4292980086369318
 31
0.0
  0
ARC
  5
A7D09BAA523
330
A7D09BAA53E
100
AcDbEntity
  8
TEXT
100
AcDbCircle
 10
2.018747455891638
 20
0.398052281354667
 30
0.0
 40
0.0314112657011332
100
AcDbArc
 50
95.88484768694724
 51
173.2388340632136
  0
LINE
  5
A7D09BAA524
330
A7D09BAA53E
100
AcDbEntity
  8
TEXT
100
AcDbLine
 10
2.08302659291812
 20
0.4292980086369318
 30
0.0
 11
2.015526875268603
 21
0.4292980086369318
 31
0.0
  0
LINE
  5
A7D09BAA525
330
A7D09BAA53E
100
AcDbEntity
  8
TEXT
100
AcDbLine
 10
2.083026592918125
 20
0.4947622144045325
 30
0.0
 11
2.08302659291812
 21
0.4292980086369318
 31
0.0
  0
LINE
  5
A7D09BAA526
330
A7D09BAA53E
100
AcDbEntity
  8
TEXT
100
AcDbLine
 10
2.273431462753011
 20
0.4292980086369318
 30
0.0
 11
2.198439630023385
 21
0.4292980086369318
 31
0.0
  0
ENDSEC
  0
SECTION
  2
OBJECTS
  0
DICTIONARY
  5
A7D09BAA532
330
0
100
AcDbDictionary
  3
ACAD_GROUP
350
A7D09BAA533
  3
ACAD_LAYOUT
350
A7D09BAA558
  3
ACAD_MLINESTYLE
350
A7D09BAA534
  3
ACAD_PLOTSETTINGS
350
A7D09BAA559
  3
ACAD_PLOTSTYLENAME
350
A7D09BAA556
  3
ACDBHEADERROUNDTRIPXREC
350
A7D09BAA563
  3
ACDBVARIABLEDICTIONARY
350
A7D09BAA560
  0
DICTIONARY
  5
A7D09BAA585
330
A7D09BAA53E
100
AcDbDictionary
280
     1
  3
ACAD_LAYOUTSELFREF
360
A7D09BAA586
  0
DICTIONARY
  5
A7D09BAA583
330
A7D09BAA53B
100
AcDbDictionary
280
     1
  3
ACAD_LAYOUTSELFREF
360
A7D09BAA584
  0
DICTIONARY
  5
A7D09BAA533
102
{ACAD_REACTORS
330
A7D09BAA532
102
}
330
A7D09BAA532
100
AcDbDictionary
  0
DICTIONARY
  5
A7D09BAA558
102
{ACAD_REACTORS
330
A7D09BAA532
102
}
330
A7D09BAA532
100
AcDbDictionary
  0
DICTIONARY
  5
A7D09BAA534
102
{ACAD_REACTORS
330
A7D09BAA532
102
}
330
A7D09BAA532
100
AcDbDictionary
  3
STANDARD
350
A7D09BAA541
  0
DICTIONARY
  5
A7D09BAA559
102
{ACAD_REACTORS
330
A7D09BAA532
102
}
330
A7D09BAA532
100
AcDbDictionary
  0
ACDBDICTIONARYWDFLT
  5
A7D09BAA556
102
{ACAD_REACTORS
330
A7D09BAA532
102
}
330
A7D09BAA532
100
AcDbDictionary
281
     1
  3
Normal
350
A7D09BAA557
100
AcDbDictionaryWithDefault
340
A7D09BAA557
  0
DICTIONARY
  5
A7D09BAA563
102
{ACAD_REACTORS
330
A7D09BAA532
102
}
330
A7D09BAA532
100
AcDbDictionary
  3
CEPSNTYPE
350
A7D09BAA56D
  3
FINGERPRINTGUID
350
A7D09BAA56E
  3
HYPERLINKBASE
350
A7D09BAA566
  3
INSUNITS
350
A7D09BAA56C
  3
LAYOUTDICT
350
A7D09BAA568
  3
LWETCUNION
350
A7D09BAA56B
  3
PLOTSETDICT
350
A7D09BAA569
  3
PLOTSTYLNAMDICT
350
A7D09BAA56A
  3
PSVPSCALE
350
A7D09BAA570
  3
PUCSBASE
350
A7D09BAA573
  3
PUCSORGBACK
350
A7D09BAA579
  3
PUCSORGBOTTOM
350
A7D09BAA575
  3
PUCSORGFRONT
350
A7D09BAA578
  3
PUCSORGLEFT
350
A7D09BAA576
  3
PUCSORGRIGHT
350
A7D09BAA577
  3
PUCSORGTOP
350
A7D09BAA574
  3
PUCSORTHOREF
350
A7D09BAA571
  3
PUCSORTHOVIEW
350
A7D09BAA572
  3
STYLESHEET
350
A7D09BAA567
  3
TSTACKALIGN
350
A7D09BAA564
  3
TSTACKSIZE
350
A7D09BAA565
  3
UCSBASE
350
A7D09BAA57C
  3
UCSORGBACK
350
A7D09BAA582
  3
UCSORGBOTTOM
350
A7D09BAA57E
  3
UCSORGFRONT
350
A7D09BAA581
  3
UCSORGLEFT
350
A7D09BAA57F
  3
UCSORGRIGHT
350
A7D09BAA580
  3
UCSORGTOP
350
A7D09BAA57D
  3
UCSORTHOREF
350
A7D09BAA57A
  3
UCSORTHOVIEW
350
A7D09BAA57B
  3
VERSIONGUID
350
A7D09BAA56F
  0
DICTIONARY
  5
A7D09BAA560
102
{ACAD_REACTORS
330
A7D09BAA532
102
}
330
A7D09BAA532
100
AcDbDictionary
  3
DIMASSOC
350
A7D09BAA561
  0
XRECORD
  5
A7D09BAA586
102
{ACAD_REACTORS
330
A7D09BAA585
102
}
330
A7D09BAA585
100
AcDbXrecord
340
A7D09BAA53E
  0
XRECORD
  5
A7D09BAA584
102
{ACAD_REACTORS
330
A7D09BAA583
102
}
330
A7D09BAA583
100
AcDbXrecord
340
A7D09BAA53B
  0
MLINESTYLE
  5
A7D09BAA541
102
{ACAD_REACTORS
330
A7D09BAA534
102
}
330
A7D09BAA534
100
AcDbMlineStyle
  2
STANDARD
 70
     0
  3

 62
     0
 51
90.0
 52
90.0
 71
     2
 49
0.5
 62
   256
  6
BYLAYER
 49
-0.5
 62
   256
  6
BYLAYER
  0
ACDBPLACEHOLDER
  5
A7D09BAA557
102
{ACAD_REACTORS
330
A7D09BAA556
102
}
330
A7D09BAA556
100
AcDbPlaceHolder
280
     0
  0
XRECORD
  5
A7D09BAA56D
102
{ACAD_REACTORS
330
A7D09BAA563
102
}
330
A7D09BAA563
100
AcDbXrecord
 90
        0
  0
XRECORD
  5
A7D09BAA56E
102
{ACAD_REACTORS
330
A7D09BAA563
102
}
330
A7D09BAA563
100
AcDbXrecord
  1
{C5275B00-8DB3-11D6-88E6-0090279574E7}
  0
XRECORD
  5
A7D09BAA566
102
{ACAD_REACTORS
330
A7D09BAA563
102
}
330
A7D09BAA563
100
AcDbXrecord
  1

  0
XRECORD
  5
A7D09BAA56C
102
{ACAD_REACTORS
330
A7D09BAA563
102
}
330
A7D09BAA563
100
AcDbXrecord
 90
        0
  0
XRECORD
  5
A7D09BAA568
102
{ACAD_REACTORS
330
A7D09BAA563
102
}
330
A7D09BAA563
100
AcDbXrecord
340
A7D09BAA558
  0
XRECORD
  5
A7D09BAA56B
102
{ACAD_REACTORS
330
A7D09BAA563
102
}
330
A7D09BAA563
100
AcDbXrecord
 90
    14877
  0
XRECORD
  5
A7D09BAA569
102
{ACAD_REACTORS
330
A7D09BAA563
102
}
330
A7D09BAA563
100
AcDbXrecord
340
A7D09BAA559
  0
XRECORD
  5
A7D09BAA56A
102
{ACAD_REACTORS
330
A7D09BAA563
102
}
330
A7D09BAA563
100
AcDbXrecord
340
A7D09BAA556
  0
XRECORD
  5
A7D09BAA570
102
{ACAD_REACTORS
330
A7D09BAA563
102
}
330
A7D09BAA563
100
AcDbXrecord
 40
0.0
  0
XRECORD
  5
A7D09BAA573
102
{ACAD_REACTORS
330
A7D09BAA563
102
}
330
A7D09BAA563
100
AcDbXrecord
340
0
  0
XRECORD
  5
A7D09BAA579
102
{ACAD_REACTORS
330
A7D09BAA563
102
}
330
A7D09BAA563
100
AcDbXrecord
 10
0.0
 20
0.0
 30
0.0
  0
XRECORD
  5
A7D09BAA575
102
{ACAD_REACTORS
330
A7D09BAA563
102
}
330
A7D09BAA563
100
AcDbXrecord
 10
0.0
 20
0.0
 30
0.0
  0
XRECORD
  5
A7D09BAA578
102
{ACAD_REACTORS
330
A7D09BAA563
102
}
330
A7D09BAA563
100
AcDbXrecord
 10
0.0
 20
0.0
 30
0.0
  0
XRECORD
  5
A7D09BAA576
102
{ACAD_REACTORS
330
A7D09BAA563
102
}
330
A7D09BAA563
100
AcDbXrecord
 10
0.0
 20
0.0
 30
0.0
  0
XRECORD
  5
A7D09BAA577
102
{ACAD_REACTORS
330
A7D09BAA563
102
}
330
A7D09BAA563
100
AcDbXrecord
 10
0.0
 20
0.0
 30
0.0
  0
XRECORD
  5
A7D09BAA574
102
{ACAD_REACTORS
330
A7D09BAA563
102
}
330
A7D09BAA563
100
AcDbXrecord
 10
0.0
 20
0.0
 30
0.0
  0
XRECORD
  5
A7D09BAA571
102
{ACAD_REACTORS
330
A7D09BAA563
102
}
330
A7D09BAA563
100
AcDbXrecord
340
0
  0
XRECORD
  5
A7D09BAA572
102
{ACAD_REACTORS
330
A7D09BAA563
102
}
330
A7D09BAA563
100
AcDbXrecord
 70
     0
  0
XRECORD
  5
A7D09BAA567
102
{ACAD_REACTORS
330
A7D09BAA563
102
}
330
A7D09BAA563
100
AcDbXrecord
  1

  0
XRECORD
  5
A7D09BAA564
102
{ACAD_REACTORS
330
A7D09BAA563
102
}
330
A7D09BAA563
100
AcDbXrecord
 90
        1
  0
XRECORD
  5
A7D09BAA565
102
{ACAD_REACTORS
330
A7D09BAA563
102
}
330
A7D09BAA563
100
AcDbXrecord
 90
       70
  0
XRECORD
  5
A7D09BAA57C
102
{ACAD_REACTORS
330
A7D09BAA563
102
}
330
A7D09BAA563
100
AcDbXrecord
340
0
  0
XRECORD
  5
A7D09BAA582
102
{ACAD_REACTORS
330
A7D09BAA563
102
}
330
A7D09BAA563
100
AcDbXrecord
 10
0.0
 20
0.0
 30
0.0
  0
XRECORD
  5
A7D09BAA57E
102
{ACAD_REACTORS
330
A7D09BAA563
102
}
330
A7D09BAA563
100
AcDbXrecord
 10
0.0
 20
0.0
 30
0.0
  0
XRECORD
  5
A7D09BAA581
102
{ACAD_REACTORS
330
A7D09BAA563
102
}
330
A7D09BAA563
100
AcDbXrecord
 10
0.0
 20
0.0
 30
0.0
  0
XRECORD
  5
A7D09BAA57F
102
{ACAD_REACTORS
330
A7D09BAA563
102
}
330
A7D09BAA563
100
AcDbXrecord
 10
0.0
 20
0.0
 30
0.0
  0
XRECORD
  5
A7D09BAA580
102
{ACAD_REACTORS
330
A7D09BAA563
102
}
330
A7D09BAA563
100
AcDbXrecord
 10
0.0
 20
0.0
 30
0.0
  0
XRECORD
  5
A7D09BAA57D
102
{ACAD_REACTORS
330
A7D09BAA563
102
}
330
A7D09BAA563
100
AcDbXrecord
 10
0.0
 20
0.0
 30
0.0
  0
XRECORD
  5
A7D09BAA57A
102
{ACAD_REACTORS
330
A7D09BAA563
102
}
330
A7D09BAA563
100
AcDbXrecord
340
0
  0
XRECORD
  5
A7D09BAA57B
102
{ACAD_REACTORS
330
A7D09BAA563
102
}
330
A7D09BAA563
100
AcDbXrecord
 70
     0
  0
XRECORD
  5
A7D09BAA56F
102
{ACAD_REACTORS
330
A7D09BAA563
102
}
330
A7D09BAA563
100
AcDbXrecord
  1
{C5275B02-8DB3-11D6-88E6-0090279574E7}
  0
DICTIONARYVAR
  5
A7D09BAA561
102
{ACAD_REACTORS
330
A7D09BAA560
102
}
330
A7D09BAA560
100
DictionaryVariables
280
     0
  1
1
  0
ENDSEC
  0
EOF
