  0
SECTION
  2
HEADER
  9
$ACADVER
  1
AC1014
  9
$ACADMAINTVER
 70
     9
  9
$DWGCODEPAGE
  3
ANSI_1252
  9
$INSBASE
 10
1.899499999999999
 20
1.265625
 30
0.0
  9
$EXTMIN
 10
0.1565184207728565
 20
0.4013563959174185
 30
0.0
  9
$EXTMAX
 10
3.641737742519984
 20
1.575340620433566
 30
0.0
  9
$LIMMIN
 10
0.0
 20
0.0
  9
$LIMMAX
 10
18.0
 20
12.0
  9
$ORTHOMODE
 70
     1
  9
$REGENMODE
 70
     1
  9
$FILLMODE
 70
     1
  9
$QTEXTMODE
 70
     0
  9
$MIRRTEXT
 70
     0
  9
$DRAGMODE
 70
     2
  9
$LTSCALE
 40
1.0
  9
$OSMODE
 70
    39
  9
$ATTMODE
 70
     1
  9
$TEXTSIZE
 40
0.125
  9
$TRACEWID
 40
0.05
  9
$TEXTSTYLE
  7
ROMANS
  9
$CLAYER
  8
0
  9
$CELTYPE
  6
BYLAYER
  9
$CECOLOR
 62
   256
  9
$CELTSCALE
 40
1.0
  9
$DELOBJ
 70
     1
  9
$DISPSILH
 70
     1
  9
$DIMSCALE
 40
1.0
  9
$DIMASZ
 40
0.125
  9
$DIMEXO
 40
0.125
  9
$DIMDLI
 40
0.375
  9
$DIMRND
 40
0.0
  9
$DIMDLE
 40
0.0
  9
$DIMEXE
 40
0.125
  9
$DIMTP
 40
0.0
  9
$DIMTM
 40
0.0
  9
$DIMTXT
 40
0.125
  9
$DIMCEN
 40
-0.125
  9
$DIMTSZ
 40
0.0
  9
$DIMTOL
 70
     0
  9
$DIMLIM
 70
     0
  9
$DIMTIH
 70
     1
  9
$DIMTOH
 70
     1
  9
$DIMSE1
 70
     0
  9
$DIMSE2
 70
     0
  9
$DIMTAD
 70
     0
  9
$DIMZIN
 70
     4
  9
$DIMBLK
  1

  9
$DIMASO
 70
     1
  9
$DIMSHO
 70
     1
  9
$DIMPOST
  1

  9
$DIMAPOST
  1

  9
$DIMALT
 70
     0
  9
$DIMALTD
 70
     2
  9
$DIMALTF
 40
25.4
  9
$DIMLFAC
 40
1.0
  9
$DIMTOFL
 70
     0
  9
$DIMTVP
 40
0.0
  9
$DIMTIX
 70
     1
  9
$DIMSOXD
 70
     0
  9
$DIMSAH
 70
     0
  9
$DIMBLK1
  1

  9
$DIMBLK2
  1

  9
$DIMSTYLE
  2
STANDARD
  9
$DIMCLRD
 70
     0
  9
$DIMCLRE
 70
     0
  9
$DIMCLRT
 70
     0
  9
$DIMTFAC
 40
1.0
  9
$DIMGAP
 40
0.09
  9
$DIMJUST
 70
     0
  9
$DIMSD1
 70
     0
  9
$DIMSD2
 70
     0
  9
$DIMTOLJ
 70
     1
  9
$DIMTZIN
 70
     4
  9
$DIMALTZ
 70
     0
  9
$DIMALTTZ
 70
     0
  9
$DIMFIT
 70
     3
  9
$DIMUPT
 70
     0
  9
$DIMUNIT
 70
     2
  9
$DIMDEC
 70
     3
  9
$DIMTDEC
 70
     3
  9
$DIMALTU
 70
     2
  9
$DIMALTTD
 70
     2
  9
$DIMTXSTY
  7
ROMANS
  9
$DIMAUNIT
 70
     0
  9
$LUNITS
 70
     2
  9
$LUPREC
 70
     3
  9
$SKETCHINC
 40
0.1
  9
$FILLETRAD
 40
0.03125
  9
$AUNITS
 70
     0
  9
$AUPREC
 70
     0
  9
$MENU
  1
ACAD
  9
$ELEVATION
 40
0.0
  9
$PELEVATION
 40
0.0
  9
$THICKNESS
 40
0.0
  9
$LIMCHECK
 70
     0
  9
$BLIPMODE
 70
     0
  9
$CHAMFERA
 40
0.0
  9
$CHAMFERB
 40
0.0
  9
$CHAMFERC
 40
0.0
  9
$CHAMFERD
 40
0.0
  9
$SKPOLY
 70
     0
  9
$TDCREATE
 40
2448993.467195254
  9
$TDUPDATE
 40
2452458.294301863
  9
$TDINDWG
 40
0.0007975694
  9
$TDUSRTIMER
 40
0.0007975694
  9
$USRTIMER
 70
     1
  9
$ANGBASE
 50
0.0
  9
$ANGDIR
 70
     0
  9
$PDMODE
 70
     0
  9
$PDSIZE
 40
0.0
  9
$PLINEWID
 40
0.0
  9
$COORDS
 70
     2
  9
$SPLFRAME
 70
     0
  9
$SPLINETYPE
 70
     6
  9
$SPLINESEGS
 70
     8
  9
$ATTDIA
 70
     0
  9
$ATTREQ
 70
     1
  9
$HANDLING
 70
 22529
  9
$HANDSEED
  5
53E84DD5A83
  9
$SURFTAB1
 70
     6
  9
$SURFTAB2
 70
     6
  9
$SURFTYPE
 70
     6
  9
$SURFU
 70
     6
  9
$SURFV
 70
     6
  9
$UCSNAME
  2

  9
$UCSORG
 10
0.0
 20
0.0
 30
0.0
  9
$UCSXDIR
 10
1.0
 20
0.0
 30
0.0
  9
$UCSYDIR
 10
0.0
 20
1.0
 30
0.0
  9
$PUCSNAME
  2

  9
$PUCSORG
 10
0.0
 20
0.0
 30
0.0
  9
$PUCSXDIR
 10
1.0
 20
0.0
 30
0.0
  9
$PUCSYDIR
 10
0.0
 20
1.0
 30
0.0
  9
$USERI1
 70
     0
  9
$USERI2
 70
     0
  9
$USERI3
 70
     0
  9
$USERI4
 70
     0
  9
$USERI5
 70
     0
  9
$USERR1
 40
0.0
  9
$USERR2
 40
0.0
  9
$USERR3
 40
0.0
  9
$USERR4
 40
0.0
  9
$USERR5
 40
0.0
  9
$WORLDVIEW
 70
     1
  9
$SHADEDGE
 70
     3
  9
$SHADEDIF
 70
    70
  9
$TILEMODE
 70
     1
  9
$MAXACTVP
 70
    16
  9
$PINSBASE
 10
1.069400178918212
 20
50.00000000000001
 30
2.253048776010833
  9
$PLIMCHECK
 70
     0
  9
$PEXTMIN
 10
1.000000000000000E+20
 20
1.000000000000000E+20
 30
1.000000000000000E+20
  9
$PEXTMAX
 10
-1.000000000000000E+20
 20
-1.000000000000000E+20
 30
-1.000000000000000E+20
  9
$PLIMMIN
 10
0.0
 20
0.0
  9
$PLIMMAX
 10
12.0
 20
9.0
  9
$UNITMODE
 70
     0
  9
$VISRETAIN
 70
     0
  9
$PLINEGEN
 70
     1
  9
$PSLTSCALE
 70
     0
  9
$TREEDEPTH
 70
  3020
  9
$PICKSTYLE
 70
     1
  9
$CMLSTYLE
  2
STANDARD
  9
$CMLJUST
 70
     0
  9
$CMLSCALE
 40
1.0
  9
$PROXYGRAPHICS
 70
     1
  9
$MEASUREMENT
 70
     0
  0
ENDSEC
  0
SECTION
  2
CLASSES
  0
CLASS
  1
LWPOLYLINE
  2
AcDbPolyline
  3
AutoCAD 2000
 90
        0
280
     0
281
     1
  0
CLASS
  1
ACDBDICTIONARYWDFLT
  2
AcDbDictionaryWithDefault
  3
AutoCAD 2000
 90
        0
280
     0
281
     0
  0
CLASS
  1
ACDBPLACEHOLDER
  2
AcDbPlaceHolder
  3
AutoCAD 2000
 90
        0
280
     0
281
     0
  0
CLASS
  1
LAYOUT
  2
AcDbLayout
  3
AutoCAD 2000
 90
        0
280
     0
281
     0
  0
CLASS
  1
DICTIONARYVAR
  2
AcDbDictionaryVar
  3
AutoCAD 2000
 90
        0
280
     0
281
     0
  0
CLASS
  1
LONG_TRANSACTION
  2
AcDbLongTransaction
  3
AutoCAD 2000
 90
        0
280
     0
281
     0
  0
CLASS
  1
LWPOLYLINE
  2
AcDbPolyline
  3
AutoCAD 2000
 90
        0
280
     0
281
     1
  0
CLASS
  1
HATCH
  2
AcDbHatch
  3
AutoCAD 2000
 90
        0
280
     0
281
     1
  0
CLASS
  1
XRECORD
  2
AcDbXrecord
  3
AutoCAD 2000
 90
        0
280
     0
281
     0
  0
ENDSEC
  0
SECTION
  2
TABLES
  0
TABLE
  2
VPORT
  5
53E84DD5A2A
330
0
100
AcDbSymbolTable
 70
     2
  0
VPORT
  5
53E84DD5A5E
330
53E84DD5A2A
100
AcDbSymbolTableRecord
100
AcDbViewportTableRecord
  2
*ACTIVE
 70
     0
 10
0.0
 20
0.0
 11
1.0
 21
1.0
 12
4.875735126392871
 22
0.9884033424179108
 13
0.0
 23
0.0
 14
0.015625
 24
0.015625
 15
0.0
 25
0.0
 16
0.0
 26
0.0
 36
1.0
 17
0.0
 27
0.0
 37
0.0
 40
2.282647215150728
 41
4.320930232558139
 42
50.0
 43
0.0
 44
0.0
 50
0.0
 51
0.0
 71
     0
 72
  2000
 73
     1
 74
     0
 75
     1
 76
     0
 77
     0
 78
     0
  0
ENDTAB
  0
TABLE
  2
LTYPE
  5
53E84DD5A27
330
0
100
AcDbSymbolTable
 70
     1
  0
LTYPE
  5
53E84DD5A34
330
53E84DD5A27
100
AcDbSymbolTableRecord
100
AcDbLinetypeTableRecord
  2
BYBLOCK
 70
     0
  3

 72
    65
 73
     0
 40
0.0
  0
LTYPE
  5
53E84DD5A35
330
53E84DD5A27
100
AcDbSymbolTableRecord
100
AcDbLinetypeTableRecord
  2
BYLAYER
 70
     0
  3

 72
    65
 73
     0
 40
0.0
  0
LTYPE
  5
53E84DD5A36
330
53E84DD5A27
100
AcDbSymbolTableRecord
100
AcDbLinetypeTableRecord
  2
CONTINUOUS
 70
     0
  3
Solid line
 72
    65
 73
     0
 40
0.0
  0
ENDTAB
  0
TABLE
  2
LAYER
  5
53E84DD5A24
330
0
100
AcDbSymbolTable
 70
     2
  0
LAYER
  5
53E84DD5A31
330
53E84DD5A24
100
AcDbSymbolTableRecord
100
AcDbLayerTableRecord
  2
0
 70
     0
 62
     7
  6
CONTINUOUS
  0
LAYER
  5
53E84DD5A41
330
53E84DD5A24
100
AcDbSymbolTableRecord
100
AcDbLayerTableRecord
  2
TEXT
 70
     0
 62
     3
  6
CONTINUOUS
  0
ENDTAB
  0
TABLE
  2
STYLE
  5
53E84DD5A25
330
0
100
AcDbSymbolTable
 70
     3
  0
STYLE
  5
53E84DD5A32
330
53E84DD5A25
100
AcDbSymbolTableRecord
100
AcDbTextStyleTableRecord
  2
STANDARD
 70
     0
 40
0.0
 41
1.0
 50
0.0
 71
     0
 42
0.3125
  3
txt
  4

  0
STYLE
  5
53E84DD5A3E
330
53E84DD5A25
100
AcDbSymbolTableRecord
100
AcDbTextStyleTableRecord
  2
ITALICC
 70
     0
 40
0.0
 41
1.0
 50
0.0
 71
     0
 42
0.125
  3
italicc
  4

  0
STYLE
  5
53E84DD5A4E
330
53E84DD5A25
100
AcDbSymbolTableRecord
100
AcDbTextStyleTableRecord
  2
ROMANS
 70
     0
 40
0.0
 41
1.0
 50
0.0
 71
     0
 42
0.125
  3
romans.shx
  4

  0
ENDTAB
  0
TABLE
  2
VIEW
  5
53E84DD5A28
330
0
100
AcDbSymbolTable
 70
     0
  0
ENDTAB
  0
TABLE
  2
UCS
  5
53E84DD5A29
330
0
100
AcDbSymbolTable
 70
     0
  0
ENDTAB
  0
TABLE
  2
APPID
  5
53E84DD5A2B
330
0
100
AcDbSymbolTable
 70
     1
  0
APPID
  5
53E84DD5A33
330
53E84DD5A2B
100
AcDbSymbolTableRecord
100
AcDbRegAppTableRecord
  2
ACAD
 70
     0
  0
ENDTAB
  0
TABLE
  2
DIMSTYLE
  5
53E84DD5A2C
330
0
100
AcDbSymbolTable
 70
     1
  0
DIMSTYLE
105
53E84DD5A46
330
53E84DD5A2C
100
AcDbSymbolTableRecord
100
AcDbDimStyleTableRecord
  2
STANDARD
 70
     0
  3

  4

  5

  6

  7

 40
1.0
 41
0.125
 42
0.125
 43
0.375
 44
0.125
 45
0.0
 46
0.0
 47
0.0
 48
0.0
140
0.125
141
-0.125
142
0.0
143
25.4
144
1.0
145
0.0
146
1.0
147
0.09
 71
     0
 72
     0
 73
     1
 74
     1
 75
     0
 76
     0
 77
     0
 78
     4
170
     0
171
     2
172
     0
173
     0
174
     1
175
     0
176
     0
177
     0
178
     0
270
     2
271
     3
272
     3
273
     2
274
     2
340
53E84DD5A4E
275
     0
280
     0
281
     0
282
     0
283
     1
284
     4
285
     0
286
     0
287
     3
288
     0
  0
ENDTAB
  0
TABLE
  2
BLOCK_RECORD
  5
53E84DD5A23
330
0
100
AcDbSymbolTable
 70
     0
  0
BLOCK_RECORD
  5
53E84DD5A3A
102
{ACAD_XDICTIONARY
360
53E84DD5A81
102
}
330
53E84DD5A23
100
AcDbSymbolTableRecord
100
AcDbBlockTableRecord
  2
*MODEL_SPACE
  0
BLOCK_RECORD
  5
53E84DD5A37
102
{ACAD_XDICTIONARY
360
53E84DD5A7F
102
}
330
53E84DD5A23
100
AcDbSymbolTableRecord
100
AcDbBlockTableRecord
  2
*PAPER_SPACE
  0
ENDTAB
  0
ENDSEC
  0
SECTION
  2
BLOCKS
  0
BLOCK
  5
53E84DD5A44
330
53E84DD5A3A
100
AcDbEntity
  8
0
100
AcDbBlockBegin
  2
*MODEL_SPACE
 70
     0
 10
0.0
 20
0.0
 30
0.0
  3
*MODEL_SPACE
  1

  0
ENDBLK
  5
53E84DD5A45
330
53E84DD5A3A
100
AcDbEntity
  8
0
100
AcDbBlockEnd
  0
BLOCK
  5
53E84DD5A42
330
53E84DD5A37
100
AcDbEntity
 67
     1
  8
0
100
AcDbBlockBegin
  2
*PAPER_SPACE
 70
     0
 10
0.0
 20
0.0
 30
0.0
  3
*PAPER_SPACE
  1

  0
ENDBLK
  5
53E84DD5A43
330
53E84DD5A37
100
AcDbEntity
 67
     1
  8
0
100
AcDbBlockEnd
  0
ENDSEC
  0
SECTION
  2
ENTITIES
  0
LWPOLYLINE
  5
53E84DD464C
330
53E84DD5A3A
100
AcDbEntity
  8
0
100
AcDbPolyline
 90
       63
 70
     1
 43
0.0
 10
1.462499999999999
 20
1.5625
 42
-0.4142135623730951
 10
1.524499999999999
 20
1.500499999999999
 10
1.524499999999999
 20
1.468249999999999
 42
-0.4142135623730951
 10
1.462499999999999
 20
1.40625
 10
1.461999999999999
 20
1.40625
 10
1.461999999999999
 20
1.46875
 42
0.4142135623730951
 10
1.430749999999999
 20
1.5
 10
1.399499999999999
 20
1.5
 42
0.4142135623730951
 10
1.368249999999999
 20
1.46875
 10
1.368249999999999
 20
1.359375
 42
0.4142135623730951
 10
1.399499999999999
 20
1.328125
 10
1.483257363661561
 20
1.328125
 42
-0.179605302026775
 10
1.831242636338437
 20
1.328125
 10
1.836999999999999
 20
1.328125
 42
0.4142135623730951
 10
1.868249999999999
 20
1.359375
 10
1.868249999999999
 20
1.40625
 10
1.852499999999999
 20
1.40625
 42
-0.4142135623730945
 10
1.790499999999999
 20
1.468249999999999
 10
1.790499999999999
 20
1.500499999999999
 42
-0.4142135623730956
 10
1.852499999999999
 20
1.5625
 10
1.899499999999999
 20
1.5625
 10
1.946499999999999
 20
1.5625
 42
-0.4142135623730951
 10
2.008499999999999
 20
1.500499999999999
 10
2.008499999999999
 20
1.468249999999999
 42
-0.4142135623730951
 10
1.946499999999999
 20
1.40625
 10
1.930749999999999
 20
1.40625
 10
1.930749999999999
 20
1.359375
 42
0.4142135623730951
 10
1.961999999999999
 20
1.328125
 10
1.967757363661561
 20
1.328125
 42
-0.179605302026775
 10
2.315742636338438
 20
1.328125
 10
2.399499999999999
 20
1.328125
 42
0.4142135623730951
 10
2.430749999999999
 20
1.359375
 10
2.430749999999999
 20
1.46875
 42
0.4142135623730951
 10
2.399499999999999
 20
1.5
 10
2.368249999999999
 20
1.5
 42
0.4142135623730951
 10
2.336999999999999
 20
1.46875
 10
2.336999999999999
 20
1.40625
 10
2.3365
 20
1.40625
 42
-0.4142135623730951
 10
2.274499999999999
 20
1.468249999999999
 10
2.274499999999999
 20
1.500499999999999
 42
-0.4142135623730951
 10
2.3365
 20
1.5625
 10
2.461999999999999
 20
1.5625
 42
-0.4142135623730951
 10
2.493249999999999
 20
1.53125
 10
2.493249999999999
 20
1.125
 10
2.430749999999999
 20
1.125
 10
2.430749999999999
 20
1.177499999999999
 10
2.440749999999999
 20
1.1875
 10
2.430749999999999
 20
1.197499999999999
 10
2.430749999999999
 20
1.234375
 42
0.4142135623730951
 10
2.399499999999999
 20
1.265625
 10
2.151749999999999
 20
1.265625
 10
2.14175
 20
1.275624999999999
 10
2.131749999999999
 20
1.265625
 10
1.899499999999999
 20
1.265625
 10
1.667249999999999
 20
1.265625
 10
1.657249999999999
 20
1.275624999999999
 10
1.647249999999999
 20
1.265625
 10
1.399499999999999
 20
1.265625
 42
0.4142135623730951
 10
1.368249999999999
 20
1.234375
 10
1.368249999999999
 20
1.125
 10
1.305749999999999
 20
1.125
 10
1.305749999999999
 20
1.53125
 42
-0.4142135623730951
 10
1.336999999999999
 20
1.5625
  0
TEXT
  5
53E84DD58E5
330
53E84DD5A3A
100
AcDbEntity
  8
TEXT
100
AcDbText
 10
1.146523809523809
 20
0.859375
 30
0.0
 40
0.125
  1
PART #110072
  7
ITALICC
 72
     1
 11
1.899499999999999
 21
0.859375
 31
0.0
100
AcDbText
  0
TEXT
  5
53E84DD58E6
330
53E84DD5A3A
100
AcDbEntity
  8
TEXT
100
AcDbText
 10
2.31280515825032
 20
0.4124523573276249
 30
0.0
 40
0.0522247191011236
  1
Phone  1-800-328-2495
 41
1.272321428571429
 72
     5
 11
3.641737742519984
 21
0.4124523573276249
 31
0.0
100
AcDbText
  0
TEXT
  5
53E84DD58E7
330
53E84DD5A3A
100
AcDbEntity
  8
TEXT
100
AcDbText
 10
2.31280515825032
 20
0.6922276382265014
 30
0.0
 40
0.0522247191011236
  1
Stylmark  Incorporated
 41
1.221428571428573
 72
     5
 11
3.641737742519984
 21
0.6922276382265014
 31
0.0
100
AcDbText
  0
TEXT
  5
53E84DD58E8
330
53E84DD5A3A
100
AcDbEntity
  8
TEXT
100
AcDbText
 10
2.31280515825032
 20
0.5989692112602092
 30
0.0
 40
0.0522247191011236
  1
6536 Main St. N.E. * P.O. Box 32008
 41
0.8388932496075366
 72
     5
 11
3.641737742519984
 21
0.5989692112602092
 31
0.0
100
AcDbText
  0
TEXT
  5
53E84DD58E9
330
53E84DD5A3A
100
AcDbEntity
  8
TEXT
100
AcDbText
 10
2.31280515825032
 20
0.5057107842939171
 30
0.0
 40
0.0522247191011236
  1
Minneapolis, MN 55432-0008
 41
1.11444212721585
 72
     5
 11
3.641737742519984
 21
0.5057107842939171
 31
0.0
100
AcDbText
  0
LWPOLYLINE
  5
53E84DD58EA
330
53E84DD5A3A
100
AcDbEntity
  8
TEXT
100
AcDbPolyline
 90
        3
 70
     0
 43
0.0006660908203125
 10
0.1568514661830127
 20
0.5260971199650597
 10
0.1568514661830127
 20
0.4128616805119321
 10
0.270086905636135
 20
0.4128616805119321
  0
LWPOLYLINE
  5
53E84DD58EF
330
53E84DD5A3A
100
AcDbEntity
  8
TEXT
100
AcDbPolyline
 90
        3
 70
     0
 43
0.0006660908203125
 10
0.1834950989955102
 20
0.5260971199650597
 10
0.1834950989955102
 20
0.4395053133244331
 10
0.270086905636135
 20
0.4395053133244331
  0
LWPOLYLINE
  5
53E84DD58F4
330
53E84DD5A3A
100
AcDbEntity
  8
TEXT
100
AcDbPolyline
 90
        2
 70
     0
 43
0.0001332181640625
 10
0.230121456417387
 20
0.536088482269745
 10
0.1568514661830127
 20
0.5260971199650597
  0
LWPOLYLINE
  5
53E84DD58F8
330
53E84DD5A3A
100
AcDbEntity
  8
TEXT
100
AcDbPolyline
 90
        2
 70
     0
 43
0.0001332181640625
 10
0.1834950989955102
 20
0.5260971199650597
 10
0.2434432728236375
 20
0.536088482269745
  0
LWPOLYLINE
  5
53E84DD58FC
330
53E84DD5A3A
100
AcDbEntity
  8
TEXT
100
AcDbPolyline
 90
        2
 70
     0
 43
0.0001332181640625
 10
0.1834950989955102
 20
0.4395053133244331
 10
0.2434432728236375
 20
0.4994534871525587
  0
LWPOLYLINE
  5
53E84DD5900
330
53E84DD5A3A
100
AcDbEntity
  8
TEXT
100
AcDbPolyline
 90
        3
 70
     0
 43
0.0006660908203125
 10
0.270086905636135
 20
0.6792980086369354
 10
0.1568514661830127
 20
0.6792980086369354
 10
0.1568514661830127
 20
0.5660625691838077
  0
LWPOLYLINE
  5
53E84DD5905
330
53E84DD5A3A
100
AcDbEntity
  8
TEXT
100
AcDbPolyline
 90
        3
 70
     0
 43
0.0006660908203125
 10
0.270086905636135
 20
0.6526543758244343
 10
0.1834950989955102
 20
0.6526543758244343
 10
0.1834950989955102
 20
0.5660625691838077
  0
LWPOLYLINE
  5
53E84DD590A
330
53E84DD5A3A
100
AcDbEntity
  8
TEXT
100
AcDbPolyline
 90
        2
 70
     0
 43
0.0001332181640625
 10
0.1834950989955102
 20
0.6526543758244343
 10
0.2434432728236358
 20
0.5927062019963088
  0
LWPOLYLINE
  5
53E84DD590E
330
53E84DD5A3A
100
AcDbEntity
  8
TEXT
100
AcDbPolyline
 90
        2
 70
     0
 43
0.0001332181640625
 10
0.1834950989955102
 20
0.5660625691838077
 10
0.2434432728236358
 20
0.556071206879119
  0
LWPOLYLINE
  5
53E84DD5912
330
53E84DD5A3A
100
AcDbEntity
  8
TEXT
100
AcDbPolyline
 90
        2
 70
     0
 43
0.0001332181640625
 10
0.1568514661830127
 20
0.5660625691838077
 10
0.230121456417387
 20
0.556071206879119
  0
LWPOLYLINE
  5
53E84DD5916
330
53E84DD5A3A
100
AcDbEntity
  8
TEXT
100
AcDbPolyline
 90
        2
 70
     0
 43
0.0006660908203125
 10
0.1834950989955102
 20
0.5260971199650597
 10
0.1568514661830127
 20
0.5260971199650597
  0
LWPOLYLINE
  5
53E84DD591A
330
53E84DD5A3A
100
AcDbEntity
  8
TEXT
100
AcDbPolyline
 90
        2
 70
     0
 43
0.0006660908203125
 10
0.1834950989955102
 20
0.5660625691838077
 10
0.1568514661830127
 20
0.5660625691838077
  0
LINE
  5
53E84DD591E
330
53E84DD5A3A
100
AcDbEntity
  8
TEXT
100
AcDbLine
 10
1.67204189530951
 20
0.6150213139801664
 30
0.0
 11
1.56483562192222
 21
0.6150213139801664
 31
0.0
  0
LINE
  5
53E84DD591F
330
53E84DD5A3A
100
AcDbEntity
  8
TEXT
100
AcDbLine
 10
1.701072793653988
 20
0.6792980086369318
 30
0.0
 11
1.566240884436929
 21
0.6792980086369318
 31
0.0
  0
ARC
  5
53E84DD5920
330
53E84DD5A3A
100
AcDbEntity
  8
TEXT
100
AcDbCircle
 10
1.625554980830246
 20
0.5100607593739155
 30
0.0
 40
0.0676855811441166
100
AcDbArc
 50
90.0
 51
153.7768192527749
  0
LWPOLYLINE
  5
53E84DD5921
330
53E84DD5A3A
100
AcDbEntity
  8
TEXT
100
AcDbPolyline
 90
        2
 70
     0
 43
0.0
 10
1.56380312646741
 20
0.456315920598859
 42
0.2901071551932823
 10
1.606879059335046
 20
0.4128249756484208
 42
5.328517124445801
  0
ARC
  5
53E84DD5925
330
53E84DD5A3A
100
AcDbEntity
  8
TEXT
100
AcDbCircle
 10
0.9204236031587607
 20
0.4726173669864706
 30
0.0
 40
0.0601160179737537
100
AcDbArc
 50
180.0000000000003
 51
264.0521544866073
  0
LINE
  5
53E84DD5926
330
53E84DD5A3A
100
AcDbEntity
  8
TEXT
100
AcDbLine
 10
0.9239389587843085
 20
0.71368592623107
 30
0.0
 11
0.8638963539403015
 21
0.71368592623107
 31
0.0
  0
ARC
  5
53E84DD5927
330
53E84DD5A3A
100
AcDbEntity
  8
TEXT
100
AcDbCircle
 10
0.6881646010417902
 20
0.5972105491904301
 30
0.0
 40
0.0820874594465043
100
AcDbArc
 50
90.0
 51
270.0
  0
LWPOLYLINE
  5
53E84DD5928
330
53E84DD5A3A
100
AcDbEntity
  8
TEXT
100
AcDbPolyline
 90
        2
 70
     0
 43
0.0001332181640625
 10
0.2800782679408256
 20
0.6060280184025558
 10
0.270086905636135
 20
0.6792980086369354
  0
LWPOLYLINE
  5
53E84DD592C
330
53E84DD5A3A
100
AcDbEntity
  8
TEXT
100
AcDbPolyline
 90
        2
 70
     0
 43
0.0001332181640625
 10
0.270086905636135
 20
0.6526543758244343
 10
0.2800782679408256
 20
0.5927062019963088
  0
LWPOLYLINE
  5
53E84DD5930
330
53E84DD5A3A
100
AcDbEntity
  8
TEXT
100
AcDbPolyline
 90
        3
 70
     0
 43
0.0006660908203125
 10
0.4232877943080125
 20
0.5660625691838077
 10
0.4232877943080125
 20
0.6792980086369354
 10
0.3100523548548866
 20
0.6792980086369354
  0
LWPOLYLINE
  5
53E84DD5935
330
53E84DD5A3A
100
AcDbEntity
  8
TEXT
100
AcDbPolyline
 90
        3
 70
     0
 43
0.0006660908203125
 10
0.3966441614955114
 20
0.5660625691838077
 10
0.3966441614955114
 20
0.6526543758244343
 10
0.3100523548548866
 20
0.6526543758244343
  0
LWPOLYLINE
  5
53E84DD593A
330
53E84DD5A3A
100
AcDbEntity
  8
TEXT
100
AcDbPolyline
 90
        2
 70
     0
 43
0.0001332181640625
 10
0.3966441614955114
 20
0.6526543758244343
 10
0.3366959876673876
 20
0.5927062019963088
  0
LWPOLYLINE
  5
53E84DD593E
330
53E84DD5A3A
100
AcDbEntity
  8
TEXT
100
AcDbPolyline
 90
        2
 70
     0
 43
0.0001332181640625
 10
0.3100523548548866
 20
0.6526543758244343
 10
0.3000609925501978
 20
0.5927062019963088
  0
LWPOLYLINE
  5
53E84DD5942
330
53E84DD5A3A
100
AcDbEntity
  8
TEXT
100
AcDbPolyline
 90
        2
 70
     0
 43
0.0001332181640625
 10
0.3100523548548866
 20
0.6792980086369354
 10
0.3000609925501978
 20
0.6060280184025558
  0
LWPOLYLINE
  5
53E84DD5946
330
53E84DD5A3A
100
AcDbEntity
  8
TEXT
100
AcDbPolyline
 90
        2
 70
     0
 43
0.0001332181640625
 10
0.3500178040736364
 20
0.556071206879119
 10
0.4232877943080125
 20
0.5660625691838077
  0
LWPOLYLINE
  5
53E84DD594A
330
53E84DD5A3A
100
AcDbEntity
  8
TEXT
100
AcDbPolyline
 90
        2
 70
     0
 43
0.0001332181640625
 10
0.3966441614955114
 20
0.5660625691838077
 10
0.3366959876673876
 20
0.556071206879119
  0
LWPOLYLINE
  5
53E84DD594E
330
53E84DD5A3A
100
AcDbEntity
  8
TEXT
100
AcDbPolyline
 90
        2
 70
     0
 43
0.0001332181640625
 10
0.4232877943080125
 20
0.5260971199650597
 10
0.3500178040736364
 20
0.536088482269745
  0
LWPOLYLINE
  5
53E84DD5952
330
53E84DD5A3A
100
AcDbEntity
  8
TEXT
100
AcDbPolyline
 90
        2
 70
     0
 43
0.0001332181640625
 10
0.3966441614955114
 20
0.5260971199650597
 10
0.3366959876673876
 20
0.536088482269745
  0
LWPOLYLINE
  5
53E84DD5956
330
53E84DD5A3A
100
AcDbEntity
  8
TEXT
100
AcDbPolyline
 90
        2
 70
     0
 43
0.0001332181640625
 10
0.3966441614955114
 20
0.4395053133244331
 10
0.3366959876673876
 20
0.4994534871525587
  0
LWPOLYLINE
  5
53E84DD595A
330
53E84DD5A3A
100
AcDbEntity
  8
TEXT
100
AcDbPolyline
 90
        3
 70
     0
 43
0.0006660908203125
 10
0.3100523548548866
 20
0.4395053133244331
 10
0.3966441614955114
 20
0.4395053133244331
 10
0.3966441614955114
 20
0.5260971199650597
  0
LWPOLYLINE
  5
53E84DD595F
330
53E84DD5A3A
100
AcDbEntity
  8
TEXT
100
AcDbPolyline
 90
        3
 70
     0
 43
0.0006660908203125
 10
0.3100523548548866
 20
0.4128616805119321
 10
0.4232877943080125
 20
0.4128616805119321
 10
0.4232877943080125
 20
0.5260971199650597
  0
LWPOLYLINE
  5
53E84DD5964
330
53E84DD5A3A
100
AcDbEntity
  8
TEXT
100
AcDbPolyline
 90
        5
 70
     0
 43
0.0001332181640625
 10
0.2800782679408256
 20
0.4861316707463082
 10
0.2800782679408256
 20
0.4994534871525587
 10
0.2434432728236375
 20
0.4994534871525587
 10
0.2434432728236375
 20
0.536088482269745
 10
0.230121456417387
 20
0.536088482269745
  0
LWPOLYLINE
  5
53E84DD596B
330
53E84DD5A3A
100
AcDbEntity
  8
TEXT
100
AcDbPolyline
 90
        2
 70
     0
 43
0.0006660908203125
 10
0.270086905636135
 20
0.4395053133244331
 10
0.270086905636135
 20
0.4128616805119321
  0
LWPOLYLINE
  5
53E84DD596F
330
53E84DD5A3A
100
AcDbEntity
  8
TEXT
100
AcDbPolyline
 90
        2
 70
     0
 43
0.0001332181640625
 10
0.270086905636135
 20
0.4395053133244331
 10
0.2800782679408256
 20
0.4994534871525587
  0
LWPOLYLINE
  5
53E84DD5973
330
53E84DD5A3A
100
AcDbEntity
  8
TEXT
100
AcDbPolyline
 90
        2
 70
     0
 43
0.0001332181640625
 10
0.270086905636135
 20
0.4128616805119321
 10
0.2800782679408256
 20
0.4861316707463082
  0
LWPOLYLINE
  5
53E84DD5977
330
53E84DD5A3A
100
AcDbEntity
  8
TEXT
100
AcDbPolyline
 90
        5
 70
     0
 43
0.0001332181640625
 10
0.230121456417387
 20
0.556071206879119
 10
0.2434432728236358
 20
0.556071206879119
 10
0.2434432728236358
 20
0.5927062019963088
 10
0.2800782679408256
 20
0.5927062019963088
 10
0.2800782679408256
 20
0.6060280184025558
  0
LWPOLYLINE
  5
53E84DD597E
330
53E84DD5A3A
100
AcDbEntity
  8
TEXT
100
AcDbPolyline
 90
        5
 70
     0
 43
0.0001332181640625
 10
0.3000609925501978
 20
0.6060280184025558
 10
0.3000609925501978
 20
0.5927062019963088
 10
0.3366959876673876
 20
0.5927062019963088
 10
0.3366959876673876
 20
0.556071206879119
 10
0.3500178040736364
 20
0.556071206879119
  0
LWPOLYLINE
  5
53E84DD5985
330
53E84DD5A3A
100
AcDbEntity
  8
TEXT
100
AcDbPolyline
 90
        2
 70
     0
 43
0.0001332181640625
 10
0.3100523548548866
 20
0.4395053133244331
 10
0.3000609925501978
 20
0.4994534871525587
  0
LWPOLYLINE
  5
53E84DD5989
330
53E84DD5A3A
100
AcDbEntity
  8
TEXT
100
AcDbPolyline
 90
        2
 70
     0
 43
0.0001332181640625
 10
0.3000609925501978
 20
0.4861316707463082
 10
0.3100523548548866
 20
0.4128616805119321
  0
LWPOLYLINE
  5
53E84DD598D
330
53E84DD5A3A
100
AcDbEntity
  8
TEXT
100
AcDbPolyline
 90
        2
 70
     0
 43
0.0006660908203125
 10
0.3100523548548866
 20
0.4395053133244331
 10
0.3100523548548866
 20
0.4128616805119321
  0
LWPOLYLINE
  5
53E84DD5991
330
53E84DD5A3A
100
AcDbEntity
  8
TEXT
100
AcDbPolyline
 90
        5
 70
     0
 43
0.0001332181640625
 10
0.3500178040736364
 20
0.536088482269745
 10
0.3366959876673876
 20
0.536088482269745
 10
0.3366959876673876
 20
0.4994534871525587
 10
0.3000609925501978
 20
0.4994534871525587
 10
0.3000609925501978
 20
0.4861316707463082
  0
LWPOLYLINE
  5
53E84DD5998
330
53E84DD5A3A
100
AcDbEntity
  8
TEXT
100
AcDbPolyline
 90
        2
 70
     0
 43
0.0006660908203125
 10
0.3966441614955114
 20
0.5660625691838077
 10
0.4232877943080125
 20
0.5660625691838077
  0
LWPOLYLINE
  5
53E84DD599C
330
53E84DD5A3A
100
AcDbEntity
  8
TEXT
100
AcDbPolyline
 90
        2
 70
     0
 43
0.0006660908203125
 10
0.3966441614955114
 20
0.5260971199650597
 10
0.4232877943080125
 20
0.5260971199650597
  0
LINE
  5
53E84DD59A0
330
53E84DD5A3A
100
AcDbEntity
  8
TEXT
100
AcDbLine
 10
0.6934019311560374
 20
0.6150213139801664
 30
0.0
 11
0.8603075851850086
 21
0.6150213139801664
 31
0.0
  0
LINE
  5
53E84DD59A1
330
53E84DD5A3A
100
AcDbEntity
  8
TEXT
100
AcDbLine
 10
0.7590020674003384
 20
0.5792165923695385
 30
0.0
 11
0.6934019311560374
 21
0.5792165923695385
 31
0.0
  0
LINE
  5
53E84DD59A2
330
53E84DD5A3A
100
AcDbEntity
  8
TEXT
100
AcDbLine
 10
0.6060771415952857
 20
0.4128249756484208
 30
0.0
 11
0.7590020674003384
 21
0.4128249756484208
 31
0.0
  0
LINE
  5
53E84DD59A3
330
53E84DD5A3A
100
AcDbEntity
  8
TEXT
100
AcDbLine
 10
0.7639424413066181
 20
0.4811819819818602
 30
0.0
 11
0.606077141595284
 21
0.4811819819818602
 31
0.0
  0
LINE
  5
53E84DD59A4
330
53E84DD5A3A
100
AcDbEntity
  8
TEXT
100
AcDbLine
 10
0.6881646010417893
 20
0.5151230897439248
 30
0.0
 11
0.7639424413066181
 21
0.5151230897439248
 31
0.0
  0
ARC
  5
53E84DD59A5
330
53E84DD5A3A
100
AcDbEntity
  8
TEXT
100
AcDbCircle
 10
0.6934019311560382
 20
0.5971189531748542
 30
0.0
 40
0.017902360805315
100
AcDbArc
 50
90.0
 51
270.0
  0
LINE
  5
53E84DD59A6
330
53E84DD5A3A
100
AcDbEntity
  8
TEXT
100
AcDbLine
 10
0.606077141595284
 20
0.4811819819818602
 30
0.0
 11
0.6060771415952857
 21
0.4128249756484208
 31
0.0
  0
LINE
  5
53E84DD59A7
330
53E84DD5A3A
100
AcDbEntity
  8
TEXT
100
AcDbLine
 10
0.8603075851850086
 20
0.6150213139801664
 30
0.0
 11
0.8603075851850086
 21
0.4726173669864706
 31
0.0
  0
ARC
  5
53E84DD59A8
330
53E84DD5A3A
100
AcDbEntity
  8
TEXT
100
AcDbCircle
 10
0.7590020674003393
 20
0.4960207840089779
 30
0.0
 40
0.0831958083605586
100
AcDbArc
 50
270.0
 51
90.0
  0
ARC
  5
53E84DD59A9
330
53E84DD5A3A
100
AcDbEntity
  8
TEXT
100
AcDbCircle
 10
0.763942441306619
 20
0.4981525358628942
 30
0.0
 40
0.0169705538810321
100
AcDbArc
 50
270.0
 51
90.0
  0
LWPOLYLINE
  5
53E84DD59AA
330
53E84DD5A3A
100
AcDbEntity
  8
TEXT
100
AcDbPolyline
 90
        2
 70
     0
 43
0.0006660908203125
 10
0.270086905636135
 20
0.6526543758244343
 10
0.270086905636135
 20
0.6792980086369354
  0
LWPOLYLINE
  5
53E84DD59AE
330
53E84DD5A3A
100
AcDbEntity
  8
TEXT
100
AcDbPolyline
 90
        2
 70
     0
 43
0.0006660908203125
 10
0.3100523548548866
 20
0.6526543758244343
 10
0.3100523548548866
 20
0.6792980086369354
  0
LINE
  5
53E84DD59B2
330
53E84DD5A3A
100
AcDbEntity
  8
TEXT
100
AcDbLine
 10
0.8638963539403015
 20
0.6792980086369318
 30
0.0
 11
0.6881646010417893
 21
0.6792980086369318
 31
0.0
  0
LINE
  5
53E84DD59B3
330
53E84DD5A3A
100
AcDbEntity
  8
TEXT
100
AcDbLine
 10
0.8638963539403015
 20
0.71368592623107
 30
0.0
 11
0.8638963539403015
 21
0.6792980086369318
 31
0.0
  0
LINE
  5
53E84DD59B4
330
53E84DD5A3A
100
AcDbEntity
  8
TEXT
100
AcDbLine
 10
1.054368245960153
 20
0.5784260125238112
 30
0.0
 11
0.9957379249282158
 21
0.6792980086369318
 31
0.0
  0
LINE
  5
53E84DD59B5
330
53E84DD5A3A
100
AcDbEntity
  8
TEXT
100
AcDbLine
 10
1.113116808766019
 20
0.6792980086369318
 30
0.0
 11
1.054368245960153
 21
0.5784260125238112
 31
0.0
  0
LINE
  5
53E84DD59B6
330
53E84DD5A3A
100
AcDbEntity
  8
TEXT
100
AcDbLine
 10
1.21004743412576
 20
0.4952128137514201
 30
0.0
 11
1.21004743412576
 21
0.7473094863757424
 31
0.0
  0
LINE
  5
53E84DD59B7
330
53E84DD5A3A
100
AcDbEntity
  8
TEXT
100
AcDbLine
 10
1.24235928826342
 20
0.6792980086369318
 30
0.0
 11
1.24235928826342
 21
0.4784338019045236
 31
0.0
  0
LINE
  5
53E84DD59B8
330
53E84DD5A3A
100
AcDbEntity
  8
TEXT
100
AcDbLine
 10
1.24235928826342
 20
0.4784338019045236
 30
0.0
 11
1.225365651378819
 21
0.4784338019045236
 31
0.0
  0
LINE
  5
53E84DD59B9
330
53E84DD5A3A
100
AcDbEntity
  8
TEXT
100
AcDbLine
 10
1.211187007621955
 20
0.4128249756484208
 30
0.0
 11
1.309190341321389
 21
0.4128249756484208
 31
0.0
  0
LINE
  5
53E84DD59BA
330
53E84DD5A3A
100
AcDbEntity
  8
TEXT
100
AcDbLine
 10
1.044768008963199
 20
0.4327834817534338
 30
0.0
 11
1.142067715056644
 21
0.5971336926887019
 31
0.0
  0
ARC
  5
53E84DD59BB
330
53E84DD5A3A
100
AcDbEntity
  8
TEXT
100
AcDbCircle
 10
1.010724449050985
 20
0.4523726979221166
 30
0.0
 40
0.0392772371940762
100
AcDbArc
 50
270.1604552698595
 51
330.0831797321295
  0
LINE
  5
53E84DD59BC
330
53E84DD5A3A
100
AcDbEntity
  8
TEXT
100
AcDbLine
 10
0.9141941926651142
 20
0.4128249756484208
 30
0.0
 11
1.010834443740108
 21
0.4130956147467031
 31
0.0
  0
LWPOLYLINE
  5
53E84DD59BD
330
53E84DD5A3A
100
AcDbEntity
  8
TEXT
100
AcDbPolyline
 90
        6
 70
     1
 43
0.0
 10
0.9567179962402638
 20
0.6150213139801664
 10
0.9264014020200557
 20
0.6150213139801664
 10
0.9264014020200557
 20
0.4919103159252721
 42
0.407328721240804
 10
0.937945053181532
 20
0.480091401248886
 10
0.9985667522262628
 20
0.480091401248886
 10
1.01603209263358
 20
0.5129036302923651
  0
LINE
  5
53E84DD59C5
330
53E84DD5A3A
100
AcDbEntity
  8
TEXT
100
AcDbLine
 10
1.142067715056644
 20
0.5971336926887019
 30
0.0
 11
1.142067715056644
 21
0.4643763178633456
 31
0.0
  0
ARC
  5
53E84DD59C6
330
53E84DD5A3A
100
AcDbEntity
  8
TEXT
100
AcDbCircle
 10
1.225365651378817
 20
0.493815608147949
 30
0.0
 40
0.0153818062434269
100
AcDbArc
 50
174.7883570302258
 51
270.0
  0
LWPOLYLINE
  5
53E84DD59C7
330
53E84DD5A3A
100
AcDbEntity
  8
TEXT
100
AcDbPolyline
 90
        2
 70
     0
 43
0.0
 10
1.142067715056642
 20
0.4643763178633491
 42
0.3318488747599744
 10
1.211187007621955
 20
0.4128249756484208
 42
-6.868794160588311
  0
LINE
  5
53E84DD59CB
330
53E84DD5A3A
100
AcDbEntity
  8
TEXT
100
AcDbLine
 10
1.36657941031065
 20
0.4128249756484208
 30
0.0
 11
1.433637457092491
 21
0.4128249756484208
 31
0.0
  0
LINE
  5
53E84DD59CC
330
53E84DD5A3A
100
AcDbEntity
  8
TEXT
100
AcDbLine
 10
1.36657941031065
 20
0.6074675248140565
 30
0.0
 11
1.36657941031065
 21
0.4128249756484208
 31
0.0
  0
LINE
  5
53E84DD59CD
330
53E84DD5A3A
100
AcDbEntity
  8
TEXT
100
AcDbLine
 10
1.309190341321389
 20
0.6150213139801664
 30
0.0
 11
1.359025621144537
 21
0.6150213139801664
 31
0.0
  0
LINE
  5
53E84DD59CE
330
53E84DD5A3A
100
AcDbEntity
  8
TEXT
100
AcDbLine
 10
1.309190341321389
 20
0.4128249756484208
 30
0.0
 11
1.309190341321389
 21
0.6150213139801664
 31
0.0
  0
LWPOLYLINE
  5
53E84DD59CF
330
53E84DD5A3A
100
AcDbEntity
  8
TEXT
100
AcDbPolyline
 90
        2
 70
     0
 43
0.0
 10
1.359025621144535
 20
0.6150213139801664
 42
-0.4142135623731017
 10
1.366579410310649
 20
0.6074675248140565
 42
-0.9999999999999998
  0
LINE
  5
53E84DD59D3
330
53E84DD5A3A
100
AcDbEntity
  8
TEXT
100
AcDbLine
 10
1.56483562192222
 20
0.6150213139801664
 30
0.0
 11
1.56483562192222
 21
0.5399689079059598
 31
0.0
  0
LINE
  5
53E84DD59D4
330
53E84DD5A3A
100
AcDbEntity
  8
TEXT
100
AcDbLine
 10
1.433637457092491
 20
0.6150213139801664
 30
0.0
 11
1.487771054013441
 21
0.6150213139801664
 31
0.0
  0
LINE
  5
53E84DD59D5
330
53E84DD5A3A
100
AcDbEntity
  8
TEXT
100
AcDbLine
 10
1.433637457092491
 20
0.4128249756484208
 30
0.0
 11
1.433637457092491
 21
0.6150213139801664
 31
0.0
  0
LWPOLYLINE
  5
53E84DD59D6
330
53E84DD5A3A
100
AcDbEntity
  8
TEXT
100
AcDbPolyline
 90
        2
 70
     0
 43
0.0
 10
1.487771054013439
 20
0.6150213139801664
 42
-0.4142135623731017
 10
1.495324843179552
 20
0.6074675248140565
 42
-0.9999999999999998
  0
LWPOLYLINE
  5
53E84DD59DA
330
53E84DD5A3A
100
AcDbEntity
  8
TEXT
100
AcDbPolyline
 90
        4
 70
     0
 43
0.0
 10
1.495324843179552
 20
0.6074675248140565
 10
1.495324843179552
 20
0.4128249756484208
 10
1.56380312646741
 20
0.4128249756484208
 10
1.56380312646741
 20
0.456315920598859
 42
-1.714843617202739
  0
LINE
  5
53E84DD59E0
330
53E84DD5A3A
100
AcDbEntity
  8
TEXT
100
AcDbLine
 10
0.9239389587843085
 20
0.6792980086369318
 30
0.0
 11
0.9239389587843085
 21
0.71368592623107
 31
0.0
  0
LINE
  5
53E84DD59E1
330
53E84DD5A3A
100
AcDbEntity
  8
TEXT
100
AcDbLine
 10
0.9957379249282158
 20
0.6792980086369318
 30
0.0
 11
0.9239389587843085
 21
0.6792980086369318
 31
0.0
  0
LINE
  5
53E84DD59E2
330
53E84DD5A3A
100
AcDbEntity
  8
TEXT
100
AcDbLine
 10
1.143238721559395
 20
0.6792980086369318
 30
0.0
 11
1.113116808766019
 21
0.6792980086369318
 31
0.0
  0
LINE
  5
53E84DD59E3
330
53E84DD5A3A
100
AcDbEntity
  8
TEXT
100
AcDbLine
 10
1.143238721559395
 20
0.7473094863757424
 30
0.0
 11
1.143238721559395
 21
0.6792980086369318
 31
0.0
  0
LINE
  5
53E84DD59E4
330
53E84DD5A3A
100
AcDbEntity
  8
TEXT
100
AcDbLine
 10
1.21004743412576
 20
0.7473094863757424
 30
0.0
 11
1.143238721559395
 21
0.7473094863757424
 31
0.0
  0
LWPOLYLINE
  5
53E84DD59E5
330
53E84DD5A3A
100
AcDbEntity
  8
TEXT
100
AcDbPolyline
 90
        3
 70
     0
 43
0.0
 10
1.530459193723762
 20
0.6792980086369354
 10
1.412159034907718
 20
0.6792980086369354
 10
1.412159034907718
 20
0.6521305118760395
 42
-1.960274751411753
  0
LINE
  5
53E84DD59EA
330
53E84DD5A3A
100
AcDbEntity
  8
TEXT
100
AcDbLine
 10
1.376377344194557
 20
0.6792980086369318
 30
0.0
 11
1.24235928826342
 21
0.6792980086369318
 31
0.0
  0
LWPOLYLINE
  5
53E84DD59EB
330
53E84DD5A3A
100
AcDbEntity
  8
TEXT
100
AcDbPolyline
 90
        2
 70
     0
 43
0.0
 10
1.376377344194557
 20
0.6792980086369354
 42
-0.3328679258950098
 10
1.412159034907718
 20
0.6521305118760395
 42
6.772930709997214
  0
LINE
  5
53E84DD59EF
330
53E84DD5A3A
100
AcDbEntity
  8
TEXT
100
AcDbLine
 10
1.566240884436929
 20
0.6792980086369318
 30
0.0
 11
1.566240884436929
 21
0.650975462867288
 31
0.0
  0
LWPOLYLINE
  5
53E84DD59F0
330
53E84DD5A3A
100
AcDbEntity
  8
TEXT
100
AcDbPolyline
 90
        2
 70
     0
 43
0.0
 10
1.530459193723762
 20
0.6792980086369354
 42
-0.3277054968067132
 10
1.566240884436927
 20
0.6509754628672915
 42
6.667889725900311
  0
LINE
  5
53E84DD59F4
330
53E84DD5A3A
100
AcDbEntity
  8
TEXT
100
AcDbLine
 10
1.780032732529029
 20
0.5740860300835045
 30
0.0
 11
1.736281961347128
 21
0.6563363060796497
 31
0.0
  0
LINE
  5
53E84DD59F5
330
53E84DD5A3A
100
AcDbEntity
  8
TEXT
100
AcDbLine
 10
1.780032732529029
 20
0.6792980086369318
 30
0.0
 11
1.780032732529029
 21
0.5740860300835045
 31
0.0
  0
LINE
  5
53E84DD59F6
330
53E84DD5A3A
100
AcDbEntity
  8
TEXT
100
AcDbLine
 10
2.007716471467398
 20
0.6034326822253937
 30
0.0
 11
2.007716471467398
 21
0.7447622144045325
 31
0.0
  0
LINE
  5
53E84DD59F7
330
53E84DD5A3A
100
AcDbEntity
  8
TEXT
100
AcDbLine
 10
2.054814630023383
 20
0.6792980086369318
 30
0.0
 11
2.007716471467398
 21
0.6034326822253937
 31
0.0
  0
LINE
  5
53E84DD59F8
330
53E84DD5A3A
100
AcDbEntity
  8
TEXT
100
AcDbLine
 10
2.065249346787306
 20
0.5694047656959583
 30
0.0
 11
2.129806462753011
 21
0.6792980086369318
 31
0.0
  0
LINE
  5
53E84DD59F9
330
53E84DD5A3A
100
AcDbEntity
  8
TEXT
100
AcDbLine
 10
1.943881480244625
 20
0.4128249756484208
 30
0.0
 11
2.008259664563246
 21
0.4128249756484208
 31
0.0
  0
LWPOLYLINE
  5
53E84DD59FA
330
53E84DD5A3A
100
AcDbEntity
  8
TEXT
100
AcDbPolyline
 90
        2
 70
     0
 43
0.0
 10
1.783972409834067
 20
0.456315920598859
 42
-0.2901071551932486
 10
1.740896476966423
 20
0.4128249756484208
 42
-5.328517124445184
  0
ARC
  5
53E84DD59FE
330
53E84DD5A3A
100
AcDbEntity
  8
TEXT
100
AcDbCircle
 10
1.672041895309508
 20
0.5866619389801691
 30
0.0
 40
0.028359375
100
AcDbArc
 50
25.78218179591245
 51
90.0
  0
LINE
  5
53E84DD59FF
330
53E84DD5A3A
100
AcDbEntity
  8
TEXT
100
AcDbLine
 10
1.707842970613631
 20
0.5777463405180341
 30
0.0
 11
1.697578210200067
 21
0.5989968800907284
 31
0.0
  0
LINE
  5
53E84DD5A00
330
53E84DD5A3A
100
AcDbEntity
  8
TEXT
100
AcDbLine
 10
1.625554980830248
 20
0.5777463405180341
 30
0.0
 11
1.707842970613631
 21
0.5777463405180341
 31
0.0
  0
LWPOLYLINE
  5
53E84DD5A01
330
53E84DD5A3A
100
AcDbEntity
  8
TEXT
100
AcDbPolyline
 90
        4
 70
     1
 43
0.0
 10
1.72077401189653
 20
0.5157889536324461
 10
1.632113693236671
 20
0.5157889536324461
 42
0.9999999999999998
 10
1.632113693236671
 20
0.4733904131285854
 10
1.72077401189653
 20
0.4733904131285854
 42
1.0
  0
LWPOLYLINE
  5
53E84DD5A07
330
53E84DD5A3A
100
AcDbEntity
  8
TEXT
100
AcDbPolyline
 90
        2
 70
     0
 43
0.0
 10
1.606879059335046
 20
0.4128249756484208
 10
1.740896476966423
 20
0.4128249756484208
 42
0.9999999999999998
  0
LINE
  5
53E84DD5A0B
330
53E84DD5A3A
100
AcDbEntity
  8
TEXT
100
AcDbLine
 10
1.867233498952062
 20
0.6150213139801664
 30
0.0
 11
1.94388148024462
 21
0.6150213139801664
 31
0.0
  0
LINE
  5
53E84DD5A0C
330
53E84DD5A3A
100
AcDbEntity
  8
TEXT
100
AcDbLine
 10
1.94388148024462
 20
0.6150213139801664
 30
0.0
 11
1.943881480244625
 21
0.4128249756484208
 31
0.0
  0
ARC
  5
53E84DD5A0D
330
53E84DD5A3A
100
AcDbEntity
  8
TEXT
100
AcDbCircle
 10
1.86723349895206
 20
0.5901154386975036
 30
0.0
 40
0.0249058752826653
100
AcDbArc
 50
89.99971217465335
 51
179.9999999999985
  0
LINE
  5
53E84DD5A0E
330
53E84DD5A3A
100
AcDbEntity
  8
TEXT
100
AcDbLine
 10
1.842327623669403
 20
0.4128249756484208
 30
0.0
 11
1.842327623669397
 21
0.5901154810798892
 31
0.0
  0
LWPOLYLINE
  5
53E84DD5A0F
330
53E84DD5A3A
100
AcDbEntity
  8
TEXT
100
AcDbPolyline
 90
        2
 70
     0
 43
0.0
 10
1.783972409834067
 20
0.4128249756484208
 10
1.842327623669401
 20
0.4128249756484208
  0
LWPOLYLINE
  5
53E84DD5A13
330
53E84DD5A3A
100
AcDbEntity
  8
TEXT
100
AcDbPolyline
 90
        2
 70
     0
 43
0.0
 10
1.783972409834067
 20
0.456315920598859
 10
1.783972409834067
 20
0.4128249756484208
  0
LINE
  5
53E84DD5A17
330
53E84DD5A3A
100
AcDbEntity
  8
TEXT
100
AcDbLine
 10
2.160741570150916
 20
0.4128249756484208
 30
0.0
 11
2.065249346787306
 21
0.5694047656959583
 31
0.0
  0
LINE
  5
53E84DD5A18
330
53E84DD5A3A
100
AcDbEntity
  8
TEXT
100
AcDbLine
 10
2.08416319777471
 20
0.4128249756484208
 30
0.0
 11
2.160741570150916
 21
0.4128249756484208
 31
0.0
  0
LINE
  5
53E84DD5A19
330
53E84DD5A3A
100
AcDbEntity
  8
TEXT
100
AcDbLine
 10
2.008259664563246
 20
0.5444045441246011
 30
0.0
 11
2.08416319777471
 21
0.4128249756484208
 31
0.0
  0
LINE
  5
53E84DD5A1A
330
53E84DD5A3A
100
AcDbEntity
  8
TEXT
100
AcDbLine
 10
2.008259664563246
 20
0.4128249756484208
 30
0.0
 11
2.008259664563246
 21
0.5444045441246011
 31
0.0
  0
LINE
  5
53E84DD5A1B
330
53E84DD5A3A
100
AcDbEntity
  8
TEXT
100
AcDbLine
 10
2.007716471467398
 20
0.7447622144045325
 30
0.0
 11
1.939401592918125
 21
0.7447622144045325
 31
0.0
  0
ARC
  5
53E84DD5A1C
330
53E84DD5A3A
100
AcDbEntity
  8
TEXT
100
AcDbCircle
 10
1.699045853876919
 20
0.6377144415160294
 30
0.0
 40
0.0416329381542859
100
AcDbArc
 50
26.56974201007528
 51
87.20939649401342
  0
LINE
  5
53E84DD5A1D
330
53E84DD5A3A
100
AcDbEntity
  8
TEXT
100
AcDbLine
 10
1.84392963882853
 20
0.6792980086369318
 30
0.0
 11
1.780032732529029
 21
0.6792980086369318
 31
0.0
  0
LINE
  5
53E84DD5A1E
330
53E84DD5A3A
100
AcDbEntity
  8
TEXT
100
AcDbLine
 10
1.84392963882853
 20
0.6517503587760572
 30
0.0
 11
1.84392963882853
 21
0.6792980086369318
 31
0.0
  0
ARC
  5
53E84DD5A1F
330
53E84DD5A3A
100
AcDbEntity
  8
TEXT
100
AcDbCircle
 10
1.875122455891638
 20
0.648052281354667
 30
0.0
 40
0.0314112657011332
100
AcDbArc
 50
95.88484768694724
 51
173.2388340632136
  0
LINE
  5
53E84DD5A20
330
53E84DD5A3A
100
AcDbEntity
  8
TEXT
100
AcDbLine
 10
1.93940159291812
 20
0.6792980086369318
 30
0.0
 11
1.871901875268603
 21
0.6792980086369318
 31
0.0
  0
LINE
  5
53E84DD5A21
330
53E84DD5A3A
100
AcDbEntity
  8
TEXT
100
AcDbLine
 10
1.939401592918125
 20
0.7447622144045325
 30
0.0
 11
1.93940159291812
 21
0.6792980086369318
 31
0.0
  0
LINE
  5
53E84DD5A22
330
53E84DD5A3A
100
AcDbEntity
  8
TEXT
100
AcDbLine
 10
2.129806462753011
 20
0.6792980086369318
 30
0.0
 11
2.054814630023384
 21
0.6792980086369318
 31
0.0
  0
ENDSEC
  0
SECTION
  2
OBJECTS
  0
DICTIONARY
  5
53E84DD5A2E
330
0
100
AcDbDictionary
  3
ACAD_GROUP
350
53E84DD5A2F
  3
ACAD_LAYOUT
350
53E84DD5A54
  3
ACAD_MLINESTYLE
350
53E84DD5A30
  3
ACAD_PLOTSETTINGS
350
53E84DD5A55
  3
ACAD_PLOTSTYLENAME
350
53E84DD5A52
  3
ACDBHEADERROUNDTRIPXREC
350
53E84DD5A5F
  3
ACDBVARIABLEDICTIONARY
350
53E84DD5A5C
  0
DICTIONARY
  5
53E84DD5A81
330
53E84DD5A3A
100
AcDbDictionary
280
     1
  3
ACAD_LAYOUTSELFREF
360
53E84DD5A82
  0
DICTIONARY
  5
53E84DD5A7F
330
53E84DD5A37
100
AcDbDictionary
280
     1
  3
ACAD_LAYOUTSELFREF
360
53E84DD5A80
  0
DICTIONARY
  5
53E84DD5A2F
102
{ACAD_REACTORS
330
53E84DD5A2E
102
}
330
53E84DD5A2E
100
AcDbDictionary
  0
DICTIONARY
  5
53E84DD5A54
102
{ACAD_REACTORS
330
53E84DD5A2E
102
}
330
53E84DD5A2E
100
AcDbDictionary
  0
DICTIONARY
  5
53E84DD5A30
102
{ACAD_REACTORS
330
53E84DD5A2E
102
}
330
53E84DD5A2E
100
AcDbDictionary
  3
STANDARD
350
53E84DD5A3D
  0
DICTIONARY
  5
53E84DD5A55
102
{ACAD_REACTORS
330
53E84DD5A2E
102
}
330
53E84DD5A2E
100
AcDbDictionary
  0
ACDBDICTIONARYWDFLT
  5
53E84DD5A52
102
{ACAD_REACTORS
330
53E84DD5A2E
102
}
330
53E84DD5A2E
100
AcDbDictionary
281
     1
  3
Normal
350
53E84DD5A53
100
AcDbDictionaryWithDefault
340
53E84DD5A53
  0
DICTIONARY
  5
53E84DD5A5F
102
{ACAD_REACTORS
330
53E84DD5A2E
102
}
330
53E84DD5A2E
100
AcDbDictionary
  3
CEPSNTYPE
350
53E84DD5A69
  3
FINGERPRINTGUID
350
53E84DD5A6A
  3
HYPERLINKBASE
350
53E84DD5A62
  3
INSUNITS
350
53E84DD5A68
  3
LAYOUTDICT
350
53E84DD5A64
  3
LWETCUNION
350
53E84DD5A67
  3
PLOTSETDICT
350
53E84DD5A65
  3
PLOTSTYLNAMDICT
350
53E84DD5A66
  3
PSVPSCALE
350
53E84DD5A6C
  3
PUCSBASE
350
53E84DD5A6F
  3
PUCSORGBACK
350
53E84DD5A75
  3
PUCSORGBOTTOM
350
53E84DD5A71
  3
PUCSORGFRONT
350
53E84DD5A74
  3
PUCSORGLEFT
350
53E84DD5A72
  3
PUCSORGRIGHT
350
53E84DD5A73
  3
PUCSORGTOP
350
53E84DD5A70
  3
PUCSORTHOREF
350
53E84DD5A6D
  3
PUCSORTHOVIEW
350
53E84DD5A6E
  3
STYLESHEET
350
53E84DD5A63
  3
TSTACKALIGN
350
53E84DD5A60
  3
TSTACKSIZE
350
53E84DD5A61
  3
UCSBASE
350
53E84DD5A78
  3
UCSORGBACK
350
53E84DD5A7E
  3
UCSORGBOTTOM
350
53E84DD5A7A
  3
UCSORGFRONT
350
53E84DD5A7D
  3
UCSORGLEFT
350
53E84DD5A7B
  3
UCSORGRIGHT
350
53E84DD5A7C
  3
UCSORGTOP
350
53E84DD5A79
  3
UCSORTHOREF
350
53E84DD5A76
  3
UCSORTHOVIEW
350
53E84DD5A77
  3
VERSIONGUID
350
53E84DD5A6B
  0
DICTIONARY
  5
53E84DD5A5C
102
{ACAD_REACTORS
330
53E84DD5A2E
102
}
330
53E84DD5A2E
100
AcDbDictionary
  3
DIMASSOC
350
53E84DD5A5D
  0
XRECORD
  5
53E84DD5A82
102
{ACAD_REACTORS
330
53E84DD5A81
102
}
330
53E84DD5A81
100
AcDbXrecord
340
53E84DD5A3A
  0
XRECORD
  5
53E84DD5A80
102
{ACAD_REACTORS
330
53E84DD5A7F
102
}
330
53E84DD5A7F
100
AcDbXrecord
340
53E84DD5A37
  0
MLINESTYLE
  5
53E84DD5A3D
102
{ACAD_REACTORS
330
53E84DD5A30
102
}
330
53E84DD5A30
100
AcDbMlineStyle
  2
STANDARD
 70
     0
  3

 62
     0
 51
90.0
 52
90.0
 71
     2
 49
0.5
 62
   256
  6
BYLAYER
 49
-0.5
 62
   256
  6
BYLAYER
  0
ACDBPLACEHOLDER
  5
53E84DD5A53
102
{ACAD_REACTORS
330
53E84DD5A52
102
}
330
53E84DD5A52
100
AcDbPlaceHolder
280
     0
  0
XRECORD
  5
53E84DD5A69
102
{ACAD_REACTORS
330
53E84DD5A5F
102
}
330
53E84DD5A5F
100
AcDbXrecord
 90
        0
  0
XRECORD
  5
53E84DD5A6A
102
{ACAD_REACTORS
330
53E84DD5A5F
102
}
330
53E84DD5A5F
100
AcDbXrecord
  1
{C147A250-8DB3-11D6-88E6-0090279574E7}
  0
XRECORD
  5
53E84DD5A62
102
{ACAD_REACTORS
330
53E84DD5A5F
102
}
330
53E84DD5A5F
100
AcDbXrecord
  1

  0
XRECORD
  5
53E84DD5A68
102
{ACAD_REACTORS
330
53E84DD5A5F
102
}
330
53E84DD5A5F
100
AcDbXrecord
 90
        0
  0
XRECORD
  5
53E84DD5A64
102
{ACAD_REACTORS
330
53E84DD5A5F
102
}
330
53E84DD5A5F
100
AcDbXrecord
340
53E84DD5A54
  0
XRECORD
  5
53E84DD5A67
102
{ACAD_REACTORS
330
53E84DD5A5F
102
}
330
53E84DD5A5F
100
AcDbXrecord
 90
    14877
  0
XRECORD
  5
53E84DD5A65
102
{ACAD_REACTORS
330
53E84DD5A5F
102
}
330
53E84DD5A5F
100
AcDbXrecord
340
53E84DD5A55
  0
XRECORD
  5
53E84DD5A66
102
{ACAD_REACTORS
330
53E84DD5A5F
102
}
330
53E84DD5A5F
100
AcDbXrecord
340
53E84DD5A52
  0
XRECORD
  5
53E84DD5A6C
102
{ACAD_REACTORS
330
53E84DD5A5F
102
}
330
53E84DD5A5F
100
AcDbXrecord
 40
0.0
  0
XRECORD
  5
53E84DD5A6F
102
{ACAD_REACTORS
330
53E84DD5A5F
102
}
330
53E84DD5A5F
100
AcDbXrecord
340
0
  0
XRECORD
  5
53E84DD5A75
102
{ACAD_REACTORS
330
53E84DD5A5F
102
}
330
53E84DD5A5F
100
AcDbXrecord
 10
0.0
 20
0.0
 30
0.0
  0
XRECORD
  5
53E84DD5A71
102
{ACAD_REACTORS
330
53E84DD5A5F
102
}
330
53E84DD5A5F
100
AcDbXrecord
 10
0.0
 20
0.0
 30
0.0
  0
XRECORD
  5
53E84DD5A74
102
{ACAD_REACTORS
330
53E84DD5A5F
102
}
330
53E84DD5A5F
100
AcDbXrecord
 10
0.0
 20
0.0
 30
0.0
  0
XRECORD
  5
53E84DD5A72
102
{ACAD_REACTORS
330
53E84DD5A5F
102
}
330
53E84DD5A5F
100
AcDbXrecord
 10
0.0
 20
0.0
 30
0.0
  0
XRECORD
  5
53E84DD5A73
102
{ACAD_REACTORS
330
53E84DD5A5F
102
}
330
53E84DD5A5F
100
AcDbXrecord
 10
0.0
 20
0.0
 30
0.0
  0
XRECORD
  5
53E84DD5A70
102
{ACAD_REACTORS
330
53E84DD5A5F
102
}
330
53E84DD5A5F
100
AcDbXrecord
 10
0.0
 20
0.0
 30
0.0
  0
XRECORD
  5
53E84DD5A6D
102
{ACAD_REACTORS
330
53E84DD5A5F
102
}
330
53E84DD5A5F
100
AcDbXrecord
340
0
  0
XRECORD
  5
53E84DD5A6E
102
{ACAD_REACTORS
330
53E84DD5A5F
102
}
330
53E84DD5A5F
100
AcDbXrecord
 70
     0
  0
XRECORD
  5
53E84DD5A63
102
{ACAD_REACTORS
330
53E84DD5A5F
102
}
330
53E84DD5A5F
100
AcDbXrecord
  1

  0
XRECORD
  5
53E84DD5A60
102
{ACAD_REACTORS
330
53E84DD5A5F
102
}
330
53E84DD5A5F
100
AcDbXrecord
 90
        1
  0
XRECORD
  5
53E84DD5A61
102
{ACAD_REACTORS
330
53E84DD5A5F
102
}
330
53E84DD5A5F
100
AcDbXrecord
 90
       70
  0
XRECORD
  5
53E84DD5A78
102
{ACAD_REACTORS
330
53E84DD5A5F
102
}
330
53E84DD5A5F
100
AcDbXrecord
340
0
  0
XRECORD
  5
53E84DD5A7E
102
{ACAD_REACTORS
330
53E84DD5A5F
102
}
330
53E84DD5A5F
100
AcDbXrecord
 10
0.0
 20
0.0
 30
0.0
  0
XRECORD
  5
53E84DD5A7A
102
{ACAD_REACTORS
330
53E84DD5A5F
102
}
330
53E84DD5A5F
100
AcDbXrecord
 10
0.0
 20
0.0
 30
0.0
  0
XRECORD
  5
53E84DD5A7D
102
{ACAD_REACTORS
330
53E84DD5A5F
102
}
330
53E84DD5A5F
100
AcDbXrecord
 10
0.0
 20
0.0
 30
0.0
  0
XRECORD
  5
53E84DD5A7B
102
{ACAD_REACTORS
330
53E84DD5A5F
102
}
330
53E84DD5A5F
100
AcDbXrecord
 10
0.0
 20
0.0
 30
0.0
  0
XRECORD
  5
53E84DD5A7C
102
{ACAD_REACTORS
330
53E84DD5A5F
102
}
330
53E84DD5A5F
100
AcDbXrecord
 10
0.0
 20
0.0
 30
0.0
  0
XRECORD
  5
53E84DD5A79
102
{ACAD_REACTORS
330
53E84DD5A5F
102
}
330
53E84DD5A5F
100
AcDbXrecord
 10
0.0
 20
0.0
 30
0.0
  0
XRECORD
  5
53E84DD5A76
102
{ACAD_REACTORS
330
53E84DD5A5F
102
}
330
53E84DD5A5F
100
AcDbXrecord
340
0
  0
XRECORD
  5
53E84DD5A77
102
{ACAD_REACTORS
330
53E84DD5A5F
102
}
330
53E84DD5A5F
100
AcDbXrecord
 70
     0
  0
XRECORD
  5
53E84DD5A6B
102
{ACAD_REACTORS
330
53E84DD5A5F
102
}
330
53E84DD5A5F
100
AcDbXrecord
  1
{C147A252-8DB3-11D6-88E6-0090279574E7}
  0
DICTIONARYVAR
  5
53E84DD5A5D
102
{ACAD_REACTORS
330
53E84DD5A5C
102
}
330
53E84DD5A5C
100
DictionaryVariables
280
     0
  1
1
  0
ENDSEC
  0
EOF
