  0
SECTION
  2
HEADER
  9
$ACADVER
  1
AC1014
  9
$ACADMAINTVER
 70
     9
  9
$DWGCODEPAGE
  3
ANSI_1252
  9
$INSBASE
 10
1.912073242304505
 20
1.02868569101323
 30
0.0
  9
$EXTMIN
 10
0.3659666630773627
 20
0.3206670869306485
 30
0.0
  9
$EXTMAX
 10
3.85118598482449
 20
2.40368569101323
 30
0.0
  9
$LIMMIN
 10
0.0
 20
0.0
  9
$LIMMAX
 10
18.0
 20
12.0
  9
$ORTHOMODE
 70
     1
  9
$REGENMODE
 70
     1
  9
$FILLMODE
 70
     1
  9
$QTEXTMODE
 70
     0
  9
$MIRRTEXT
 70
     0
  9
$DRAGMODE
 70
     2
  9
$LTSCALE
 40
1.0
  9
$OSMODE
 70
    39
  9
$ATTMODE
 70
     1
  9
$TEXTSIZE
 40
0.125
  9
$TRACEWID
 40
0.05
  9
$TEXTSTYLE
  7
ROMANS
  9
$CLAYER
  8
0
  9
$CELTYPE
  6
BYLAYER
  9
$CECOLOR
 62
   256
  9
$CELTSCALE
 40
1.0
  9
$DELOBJ
 70
     1
  9
$DISPSILH
 70
     1
  9
$DIMSCALE
 40
1.0
  9
$DIMASZ
 40
0.125
  9
$DIMEXO
 40
0.125
  9
$DIMDLI
 40
0.375
  9
$DIMRND
 40
0.0
  9
$DIMDLE
 40
0.0
  9
$DIMEXE
 40
0.125
  9
$DIMTP
 40
0.0
  9
$DIMTM
 40
0.0
  9
$DIMTXT
 40
0.125
  9
$DIMCEN
 40
-0.125
  9
$DIMTSZ
 40
0.0
  9
$DIMTOL
 70
     0
  9
$DIMLIM
 70
     0
  9
$DIMTIH
 70
     1
  9
$DIMTOH
 70
     1
  9
$DIMSE1
 70
     0
  9
$DIMSE2
 70
     0
  9
$DIMTAD
 70
     0
  9
$DIMZIN
 70
     4
  9
$DIMBLK
  1

  9
$DIMASO
 70
     1
  9
$DIMSHO
 70
     1
  9
$DIMPOST
  1

  9
$DIMAPOST
  1

  9
$DIMALT
 70
     0
  9
$DIMALTD
 70
     2
  9
$DIMALTF
 40
25.4
  9
$DIMLFAC
 40
1.0
  9
$DIMTOFL
 70
     0
  9
$DIMTVP
 40
0.0
  9
$DIMTIX
 70
     1
  9
$DIMSOXD
 70
     0
  9
$DIMSAH
 70
     0
  9
$DIMBLK1
  1

  9
$DIMBLK2
  1

  9
$DIMSTYLE
  2
STANDARD
  9
$DIMCLRD
 70
     0
  9
$DIMCLRE
 70
     0
  9
$DIMCLRT
 70
     0
  9
$DIMTFAC
 40
1.0
  9
$DIMGAP
 40
0.09
  9
$DIMJUST
 70
     0
  9
$DIMSD1
 70
     0
  9
$DIMSD2
 70
     0
  9
$DIMTOLJ
 70
     1
  9
$DIMTZIN
 70
     4
  9
$DIMALTZ
 70
     0
  9
$DIMALTTZ
 70
     0
  9
$DIMFIT
 70
     3
  9
$DIMUPT
 70
     0
  9
$DIMUNIT
 70
     2
  9
$DIMDEC
 70
     3
  9
$DIMTDEC
 70
     3
  9
$DIMALTU
 70
     2
  9
$DIMALTTD
 70
     2
  9
$DIMTXSTY
  7
ROMANS
  9
$DIMAUNIT
 70
     0
  9
$LUNITS
 70
     2
  9
$LUPREC
 70
     3
  9
$SKETCHINC
 40
0.1
  9
$FILLETRAD
 40
0.03125
  9
$AUNITS
 70
     0
  9
$AUPREC
 70
     0
  9
$MENU
  1
ACAD
  9
$ELEVATION
 40
0.0
  9
$PELEVATION
 40
0.0
  9
$THICKNESS
 40
0.0
  9
$LIMCHECK
 70
     0
  9
$BLIPMODE
 70
     0
  9
$CHAMFERA
 40
0.0
  9
$CHAMFERB
 40
0.0
  9
$CHAMFERC
 40
0.0
  9
$CHAMFERD
 40
0.0
  9
$SKPOLY
 70
     0
  9
$TDCREATE
 40
2448993.464776389
  9
$TDUPDATE
 40
2452458.294216435
  9
$TDINDWG
 40
0.0007127199
  9
$TDUSRTIMER
 40
0.0007127199
  9
$USRTIMER
 70
     1
  9
$ANGBASE
 50
0.0
  9
$ANGDIR
 70
     0
  9
$PDMODE
 70
     0
  9
$PDSIZE
 40
0.0
  9
$PLINEWID
 40
0.0
  9
$COORDS
 70
     2
  9
$SPLFRAME
 70
     0
  9
$SPLINETYPE
 70
     6
  9
$SPLINESEGS
 70
     8
  9
$ATTDIA
 70
     0
  9
$ATTREQ
 70
     1
  9
$HANDLING
 70
 22529
  9
$HANDSEED
  5
14FA13762EE
  9
$SURFTAB1
 70
     6
  9
$SURFTAB2
 70
     6
  9
$SURFTYPE
 70
     6
  9
$SURFU
 70
     6
  9
$SURFV
 70
     6
  9
$UCSNAME
  2

  9
$UCSORG
 10
0.0
 20
0.0
 30
0.0
  9
$UCSXDIR
 10
1.0
 20
0.0
 30
0.0
  9
$UCSYDIR
 10
0.0
 20
1.0
 30
0.0
  9
$PUCSNAME
  2

  9
$PUCSORG
 10
0.0
 20
0.0
 30
0.0
  9
$PUCSXDIR
 10
1.0
 20
0.0
 30
0.0
  9
$PUCSYDIR
 10
0.0
 20
1.0
 30
0.0
  9
$USERI1
 70
     0
  9
$USERI2
 70
     0
  9
$USERI3
 70
     0
  9
$USERI4
 70
     0
  9
$USERI5
 70
     0
  9
$USERR1
 40
0.0
  9
$USERR2
 40
0.0
  9
$USERR3
 40
0.0
  9
$USERR4
 40
0.0
  9
$USERR5
 40
0.0
  9
$WORLDVIEW
 70
     1
  9
$SHADEDGE
 70
     3
  9
$SHADEDIF
 70
    70
  9
$TILEMODE
 70
     1
  9
$MAXACTVP
 70
    16
  9
$PINSBASE
 10
0.9597181088282582
 20
50.00000000000001
 30
2.185975609438087
  9
$PLIMCHECK
 70
     0
  9
$PEXTMIN
 10
1.000000000000000E+20
 20
1.000000000000000E+20
 30
1.000000000000000E+20
  9
$PEXTMAX
 10
-1.000000000000000E+20
 20
-1.000000000000000E+20
 30
-1.000000000000000E+20
  9
$PLIMMIN
 10
0.0
 20
0.0
  9
$PLIMMAX
 10
12.0
 20
9.0
  9
$UNITMODE
 70
     0
  9
$VISRETAIN
 70
     0
  9
$PLINEGEN
 70
     1
  9
$PSLTSCALE
 70
     0
  9
$TREEDEPTH
 70
  3020
  9
$PICKSTYLE
 70
     1
  9
$CMLSTYLE
  2
STANDARD
  9
$CMLJUST
 70
     0
  9
$CMLSCALE
 40
1.0
  9
$PROXYGRAPHICS
 70
     1
  9
$MEASUREMENT
 70
     0
  0
ENDSEC
  0
SECTION
  2
CLASSES
  0
CLASS
  1
LWPOLYLINE
  2
AcDbPolyline
  3
AutoCAD 2000
 90
        0
280
     0
281
     1
  0
CLASS
  1
ACDBDICTIONARYWDFLT
  2
AcDbDictionaryWithDefault
  3
AutoCAD 2000
 90
        0
280
     0
281
     0
  0
CLASS
  1
ACDBPLACEHOLDER
  2
AcDbPlaceHolder
  3
AutoCAD 2000
 90
        0
280
     0
281
     0
  0
CLASS
  1
LAYOUT
  2
AcDbLayout
  3
AutoCAD 2000
 90
        0
280
     0
281
     0
  0
CLASS
  1
DICTIONARYVAR
  2
AcDbDictionaryVar
  3
AutoCAD 2000
 90
        0
280
     0
281
     0
  0
CLASS
  1
LONG_TRANSACTION
  2
AcDbLongTransaction
  3
AutoCAD 2000
 90
        0
280
     0
281
     0
  0
CLASS
  1
LWPOLYLINE
  2
AcDbPolyline
  3
AutoCAD 2000
 90
        0
280
     0
281
     1
  0
CLASS
  1
HATCH
  2
AcDbHatch
  3
AutoCAD 2000
 90
        0
280
     0
281
     1
  0
CLASS
  1
XRECORD
  2
AcDbXrecord
  3
AutoCAD 2000
 90
        0
280
     0
281
     0
  0
ENDSEC
  0
SECTION
  2
TABLES
  0
TABLE
  2
VPORT
  5
14FA1376295
330
0
100
AcDbSymbolTable
 70
     2
  0
VPORT
  5
14FA13762C9
330
14FA1376295
100
AcDbSymbolTableRecord
100
AcDbViewportTableRecord
  2
*ACTIVE
 70
     0
 10
0.0
 20
0.0
 11
1.0
 21
1.0
 12
5.175439134331625
 22
1.361938499102762
 13
0.0
 23
0.0
 14
0.015625
 24
0.015625
 15
0.0
 25
0.0
 16
0.0
 26
0.0
 36
1.0
 17
0.0
 27
0.0
 37
0.0
 40
2.352410233736668
 41
4.320930232558139
 42
50.0
 43
0.0
 44
0.0
 50
0.0
 51
0.0
 71
     0
 72
  2000
 73
     1
 74
     0
 75
     1
 76
     0
 77
     0
 78
     0
  0
ENDTAB
  0
TABLE
  2
LTYPE
  5
14FA1376292
330
0
100
AcDbSymbolTable
 70
     1
  0
LTYPE
  5
14FA137629F
330
14FA1376292
100
AcDbSymbolTableRecord
100
AcDbLinetypeTableRecord
  2
BYBLOCK
 70
     0
  3

 72
    65
 73
     0
 40
0.0
  0
LTYPE
  5
14FA13762A0
330
14FA1376292
100
AcDbSymbolTableRecord
100
AcDbLinetypeTableRecord
  2
BYLAYER
 70
     0
  3

 72
    65
 73
     0
 40
0.0
  0
LTYPE
  5
14FA13762A1
330
14FA1376292
100
AcDbSymbolTableRecord
100
AcDbLinetypeTableRecord
  2
CONTINUOUS
 70
     0
  3
Solid line
 72
    65
 73
     0
 40
0.0
  0
ENDTAB
  0
TABLE
  2
LAYER
  5
14FA137628F
330
0
100
AcDbSymbolTable
 70
     2
  0
LAYER
  5
14FA137629C
330
14FA137628F
100
AcDbSymbolTableRecord
100
AcDbLayerTableRecord
  2
0
 70
     0
 62
     7
  6
CONTINUOUS
  0
LAYER
  5
14FA13762AC
330
14FA137628F
100
AcDbSymbolTableRecord
100
AcDbLayerTableRecord
  2
TEXT
 70
     0
 62
     3
  6
CONTINUOUS
  0
ENDTAB
  0
TABLE
  2
STYLE
  5
14FA1376290
330
0
100
AcDbSymbolTable
 70
     3
  0
STYLE
  5
14FA137629D
330
14FA1376290
100
AcDbSymbolTableRecord
100
AcDbTextStyleTableRecord
  2
STANDARD
 70
     0
 40
0.0
 41
1.0
 50
0.0
 71
     0
 42
0.3125
  3
txt
  4

  0
STYLE
  5
14FA13762A9
330
14FA1376290
100
AcDbSymbolTableRecord
100
AcDbTextStyleTableRecord
  2
ITALICC
 70
     0
 40
0.0
 41
1.0
 50
0.0
 71
     0
 42
0.125
  3
italicc
  4

  0
STYLE
  5
14FA13762B9
330
14FA1376290
100
AcDbSymbolTableRecord
100
AcDbTextStyleTableRecord
  2
ROMANS
 70
     0
 40
0.0
 41
1.0
 50
0.0
 71
     0
 42
0.125
  3
romans.shx
  4

  0
ENDTAB
  0
TABLE
  2
VIEW
  5
14FA1376293
330
0
100
AcDbSymbolTable
 70
     0
  0
ENDTAB
  0
TABLE
  2
UCS
  5
14FA1376294
330
0
100
AcDbSymbolTable
 70
     0
  0
ENDTAB
  0
TABLE
  2
APPID
  5
14FA1376296
330
0
100
AcDbSymbolTable
 70
     1
  0
APPID
  5
14FA137629E
330
14FA1376296
100
AcDbSymbolTableRecord
100
AcDbRegAppTableRecord
  2
ACAD
 70
     0
  0
ENDTAB
  0
TABLE
  2
DIMSTYLE
  5
14FA1376297
330
0
100
AcDbSymbolTable
 70
     1
  0
DIMSTYLE
105
14FA13762B1
330
14FA1376297
100
AcDbSymbolTableRecord
100
AcDbDimStyleTableRecord
  2
STANDARD
 70
     0
  3

  4

  5

  6

  7

 40
1.0
 41
0.125
 42
0.125
 43
0.375
 44
0.125
 45
0.0
 46
0.0
 47
0.0
 48
0.0
140
0.125
141
-0.125
142
0.0
143
25.4
144
1.0
145
0.0
146
1.0
147
0.09
 71
     0
 72
     0
 73
     1
 74
     1
 75
     0
 76
     0
 77
     0
 78
     4
170
     0
171
     2
172
     0
173
     0
174
     1
175
     0
176
     0
177
     0
178
     0
270
     2
271
     3
272
     3
273
     2
274
     2
340
14FA13762B9
275
     0
280
     0
281
     0
282
     0
283
     1
284
     4
285
     0
286
     0
287
     3
288
     0
  0
ENDTAB
  0
TABLE
  2
BLOCK_RECORD
  5
14FA137628E
330
0
100
AcDbSymbolTable
 70
     0
  0
BLOCK_RECORD
  5
14FA13762A5
102
{ACAD_XDICTIONARY
360
14FA13762EC
102
}
330
14FA137628E
100
AcDbSymbolTableRecord
100
AcDbBlockTableRecord
  2
*MODEL_SPACE
  0
BLOCK_RECORD
  5
14FA13762A2
102
{ACAD_XDICTIONARY
360
14FA13762EA
102
}
330
14FA137628E
100
AcDbSymbolTableRecord
100
AcDbBlockTableRecord
  2
*PAPER_SPACE
  0
ENDTAB
  0
ENDSEC
  0
SECTION
  2
BLOCKS
  0
BLOCK
  5
14FA13762AF
330
14FA13762A5
100
AcDbEntity
  8
0
100
AcDbBlockBegin
  2
*MODEL_SPACE
 70
     0
 10
0.0
 20
0.0
 30
0.0
  3
*MODEL_SPACE
  1

  0
ENDBLK
  5
14FA13762B0
330
14FA13762A5
100
AcDbEntity
  8
0
100
AcDbBlockEnd
  0
BLOCK
  5
14FA13762AD
330
14FA13762A2
100
AcDbEntity
 67
     1
  8
0
100
AcDbBlockBegin
  2
*PAPER_SPACE
 70
     0
 10
0.0
 20
0.0
 30
0.0
  3
*PAPER_SPACE
  1

  0
ENDBLK
  5
14FA13762AE
330
14FA13762A2
100
AcDbEntity
 67
     1
  8
0
100
AcDbBlockEnd
  0
ENDSEC
  0
SECTION
  2
ENTITIES
  0
LWPOLYLINE
  5
14FA1374E77
330
14FA13762A5
100
AcDbEntity
  8
0
 62
     7
100
AcDbPolyline
 90
       60
 70
     0
 43
0.0
 10
1.762823242304505
 20
1.90368569101323
 10
1.762823242304505
 20
2.04468569101323
 10
1.882489942304507
 20
2.04468569101323
 10
1.882489942304506
 20
1.763611541693656
 42
-0.414213562373091
 10
1.851239942304507
 20
1.732361541693656
 10
1.819989942304506
 20
1.732361541693655
 10
1.819989942304507
 20
1.722361541693655
 10
1.882489942304507
 20
1.659861541693655
 10
1.882489942304505
 20
1.05826899101323
 42
1.0
 10
1.941656542304505
 20
1.05826899101323
 10
1.941656542304507
 20
1.659861541693656
 10
2.004156542304506
 20
1.722361541693655
 10
2.004156542304506
 20
1.732361541693655
 10
1.972906542304506
 20
1.732361541693656
 42
-0.414213562373091
 10
1.941656542304507
 20
1.763611541693656
 10
1.941656542304506
 20
2.04468569101323
 10
2.061323242304505
 20
2.04468569101323
 10
2.061323242304506
 20
1.90368569101323
 42
0.3000053884897058
 10
2.141318907947822
 20
1.782361541693655
 10
2.158323242304506
 20
1.811813912748319
 42
-3.732050807568862
 10
2.228323242304505
 20
1.811813912748319
 10
2.245327576661189
 20
1.782361541693655
 42
0.3000052973626761
 10
2.325323242304498
 20
1.903685646871094
 10
2.325323242304498
 20
2.04468569101323
 10
2.446656542304506
 20
2.04468569101323
 10
2.446656542304507
 20
1.763611541693656
 42
-0.414213562373091
 10
2.415406542304506
 20
1.732361541693656
 10
2.384156542304506
 20
1.732361541693656
 10
2.384156542304507
 20
1.722361541693656
 10
2.446656542304506
 20
1.659861541693656
 10
2.446656542304506
 20
1.058269041013229
 42
1.0
 10
2.505823242304506
 20
1.058269041013229
 10
2.505823242304506
 20
2.02868569101323
 10
2.745823242304506
 20
2.02868569101323
 10
2.755823242304506
 20
2.03868569101323
 10
2.765823242304506
 20
2.02868569101323
 10
2.993323242304505
 20
2.02868569101323
 42
0.4142135623730951
 10
3.024573242304505
 20
2.05993569101323
 10
3.024573242304505
 20
2.12243569101323
 42
0.4142135623730951
 10
2.993323242304505
 20
2.15368569101323
 10
1.318323242304506
 20
2.15368569101323
 10
1.318323242304506
 20
2.366185691013229
 42
1.0
 10
1.243323242304505
 20
2.366185691013229
 10
1.243323242304506
 20
2.02868569101323
 10
1.318323242304507
 20
2.02868569101323
 10
1.318323242304507
 20
1.05826904101323
 42
1.0
 10
1.377489942304505
 20
1.05826904101323
 10
1.377489942304506
 20
1.659861541693655
 10
1.439989942304506
 20
1.722361541693655
 10
1.439989942304506
 20
1.732361541693655
 10
1.408739942304506
 20
1.732361541693655
 42
-0.4142135623730951
 10
1.377489942304506
 20
1.763611541693655
 10
1.377489942304506
 20
2.04468569101323
 10
1.498823242304505
 20
2.04468569101323
 10
1.498823242304505
 20
1.90368569101323
 42
0.3000053884897052
 10
1.578818907947823
 20
1.782361541693656
 10
1.595823242304506
 20
1.81181391274832
 42
-3.732050807568862
 10
1.665823242304505
 20
1.811813912748319
 10
1.682827576661189
 20
1.782361541693655
 42
0.3000052973626761
 10
1.762823242304498
 20
1.903685646871094
  0
TEXT
  5
14FA1376150
330
14FA13762A5
100
AcDbEntity
  8
TEXT
100
AcDbText
 10
1.367876813733077
 20
0.7786856910132301
 30
0.0
 40
0.125
  1
PART #110071
  7
ITALICC
 72
     1
 11
2.108948242304506
 21
0.7786856910132301
 31
0.0
100
AcDbText
  0
TEXT
  5
14FA1376151
330
14FA13762A5
100
AcDbEntity
  8
TEXT
100
AcDbText
 10
2.522253400554826
 20
0.3317630483408549
 30
0.0
 40
0.0522247191011236
  1
Phone  1-800-328-2495
 41
1.272321428571429
 72
     5
 11
3.85118598482449
 21
0.3317630483408549
 31
0.0
100
AcDbText
  0
TEXT
  5
14FA1376152
330
14FA13762A5
100
AcDbEntity
  8
TEXT
100
AcDbText
 10
2.522253400554826
 20
0.6115383292397314
 30
0.0
 40
0.0522247191011236
  1
Stylmark  Incorporated
 41
1.221428571428573
 72
     5
 11
3.85118598482449
 21
0.6115383292397314
 31
0.0
100
AcDbText
  0
TEXT
  5
14FA1376153
330
14FA13762A5
100
AcDbEntity
  8
TEXT
100
AcDbText
 10
2.522253400554826
 20
0.5182799022734393
 30
0.0
 40
0.0522247191011236
  1
6536 Main St. N.E. * P.O. Box 32008
 41
0.8388932496075366
 72
     5
 11
3.85118598482449
 21
0.5182799022734393
 31
0.0
100
AcDbText
  0
TEXT
  5
14FA1376154
330
14FA13762A5
100
AcDbEntity
  8
TEXT
100
AcDbText
 10
2.522253400554826
 20
0.4250214753071471
 30
0.0
 40
0.0522247191011236
  1
Minneapolis, MN 55432-0008
 41
1.11444212721585
 72
     5
 11
3.85118598482449
 21
0.4250214753071471
 31
0.0
100
AcDbText
  0
LWPOLYLINE
  5
14FA1376155
330
14FA13762A5
100
AcDbEntity
  8
TEXT
100
AcDbPolyline
 90
        3
 70
     0
 43
0.0006660908203125
 10
0.366299708487519
 20
0.4454078109782898
 10
0.366299708487519
 20
0.3321723715251621
 10
0.4795351479406414
 20
0.3321723715251621
  0
LWPOLYLINE
  5
14FA137615A
330
14FA13762A5
100
AcDbEntity
  8
TEXT
100
AcDbPolyline
 90
        3
 70
     0
 43
0.0006660908203125
 10
0.3929433413000165
 20
0.4454078109782898
 10
0.3929433413000165
 20
0.3588160043376631
 10
0.4795351479406414
 20
0.3588160043376631
  0
LWPOLYLINE
  5
14FA137615F
330
14FA13762A5
100
AcDbEntity
  8
TEXT
100
AcDbPolyline
 90
        2
 70
     0
 43
0.0001332181640625
 10
0.4395696987218934
 20
0.455399173282975
 10
0.366299708487519
 20
0.4454078109782898
  0
LWPOLYLINE
  5
14FA1376163
330
14FA13762A5
100
AcDbEntity
  8
TEXT
100
AcDbPolyline
 90
        2
 70
     0
 43
0.0001332181640625
 10
0.3929433413000165
 20
0.4454078109782898
 10
0.4528915151281439
 20
0.455399173282975
  0
LWPOLYLINE
  5
14FA1376167
330
14FA13762A5
100
AcDbEntity
  8
TEXT
100
AcDbPolyline
 90
        2
 70
     0
 43
0.0001332181640625
 10
0.3929433413000165
 20
0.3588160043376631
 10
0.4528915151281439
 20
0.4187641781657887
  0
LWPOLYLINE
  5
14FA137616B
330
14FA13762A5
100
AcDbEntity
  8
TEXT
100
AcDbPolyline
 90
        3
 70
     0
 43
0.0006660908203125
 10
0.4795351479406414
 20
0.5986086996501654
 10
0.366299708487519
 20
0.5986086996501654
 10
0.366299708487519
 20
0.4853732601970378
  0
LWPOLYLINE
  5
14FA1376170
330
14FA13762A5
100
AcDbEntity
  8
TEXT
100
AcDbPolyline
 90
        3
 70
     0
 43
0.0006660908203125
 10
0.4795351479406414
 20
0.5719650668376644
 10
0.3929433413000165
 20
0.5719650668376644
 10
0.3929433413000165
 20
0.4853732601970378
  0
LWPOLYLINE
  5
14FA1376175
330
14FA13762A5
100
AcDbEntity
  8
TEXT
100
AcDbPolyline
 90
        2
 70
     0
 43
0.0001332181640625
 10
0.3929433413000165
 20
0.5719650668376644
 10
0.4528915151281421
 20
0.5120168930095388
  0
LWPOLYLINE
  5
14FA1376179
330
14FA13762A5
100
AcDbEntity
  8
TEXT
100
AcDbPolyline
 90
        2
 70
     0
 43
0.0001332181640625
 10
0.3929433413000165
 20
0.4853732601970378
 10
0.4528915151281421
 20
0.475381897892349
  0
LWPOLYLINE
  5
14FA137617D
330
14FA13762A5
100
AcDbEntity
  8
TEXT
100
AcDbPolyline
 90
        2
 70
     0
 43
0.0001332181640625
 10
0.366299708487519
 20
0.4853732601970378
 10
0.4395696987218934
 20
0.475381897892349
  0
LWPOLYLINE
  5
14FA1376181
330
14FA13762A5
100
AcDbEntity
  8
TEXT
100
AcDbPolyline
 90
        2
 70
     0
 43
0.0006660908203125
 10
0.3929433413000165
 20
0.4454078109782898
 10
0.366299708487519
 20
0.4454078109782898
  0
LWPOLYLINE
  5
14FA1376185
330
14FA13762A5
100
AcDbEntity
  8
TEXT
100
AcDbPolyline
 90
        2
 70
     0
 43
0.0006660908203125
 10
0.3929433413000165
 20
0.4853732601970378
 10
0.366299708487519
 20
0.4853732601970378
  0
LINE
  5
14FA1376189
330
14FA13762A5
100
AcDbEntity
  8
TEXT
100
AcDbLine
 10
1.881490137614016
 20
0.5343320049933964
 30
0.0
 11
1.774283864226727
 21
0.5343320049933964
 31
0.0
  0
LINE
  5
14FA137618A
330
14FA13762A5
100
AcDbEntity
  8
TEXT
100
AcDbLine
 10
1.910521035958494
 20
0.5986086996501619
 30
0.0
 11
1.775689126741435
 21
0.5986086996501619
 31
0.0
  0
ARC
  5
14FA137618B
330
14FA13762A5
100
AcDbEntity
  8
TEXT
100
AcDbCircle
 10
1.835003223134752
 20
0.4293714503871456
 30
0.0
 40
0.0676855811441166
100
AcDbArc
 50
90.0
 51
153.7768192527749
  0
LWPOLYLINE
  5
14FA137618C
330
14FA13762A5
100
AcDbEntity
  8
TEXT
100
AcDbPolyline
 90
        2
 70
     0
 43
0.0
 10
1.773251368771917
 20
0.375626611612089
 42
0.2901071551932823
 10
1.816327301639552
 20
0.3321356666616508
 42
5.328517124445801
  0
ARC
  5
14FA1376190
330
14FA13762A5
100
AcDbEntity
  8
TEXT
100
AcDbCircle
 10
1.129871845463267
 20
0.3919280579997007
 30
0.0
 40
0.0601160179737537
100
AcDbArc
 50
180.0000000000003
 51
264.0521544866073
  0
LINE
  5
14FA1376191
330
14FA13762A5
100
AcDbEntity
  8
TEXT
100
AcDbLine
 10
1.133387201088814
 20
0.6329966172443
 30
0.0
 11
1.073344596244807
 21
0.6329966172443
 31
0.0
  0
ARC
  5
14FA1376192
330
14FA13762A5
100
AcDbEntity
  8
TEXT
100
AcDbCircle
 10
0.8976128433462964
 20
0.5165212402036601
 30
0.0
 40
0.0820874594465043
100
AcDbArc
 50
90.0
 51
270.0
  0
LWPOLYLINE
  5
14FA1376193
330
14FA13762A5
100
AcDbEntity
  8
TEXT
100
AcDbPolyline
 90
        2
 70
     0
 43
0.0001332181640625
 10
0.4895265102453319
 20
0.5253387094157858
 10
0.4795351479406414
 20
0.5986086996501654
  0
LWPOLYLINE
  5
14FA1376197
330
14FA13762A5
100
AcDbEntity
  8
TEXT
100
AcDbPolyline
 90
        2
 70
     0
 43
0.0001332181640625
 10
0.4795351479406414
 20
0.5719650668376644
 10
0.4895265102453319
 20
0.5120168930095388
  0
LWPOLYLINE
  5
14FA137619B
330
14FA13762A5
100
AcDbEntity
  8
TEXT
100
AcDbPolyline
 90
        3
 70
     0
 43
0.0006660908203125
 10
0.6327360366125188
 20
0.4853732601970378
 10
0.6327360366125188
 20
0.5986086996501654
 10
0.5195005971593929
 20
0.5986086996501654
  0
LWPOLYLINE
  5
14FA13761A0
330
14FA13762A5
100
AcDbEntity
  8
TEXT
100
AcDbPolyline
 90
        3
 70
     0
 43
0.0006660908203125
 10
0.6060924038000178
 20
0.4853732601970378
 10
0.6060924038000178
 20
0.5719650668376644
 10
0.5195005971593929
 20
0.5719650668376644
  0
LWPOLYLINE
  5
14FA13761A5
330
14FA13762A5
100
AcDbEntity
  8
TEXT
100
AcDbPolyline
 90
        2
 70
     0
 43
0.0001332181640625
 10
0.6060924038000178
 20
0.5719650668376644
 10
0.546144229971894
 20
0.5120168930095388
  0
LWPOLYLINE
  5
14FA13761A9
330
14FA13762A5
100
AcDbEntity
  8
TEXT
100
AcDbPolyline
 90
        2
 70
     0
 43
0.0001332181640625
 10
0.5195005971593929
 20
0.5719650668376644
 10
0.5095092348547042
 20
0.5120168930095388
  0
LWPOLYLINE
  5
14FA13761AD
330
14FA13762A5
100
AcDbEntity
  8
TEXT
100
AcDbPolyline
 90
        2
 70
     0
 43
0.0001332181640625
 10
0.5195005971593929
 20
0.5986086996501654
 10
0.5095092348547042
 20
0.5253387094157858
  0
LWPOLYLINE
  5
14FA13761B1
330
14FA13762A5
100
AcDbEntity
  8
TEXT
100
AcDbPolyline
 90
        2
 70
     0
 43
0.0001332181640625
 10
0.5594660463781427
 20
0.475381897892349
 10
0.6327360366125188
 20
0.4853732601970378
  0
LWPOLYLINE
  5
14FA13761B5
330
14FA13762A5
100
AcDbEntity
  8
TEXT
100
AcDbPolyline
 90
        2
 70
     0
 43
0.0001332181640625
 10
0.6060924038000178
 20
0.4853732601970378
 10
0.546144229971894
 20
0.475381897892349
  0
LWPOLYLINE
  5
14FA13761B9
330
14FA13762A5
100
AcDbEntity
  8
TEXT
100
AcDbPolyline
 90
        2
 70
     0
 43
0.0001332181640625
 10
0.6327360366125188
 20
0.4454078109782898
 10
0.5594660463781427
 20
0.455399173282975
  0
LWPOLYLINE
  5
14FA13761BD
330
14FA13762A5
100
AcDbEntity
  8
TEXT
100
AcDbPolyline
 90
        2
 70
     0
 43
0.0001332181640625
 10
0.6060924038000178
 20
0.4454078109782898
 10
0.546144229971894
 20
0.455399173282975
  0
LWPOLYLINE
  5
14FA13761C1
330
14FA13762A5
100
AcDbEntity
  8
TEXT
100
AcDbPolyline
 90
        2
 70
     0
 43
0.0001332181640625
 10
0.6060924038000178
 20
0.3588160043376631
 10
0.546144229971894
 20
0.4187641781657887
  0
LWPOLYLINE
  5
14FA13761C5
330
14FA13762A5
100
AcDbEntity
  8
TEXT
100
AcDbPolyline
 90
        3
 70
     0
 43
0.0006660908203125
 10
0.5195005971593929
 20
0.3588160043376631
 10
0.6060924038000178
 20
0.3588160043376631
 10
0.6060924038000178
 20
0.4454078109782898
  0
LWPOLYLINE
  5
14FA13761CA
330
14FA13762A5
100
AcDbEntity
  8
TEXT
100
AcDbPolyline
 90
        3
 70
     0
 43
0.0006660908203125
 10
0.5195005971593929
 20
0.3321723715251621
 10
0.6327360366125188
 20
0.3321723715251621
 10
0.6327360366125188
 20
0.4454078109782898
  0
LWPOLYLINE
  5
14FA13761CF
330
14FA13762A5
100
AcDbEntity
  8
TEXT
100
AcDbPolyline
 90
        5
 70
     0
 43
0.0001332181640625
 10
0.4895265102453319
 20
0.4054423617595382
 10
0.4895265102453319
 20
0.4187641781657887
 10
0.4528915151281439
 20
0.4187641781657887
 10
0.4528915151281439
 20
0.455399173282975
 10
0.4395696987218934
 20
0.455399173282975
  0
LWPOLYLINE
  5
14FA13761D6
330
14FA13762A5
100
AcDbEntity
  8
TEXT
100
AcDbPolyline
 90
        2
 70
     0
 43
0.0006660908203125
 10
0.4795351479406414
 20
0.3588160043376631
 10
0.4795351479406414
 20
0.3321723715251621
  0
LWPOLYLINE
  5
14FA13761DA
330
14FA13762A5
100
AcDbEntity
  8
TEXT
100
AcDbPolyline
 90
        2
 70
     0
 43
0.0001332181640625
 10
0.4795351479406414
 20
0.3588160043376631
 10
0.4895265102453319
 20
0.4187641781657887
  0
LWPOLYLINE
  5
14FA13761DE
330
14FA13762A5
100
AcDbEntity
  8
TEXT
100
AcDbPolyline
 90
        2
 70
     0
 43
0.0001332181640625
 10
0.4795351479406414
 20
0.3321723715251621
 10
0.4895265102453319
 20
0.4054423617595382
  0
LWPOLYLINE
  5
14FA13761E2
330
14FA13762A5
100
AcDbEntity
  8
TEXT
100
AcDbPolyline
 90
        5
 70
     0
 43
0.0001332181640625
 10
0.4395696987218934
 20
0.475381897892349
 10
0.4528915151281421
 20
0.475381897892349
 10
0.4528915151281421
 20
0.5120168930095388
 10
0.4895265102453319
 20
0.5120168930095388
 10
0.4895265102453319
 20
0.5253387094157858
  0
LWPOLYLINE
  5
14FA13761E9
330
14FA13762A5
100
AcDbEntity
  8
TEXT
100
AcDbPolyline
 90
        5
 70
     0
 43
0.0001332181640625
 10
0.5095092348547042
 20
0.5253387094157858
 10
0.5095092348547042
 20
0.5120168930095388
 10
0.546144229971894
 20
0.5120168930095388
 10
0.546144229971894
 20
0.475381897892349
 10
0.5594660463781427
 20
0.475381897892349
  0
LWPOLYLINE
  5
14FA13761F0
330
14FA13762A5
100
AcDbEntity
  8
TEXT
100
AcDbPolyline
 90
        2
 70
     0
 43
0.0001332181640625
 10
0.5195005971593929
 20
0.3588160043376631
 10
0.5095092348547042
 20
0.4187641781657887
  0
LWPOLYLINE
  5
14FA13761F4
330
14FA13762A5
100
AcDbEntity
  8
TEXT
100
AcDbPolyline
 90
        2
 70
     0
 43
0.0001332181640625
 10
0.5095092348547042
 20
0.4054423617595382
 10
0.5195005971593929
 20
0.3321723715251621
  0
LWPOLYLINE
  5
14FA13761F8
330
14FA13762A5
100
AcDbEntity
  8
TEXT
100
AcDbPolyline
 90
        2
 70
     0
 43
0.0006660908203125
 10
0.5195005971593929
 20
0.3588160043376631
 10
0.5195005971593929
 20
0.3321723715251621
  0
LWPOLYLINE
  5
14FA13761FC
330
14FA13762A5
100
AcDbEntity
  8
TEXT
100
AcDbPolyline
 90
        5
 70
     0
 43
0.0001332181640625
 10
0.5594660463781427
 20
0.455399173282975
 10
0.546144229971894
 20
0.455399173282975
 10
0.546144229971894
 20
0.4187641781657887
 10
0.5095092348547042
 20
0.4187641781657887
 10
0.5095092348547042
 20
0.4054423617595382
  0
LWPOLYLINE
  5
14FA1376203
330
14FA13762A5
100
AcDbEntity
  8
TEXT
100
AcDbPolyline
 90
        2
 70
     0
 43
0.0006660908203125
 10
0.6060924038000178
 20
0.4853732601970378
 10
0.6327360366125188
 20
0.4853732601970378
  0
LWPOLYLINE
  5
14FA1376207
330
14FA13762A5
100
AcDbEntity
  8
TEXT
100
AcDbPolyline
 90
        2
 70
     0
 43
0.0006660908203125
 10
0.6060924038000178
 20
0.4454078109782898
 10
0.6327360366125188
 20
0.4454078109782898
  0
LINE
  5
14FA137620B
330
14FA13762A5
100
AcDbEntity
  8
TEXT
100
AcDbLine
 10
0.9028501734605436
 20
0.5343320049933964
 30
0.0
 11
1.069755827489514
 21
0.5343320049933964
 31
0.0
  0
LINE
  5
14FA137620C
330
14FA13762A5
100
AcDbEntity
  8
TEXT
100
AcDbLine
 10
0.9684503097048446
 20
0.4985272833827686
 30
0.0
 11
0.9028501734605436
 21
0.4985272833827686
 31
0.0
  0
LINE
  5
14FA137620D
330
14FA13762A5
100
AcDbEntity
  8
TEXT
100
AcDbLine
 10
0.815525383899792
 20
0.3321356666616508
 30
0.0
 11
0.9684503097048446
 21
0.3321356666616508
 31
0.0
  0
LINE
  5
14FA137620E
330
14FA13762A5
100
AcDbEntity
  8
TEXT
100
AcDbLine
 10
0.9733906836111243
 20
0.4004926729950902
 30
0.0
 11
0.8155253838997902
 21
0.4004926729950902
 31
0.0
  0
LINE
  5
14FA137620F
330
14FA13762A5
100
AcDbEntity
  8
TEXT
100
AcDbLine
 10
0.8976128433462955
 20
0.4344337807571548
 30
0.0
 11
0.9733906836111243
 21
0.4344337807571548
 31
0.0
  0
ARC
  5
14FA1376210
330
14FA13762A5
100
AcDbEntity
  8
TEXT
100
AcDbCircle
 10
0.9028501734605445
 20
0.5164296441880843
 30
0.0
 40
0.017902360805315
100
AcDbArc
 50
90.0
 51
270.0
  0
LINE
  5
14FA1376211
330
14FA13762A5
100
AcDbEntity
  8
TEXT
100
AcDbLine
 10
0.8155253838997902
 20
0.4004926729950902
 30
0.0
 11
0.815525383899792
 21
0.3321356666616508
 31
0.0
  0
LINE
  5
14FA1376212
330
14FA13762A5
100
AcDbEntity
  8
TEXT
100
AcDbLine
 10
1.069755827489514
 20
0.5343320049933964
 30
0.0
 11
1.069755827489514
 21
0.3919280579997007
 31
0.0
  0
ARC
  5
14FA1376213
330
14FA13762A5
100
AcDbEntity
  8
TEXT
100
AcDbCircle
 10
0.9684503097048455
 20
0.4153314750222079
 30
0.0
 40
0.0831958083605586
100
AcDbArc
 50
270.0
 51
90.0
  0
ARC
  5
14FA1376214
330
14FA13762A5
100
AcDbEntity
  8
TEXT
100
AcDbCircle
 10
0.9733906836111252
 20
0.4174632268761243
 30
0.0
 40
0.0169705538810321
100
AcDbArc
 50
270.0
 51
90.0
  0
LWPOLYLINE
  5
14FA1376215
330
14FA13762A5
100
AcDbEntity
  8
TEXT
100
AcDbPolyline
 90
        2
 70
     0
 43
0.0006660908203125
 10
0.4795351479406414
 20
0.5719650668376644
 10
0.4795351479406414
 20
0.5986086996501654
  0
LWPOLYLINE
  5
14FA1376219
330
14FA13762A5
100
AcDbEntity
  8
TEXT
100
AcDbPolyline
 90
        2
 70
     0
 43
0.0006660908203125
 10
0.5195005971593929
 20
0.5719650668376644
 10
0.5195005971593929
 20
0.5986086996501654
  0
LINE
  5
14FA137621D
330
14FA13762A5
100
AcDbEntity
  8
TEXT
100
AcDbLine
 10
1.073344596244807
 20
0.5986086996501619
 30
0.0
 11
0.8976128433462955
 21
0.5986086996501619
 31
0.0
  0
LINE
  5
14FA137621E
330
14FA13762A5
100
AcDbEntity
  8
TEXT
100
AcDbLine
 10
1.073344596244807
 20
0.6329966172443
 30
0.0
 11
1.073344596244807
 21
0.5986086996501619
 31
0.0
  0
LINE
  5
14FA137621F
330
14FA13762A5
100
AcDbEntity
  8
TEXT
100
AcDbLine
 10
1.26381648826466
 20
0.4977367035370413
 30
0.0
 11
1.205186167232722
 21
0.5986086996501619
 31
0.0
  0
LINE
  5
14FA1376220
330
14FA13762A5
100
AcDbEntity
  8
TEXT
100
AcDbLine
 10
1.322565051070525
 20
0.5986086996501619
 30
0.0
 11
1.26381648826466
 21
0.4977367035370413
 31
0.0
  0
LINE
  5
14FA1376221
330
14FA13762A5
100
AcDbEntity
  8
TEXT
100
AcDbLine
 10
1.419495676430266
 20
0.4145235047646501
 30
0.0
 11
1.419495676430266
 21
0.6666201773889724
 31
0.0
  0
LINE
  5
14FA1376222
330
14FA13762A5
100
AcDbEntity
  8
TEXT
100
AcDbLine
 10
1.451807530567926
 20
0.5986086996501619
 30
0.0
 11
1.451807530567926
 21
0.3977444929177536
 31
0.0
  0
LINE
  5
14FA1376223
330
14FA13762A5
100
AcDbEntity
  8
TEXT
100
AcDbLine
 10
1.451807530567926
 20
0.3977444929177536
 30
0.0
 11
1.434813893683325
 21
0.3977444929177536
 31
0.0
  0
LINE
  5
14FA1376224
330
14FA13762A5
100
AcDbEntity
  8
TEXT
100
AcDbLine
 10
1.420635249926461
 20
0.3321356666616508
 30
0.0
 11
1.518638583625896
 21
0.3321356666616508
 31
0.0
  0
LINE
  5
14FA1376225
330
14FA13762A5
100
AcDbEntity
  8
TEXT
100
AcDbLine
 10
1.254216251267705
 20
0.3520941727666638
 30
0.0
 11
1.35151595736115
 21
0.5164443837019319
 31
0.0
  0
ARC
  5
14FA1376226
330
14FA13762A5
100
AcDbEntity
  8
TEXT
100
AcDbCircle
 10
1.220172691355491
 20
0.3716833889353466
 30
0.0
 40
0.0392772371940762
100
AcDbArc
 50
270.1604552698595
 51
330.0831797321295
  0
LINE
  5
14FA1376227
330
14FA13762A5
100
AcDbEntity
  8
TEXT
100
AcDbLine
 10
1.12364243496962
 20
0.3321356666616508
 30
0.0
 11
1.220282686044614
 21
0.3324063057599331
 31
0.0
  0
LWPOLYLINE
  5
14FA1376228
330
14FA13762A5
100
AcDbEntity
  8
TEXT
100
AcDbPolyline
 90
        6
 70
     1
 43
0.0
 10
1.16616623854477
 20
0.5343320049933964
 10
1.135849644324562
 20
0.5343320049933964
 10
1.135849644324562
 20
0.4112210069385021
 42
0.407328721240804
 10
1.147393295486038
 20
0.399402092262116
 10
1.208014994530769
 20
0.399402092262116
 10
1.225480334938087
 20
0.4322143213055952
  0
LINE
  5
14FA1376230
330
14FA13762A5
100
AcDbEntity
  8
TEXT
100
AcDbLine
 10
1.35151595736115
 20
0.5164443837019319
 30
0.0
 11
1.35151595736115
 21
0.3836870088765756
 31
0.0
  0
ARC
  5
14FA1376231
330
14FA13762A5
100
AcDbEntity
  8
TEXT
100
AcDbCircle
 10
1.434813893683323
 20
0.4131262991611791
 30
0.0
 40
0.0153818062434269
100
AcDbArc
 50
174.7883570302258
 51
270.0
  0
LWPOLYLINE
  5
14FA1376232
330
14FA13762A5
100
AcDbEntity
  8
TEXT
100
AcDbPolyline
 90
        2
 70
     0
 43
0.0
 10
1.351515957361148
 20
0.3836870088765791
 42
0.3318488747599744
 10
1.420635249926461
 20
0.3321356666616508
 42
-6.868794160588311
  0
LINE
  5
14FA1376236
330
14FA13762A5
100
AcDbEntity
  8
TEXT
100
AcDbLine
 10
1.576027652615157
 20
0.3321356666616508
 30
0.0
 11
1.643085699396997
 21
0.3321356666616508
 31
0.0
  0
LINE
  5
14FA1376237
330
14FA13762A5
100
AcDbEntity
  8
TEXT
100
AcDbLine
 10
1.576027652615157
 20
0.5267782158272865
 30
0.0
 11
1.576027652615157
 21
0.3321356666616508
 31
0.0
  0
LINE
  5
14FA1376238
330
14FA13762A5
100
AcDbEntity
  8
TEXT
100
AcDbLine
 10
1.518638583625896
 20
0.5343320049933964
 30
0.0
 11
1.568473863449043
 21
0.5343320049933964
 31
0.0
  0
LINE
  5
14FA1376239
330
14FA13762A5
100
AcDbEntity
  8
TEXT
100
AcDbLine
 10
1.518638583625896
 20
0.3321356666616508
 30
0.0
 11
1.518638583625896
 21
0.5343320049933964
 31
0.0
  0
LWPOLYLINE
  5
14FA137623A
330
14FA13762A5
100
AcDbEntity
  8
TEXT
100
AcDbPolyline
 90
        2
 70
     0
 43
0.0
 10
1.568473863449042
 20
0.5343320049933964
 42
-0.4142135623731017
 10
1.576027652615155
 20
0.5267782158272865
 42
-0.9999999999999998
  0
LINE
  5
14FA137623E
330
14FA13762A5
100
AcDbEntity
  8
TEXT
100
AcDbLine
 10
1.774283864226727
 20
0.5343320049933964
 30
0.0
 11
1.774283864226727
 21
0.4592795989191898
 31
0.0
  0
LINE
  5
14FA137623F
330
14FA13762A5
100
AcDbEntity
  8
TEXT
100
AcDbLine
 10
1.643085699396997
 20
0.5343320049933964
 30
0.0
 11
1.697219296317947
 21
0.5343320049933964
 31
0.0
  0
LINE
  5
14FA1376240
330
14FA13762A5
100
AcDbEntity
  8
TEXT
100
AcDbLine
 10
1.643085699396997
 20
0.3321356666616508
 30
0.0
 11
1.643085699396997
 21
0.5343320049933964
 31
0.0
  0
LWPOLYLINE
  5
14FA1376241
330
14FA13762A5
100
AcDbEntity
  8
TEXT
100
AcDbPolyline
 90
        2
 70
     0
 43
0.0
 10
1.697219296317945
 20
0.5343320049933964
 42
-0.4142135623731017
 10
1.704773085484059
 20
0.5267782158272865
 42
-0.9999999999999998
  0
LWPOLYLINE
  5
14FA1376245
330
14FA13762A5
100
AcDbEntity
  8
TEXT
100
AcDbPolyline
 90
        4
 70
     0
 43
0.0
 10
1.704773085484059
 20
0.5267782158272865
 10
1.704773085484059
 20
0.3321356666616508
 10
1.773251368771917
 20
0.3321356666616508
 10
1.773251368771917
 20
0.375626611612089
 42
-1.714843617202739
  0
LINE
  5
14FA137624B
330
14FA13762A5
100
AcDbEntity
  8
TEXT
100
AcDbLine
 10
1.133387201088814
 20
0.5986086996501619
 30
0.0
 11
1.133387201088814
 21
0.6329966172443
 31
0.0
  0
LINE
  5
14FA137624C
330
14FA13762A5
100
AcDbEntity
  8
TEXT
100
AcDbLine
 10
1.205186167232722
 20
0.5986086996501619
 30
0.0
 11
1.133387201088814
 21
0.5986086996501619
 31
0.0
  0
LINE
  5
14FA137624D
330
14FA13762A5
100
AcDbEntity
  8
TEXT
100
AcDbLine
 10
1.352686963863901
 20
0.5986086996501619
 30
0.0
 11
1.322565051070525
 21
0.5986086996501619
 31
0.0
  0
LINE
  5
14FA137624E
330
14FA13762A5
100
AcDbEntity
  8
TEXT
100
AcDbLine
 10
1.352686963863901
 20
0.6666201773889724
 30
0.0
 11
1.352686963863901
 21
0.5986086996501619
 31
0.0
  0
LINE
  5
14FA137624F
330
14FA13762A5
100
AcDbEntity
  8
TEXT
100
AcDbLine
 10
1.419495676430266
 20
0.6666201773889724
 30
0.0
 11
1.352686963863901
 21
0.6666201773889724
 31
0.0
  0
LWPOLYLINE
  5
14FA1376250
330
14FA13762A5
100
AcDbEntity
  8
TEXT
100
AcDbPolyline
 90
        3
 70
     0
 43
0.0
 10
1.739907436028269
 20
0.5986086996501654
 10
1.621607277212224
 20
0.5986086996501654
 10
1.621607277212224
 20
0.5714412028892695
 42
-1.960274751411753
  0
LINE
  5
14FA1376255
330
14FA13762A5
100
AcDbEntity
  8
TEXT
100
AcDbLine
 10
1.585825586499063
 20
0.5986086996501619
 30
0.0
 11
1.451807530567926
 21
0.5986086996501619
 31
0.0
  0
LWPOLYLINE
  5
14FA1376256
330
14FA13762A5
100
AcDbEntity
  8
TEXT
100
AcDbPolyline
 90
        2
 70
     0
 43
0.0
 10
1.585825586499063
 20
0.5986086996501654
 42
-0.3328679258950098
 10
1.621607277212224
 20
0.5714412028892695
 42
6.772930709997214
  0
LINE
  5
14FA137625A
330
14FA13762A5
100
AcDbEntity
  8
TEXT
100
AcDbLine
 10
1.775689126741435
 20
0.5986086996501619
 30
0.0
 11
1.775689126741435
 21
0.570286153880518
 31
0.0
  0
LWPOLYLINE
  5
14FA137625B
330
14FA13762A5
100
AcDbEntity
  8
TEXT
100
AcDbPolyline
 90
        2
 70
     0
 43
0.0
 10
1.739907436028269
 20
0.5986086996501654
 42
-0.3277054968067132
 10
1.775689126741434
 20
0.5702861538805215
 42
6.667889725900311
  0
LINE
  5
14FA137625F
330
14FA13762A5
100
AcDbEntity
  8
TEXT
100
AcDbLine
 10
1.989480974833536
 20
0.4933967210967345
 30
0.0
 11
1.945730203651634
 21
0.5756469970928797
 31
0.0
  0
LINE
  5
14FA1376260
330
14FA13762A5
100
AcDbEntity
  8
TEXT
100
AcDbLine
 10
1.989480974833536
 20
0.5986086996501619
 30
0.0
 11
1.989480974833536
 21
0.4933967210967345
 31
0.0
  0
LINE
  5
14FA1376261
330
14FA13762A5
100
AcDbEntity
  8
TEXT
100
AcDbLine
 10
2.217164713771905
 20
0.5227433732386238
 30
0.0
 11
2.217164713771905
 21
0.6640729054177626
 31
0.0
  0
LINE
  5
14FA1376262
330
14FA13762A5
100
AcDbEntity
  8
TEXT
100
AcDbLine
 10
2.264262872327889
 20
0.5986086996501619
 30
0.0
 11
2.217164713771905
 21
0.5227433732386238
 31
0.0
  0
LINE
  5
14FA1376263
330
14FA13762A5
100
AcDbEntity
  8
TEXT
100
AcDbLine
 10
2.274697589091812
 20
0.4887154567091883
 30
0.0
 11
2.339254705057517
 21
0.5986086996501619
 31
0.0
  0
LINE
  5
14FA1376264
330
14FA13762A5
100
AcDbEntity
  8
TEXT
100
AcDbLine
 10
2.153329722549131
 20
0.3321356666616508
 30
0.0
 11
2.217707906867752
 21
0.3321356666616508
 31
0.0
  0
LWPOLYLINE
  5
14FA1376265
330
14FA13762A5
100
AcDbEntity
  8
TEXT
100
AcDbPolyline
 90
        2
 70
     0
 43
0.0
 10
1.993420652138573
 20
0.375626611612089
 42
-0.2901071551932486
 10
1.950344719270929
 20
0.3321356666616508
 42
-5.328517124445184
  0
ARC
  5
14FA1376269
330
14FA13762A5
100
AcDbEntity
  8
TEXT
100
AcDbCircle
 10
1.881490137614014
 20
0.5059726299933991
 30
0.0
 40
0.028359375
100
AcDbArc
 50
25.78218179591245
 51
90.0
  0
LINE
  5
14FA137626A
330
14FA13762A5
100
AcDbEntity
  8
TEXT
100
AcDbLine
 10
1.917291212918137
 20
0.4970570315312642
 30
0.0
 11
1.907026452504573
 21
0.5183075711039585
 31
0.0
  0
LINE
  5
14FA137626B
330
14FA13762A5
100
AcDbEntity
  8
TEXT
100
AcDbLine
 10
1.835003223134754
 20
0.4970570315312642
 30
0.0
 11
1.917291212918137
 21
0.4970570315312642
 31
0.0
  0
LWPOLYLINE
  5
14FA137626C
330
14FA13762A5
100
AcDbEntity
  8
TEXT
100
AcDbPolyline
 90
        4
 70
     1
 43
0.0
 10
1.930222254201036
 20
0.4350996446456761
 10
1.841561935541178
 20
0.4350996446456761
 42
0.9999999999999998
 10
1.841561935541178
 20
0.3927011041418154
 10
1.930222254201036
 20
0.3927011041418154
 42
1.0
  0
LWPOLYLINE
  5
14FA1376272
330
14FA13762A5
100
AcDbEntity
  8
TEXT
100
AcDbPolyline
 90
        2
 70
     0
 43
0.0
 10
1.816327301639552
 20
0.3321356666616508
 10
1.950344719270929
 20
0.3321356666616508
 42
0.9999999999999998
  0
LINE
  5
14FA1376276
330
14FA13762A5
100
AcDbEntity
  8
TEXT
100
AcDbLine
 10
2.076681741256568
 20
0.5343320049933964
 30
0.0
 11
2.153329722549126
 21
0.5343320049933964
 31
0.0
  0
LINE
  5
14FA1376277
330
14FA13762A5
100
AcDbEntity
  8
TEXT
100
AcDbLine
 10
2.153329722549126
 20
0.5343320049933964
 30
0.0
 11
2.153329722549131
 21
0.3321356666616508
 31
0.0
  0
ARC
  5
14FA1376278
330
14FA13762A5
100
AcDbEntity
  8
TEXT
100
AcDbCircle
 10
2.076681741256567
 20
0.5094261297107337
 30
0.0
 40
0.0249058752826653
100
AcDbArc
 50
89.99971217465335
 51
179.9999999999985
  0
LINE
  5
14FA1376279
330
14FA13762A5
100
AcDbEntity
  8
TEXT
100
AcDbLine
 10
2.051775865973909
 20
0.3321356666616508
 30
0.0
 11
2.051775865973904
 21
0.5094261720931193
 31
0.0
  0
LWPOLYLINE
  5
14FA137627A
330
14FA13762A5
100
AcDbEntity
  8
TEXT
100
AcDbPolyline
 90
        2
 70
     0
 43
0.0
 10
1.993420652138573
 20
0.3321356666616508
 10
2.051775865973907
 20
0.3321356666616508
  0
LWPOLYLINE
  5
14FA137627E
330
14FA13762A5
100
AcDbEntity
  8
TEXT
100
AcDbPolyline
 90
        2
 70
     0
 43
0.0
 10
1.993420652138573
 20
0.375626611612089
 10
1.993420652138573
 20
0.3321356666616508
  0
LINE
  5
14FA1376282
330
14FA13762A5
100
AcDbEntity
  8
TEXT
100
AcDbLine
 10
2.370189812455422
 20
0.3321356666616508
 30
0.0
 11
2.274697589091812
 21
0.4887154567091883
 31
0.0
  0
LINE
  5
14FA1376283
330
14FA13762A5
100
AcDbEntity
  8
TEXT
100
AcDbLine
 10
2.293611440079216
 20
0.3321356666616508
 30
0.0
 11
2.370189812455422
 21
0.3321356666616508
 31
0.0
  0
LINE
  5
14FA1376284
330
14FA13762A5
100
AcDbEntity
  8
TEXT
100
AcDbLine
 10
2.217707906867752
 20
0.4637152351378311
 30
0.0
 11
2.293611440079216
 21
0.3321356666616508
 31
0.0
  0
LINE
  5
14FA1376285
330
14FA13762A5
100
AcDbEntity
  8
TEXT
100
AcDbLine
 10
2.217707906867752
 20
0.3321356666616508
 30
0.0
 11
2.217707906867752
 21
0.4637152351378311
 31
0.0
  0
LINE
  5
14FA1376286
330
14FA13762A5
100
AcDbEntity
  8
TEXT
100
AcDbLine
 10
2.217164713771905
 20
0.6640729054177626
 30
0.0
 11
2.148849835222631
 21
0.6640729054177626
 31
0.0
  0
ARC
  5
14FA1376287
330
14FA13762A5
100
AcDbEntity
  8
TEXT
100
AcDbCircle
 10
1.908494096181425
 20
0.5570251325292595
 30
0.0
 40
0.0416329381542859
100
AcDbArc
 50
26.56974201007528
 51
87.20939649401342
  0
LINE
  5
14FA1376288
330
14FA13762A5
100
AcDbEntity
  8
TEXT
100
AcDbLine
 10
2.053377881133036
 20
0.5986086996501619
 30
0.0
 11
1.989480974833536
 21
0.5986086996501619
 31
0.0
  0
LINE
  5
14FA1376289
330
14FA13762A5
100
AcDbEntity
  8
TEXT
100
AcDbLine
 10
2.053377881133036
 20
0.5710610497892872
 30
0.0
 11
2.053377881133036
 21
0.5986086996501619
 31
0.0
  0
ARC
  5
14FA137628A
330
14FA13762A5
100
AcDbEntity
  8
TEXT
100
AcDbCircle
 10
2.084570698196144
 20
0.5673629723678971
 30
0.0
 40
0.0314112657011332
100
AcDbArc
 50
95.88484768694724
 51
173.2388340632136
  0
LINE
  5
14FA137628B
330
14FA13762A5
100
AcDbEntity
  8
TEXT
100
AcDbLine
 10
2.148849835222626
 20
0.5986086996501619
 30
0.0
 11
2.081350117573109
 21
0.5986086996501619
 31
0.0
  0
LINE
  5
14FA137628C
330
14FA13762A5
100
AcDbEntity
  8
TEXT
100
AcDbLine
 10
2.148849835222631
 20
0.6640729054177626
 30
0.0
 11
2.148849835222626
 21
0.5986086996501619
 31
0.0
  0
LINE
  5
14FA137628D
330
14FA13762A5
100
AcDbEntity
  8
TEXT
100
AcDbLine
 10
2.339254705057517
 20
0.5986086996501619
 30
0.0
 11
2.264262872327891
 21
0.5986086996501619
 31
0.0
  0
ENDSEC
  0
SECTION
  2
OBJECTS
  0
DICTIONARY
  5
14FA1376299
330
0
100
AcDbDictionary
  3
ACAD_GROUP
350
14FA137629A
  3
ACAD_LAYOUT
350
14FA13762BF
  3
ACAD_MLINESTYLE
350
14FA137629B
  3
ACAD_PLOTSETTINGS
350
14FA13762C0
  3
ACAD_PLOTSTYLENAME
350
14FA13762BD
  3
ACDBHEADERROUNDTRIPXREC
350
14FA13762CA
  3
ACDBVARIABLEDICTIONARY
350
14FA13762C7
  0
DICTIONARY
  5
14FA13762EC
330
14FA13762A5
100
AcDbDictionary
280
     1
  3
ACAD_LAYOUTSELFREF
360
14FA13762ED
  0
DICTIONARY
  5
14FA13762EA
330
14FA13762A2
100
AcDbDictionary
280
     1
  3
ACAD_LAYOUTSELFREF
360
14FA13762EB
  0
DICTIONARY
  5
14FA137629A
102
{ACAD_REACTORS
330
14FA1376299
102
}
330
14FA1376299
100
AcDbDictionary
  0
DICTIONARY
  5
14FA13762BF
102
{ACAD_REACTORS
330
14FA1376299
102
}
330
14FA1376299
100
AcDbDictionary
  0
DICTIONARY
  5
14FA137629B
102
{ACAD_REACTORS
330
14FA1376299
102
}
330
14FA1376299
100
AcDbDictionary
  3
STANDARD
350
14FA13762A8
  0
DICTIONARY
  5
14FA13762C0
102
{ACAD_REACTORS
330
14FA1376299
102
}
330
14FA1376299
100
AcDbDictionary
  0
ACDBDICTIONARYWDFLT
  5
14FA13762BD
102
{ACAD_REACTORS
330
14FA1376299
102
}
330
14FA1376299
100
AcDbDictionary
281
     1
  3
Normal
350
14FA13762BE
100
AcDbDictionaryWithDefault
340
14FA13762BE
  0
DICTIONARY
  5
14FA13762CA
102
{ACAD_REACTORS
330
14FA1376299
102
}
330
14FA1376299
100
AcDbDictionary
  3
CEPSNTYPE
350
14FA13762D4
  3
FINGERPRINTGUID
350
14FA13762D5
  3
HYPERLINKBASE
350
14FA13762CD
  3
INSUNITS
350
14FA13762D3
  3
LAYOUTDICT
350
14FA13762CF
  3
LWETCUNION
350
14FA13762D2
  3
PLOTSETDICT
350
14FA13762D0
  3
PLOTSTYLNAMDICT
350
14FA13762D1
  3
PSVPSCALE
350
14FA13762D7
  3
PUCSBASE
350
14FA13762DA
  3
PUCSORGBACK
350
14FA13762E0
  3
PUCSORGBOTTOM
350
14FA13762DC
  3
PUCSORGFRONT
350
14FA13762DF
  3
PUCSORGLEFT
350
14FA13762DD
  3
PUCSORGRIGHT
350
14FA13762DE
  3
PUCSORGTOP
350
14FA13762DB
  3
PUCSORTHOREF
350
14FA13762D8
  3
PUCSORTHOVIEW
350
14FA13762D9
  3
STYLESHEET
350
14FA13762CE
  3
TSTACKALIGN
350
14FA13762CB
  3
TSTACKSIZE
350
14FA13762CC
  3
UCSBASE
350
14FA13762E3
  3
UCSORGBACK
350
14FA13762E9
  3
UCSORGBOTTOM
350
14FA13762E5
  3
UCSORGFRONT
350
14FA13762E8
  3
UCSORGLEFT
350
14FA13762E6
  3
UCSORGRIGHT
350
14FA13762E7
  3
UCSORGTOP
350
14FA13762E4
  3
UCSORTHOREF
350
14FA13762E1
  3
UCSORTHOVIEW
350
14FA13762E2
  3
VERSIONGUID
350
14FA13762D6
  0
DICTIONARY
  5
14FA13762C7
102
{ACAD_REACTORS
330
14FA1376299
102
}
330
14FA1376299
100
AcDbDictionary
  3
DIMASSOC
350
14FA13762C8
  0
XRECORD
  5
14FA13762ED
102
{ACAD_REACTORS
330
14FA13762EC
102
}
330
14FA13762EC
100
AcDbXrecord
340
14FA13762A5
  0
XRECORD
  5
14FA13762EB
102
{ACAD_REACTORS
330
14FA13762EA
102
}
330
14FA13762EA
100
AcDbXrecord
340
14FA13762A2
  0
MLINESTYLE
  5
14FA13762A8
102
{ACAD_REACTORS
330
14FA137629B
102
}
330
14FA137629B
100
AcDbMlineStyle
  2
STANDARD
 70
     0
  3

 62
     0
 51
90.0
 52
90.0
 71
     2
 49
0.5
 62
   256
  6
BYLAYER
 49
-0.5
 62
   256
  6
BYLAYER
  0
ACDBPLACEHOLDER
  5
14FA13762BE
102
{ACAD_REACTORS
330
14FA13762BD
102
}
330
14FA13762BD
100
AcDbPlaceHolder
280
     0
  0
XRECORD
  5
14FA13762D4
102
{ACAD_REACTORS
330
14FA13762CA
102
}
330
14FA13762CA
100
AcDbXrecord
 90
        0
  0
XRECORD
  5
14FA13762D5
102
{ACAD_REACTORS
330
14FA13762CA
102
}
330
14FA13762CA
100
AcDbXrecord
  1
{BCD0A210-8DB3-11D6-88E6-0090279574E7}
  0
XRECORD
  5
14FA13762CD
102
{ACAD_REACTORS
330
14FA13762CA
102
}
330
14FA13762CA
100
AcDbXrecord
  1

  0
XRECORD
  5
14FA13762D3
102
{ACAD_REACTORS
330
14FA13762CA
102
}
330
14FA13762CA
100
AcDbXrecord
 90
        0
  0
XRECORD
  5
14FA13762CF
102
{ACAD_REACTORS
330
14FA13762CA
102
}
330
14FA13762CA
100
AcDbXrecord
340
14FA13762BF
  0
XRECORD
  5
14FA13762D2
102
{ACAD_REACTORS
330
14FA13762CA
102
}
330
14FA13762CA
100
AcDbXrecord
 90
    14877
  0
XRECORD
  5
14FA13762D0
102
{ACAD_REACTORS
330
14FA13762CA
102
}
330
14FA13762CA
100
AcDbXrecord
340
14FA13762C0
  0
XRECORD
  5
14FA13762D1
102
{ACAD_REACTORS
330
14FA13762CA
102
}
330
14FA13762CA
100
AcDbXrecord
340
14FA13762BD
  0
XRECORD
  5
14FA13762D7
102
{ACAD_REACTORS
330
14FA13762CA
102
}
330
14FA13762CA
100
AcDbXrecord
 40
0.0
  0
XRECORD
  5
14FA13762DA
102
{ACAD_REACTORS
330
14FA13762CA
102
}
330
14FA13762CA
100
AcDbXrecord
340
0
  0
XRECORD
  5
14FA13762E0
102
{ACAD_REACTORS
330
14FA13762CA
102
}
330
14FA13762CA
100
AcDbXrecord
 10
0.0
 20
0.0
 30
0.0
  0
XRECORD
  5
14FA13762DC
102
{ACAD_REACTORS
330
14FA13762CA
102
}
330
14FA13762CA
100
AcDbXrecord
 10
0.0
 20
0.0
 30
0.0
  0
XRECORD
  5
14FA13762DF
102
{ACAD_REACTORS
330
14FA13762CA
102
}
330
14FA13762CA
100
AcDbXrecord
 10
0.0
 20
0.0
 30
0.0
  0
XRECORD
  5
14FA13762DD
102
{ACAD_REACTORS
330
14FA13762CA
102
}
330
14FA13762CA
100
AcDbXrecord
 10
0.0
 20
0.0
 30
0.0
  0
XRECORD
  5
14FA13762DE
102
{ACAD_REACTORS
330
14FA13762CA
102
}
330
14FA13762CA
100
AcDbXrecord
 10
0.0
 20
0.0
 30
0.0
  0
XRECORD
  5
14FA13762DB
102
{ACAD_REACTORS
330
14FA13762CA
102
}
330
14FA13762CA
100
AcDbXrecord
 10
0.0
 20
0.0
 30
0.0
  0
XRECORD
  5
14FA13762D8
102
{ACAD_REACTORS
330
14FA13762CA
102
}
330
14FA13762CA
100
AcDbXrecord
340
0
  0
XRECORD
  5
14FA13762D9
102
{ACAD_REACTORS
330
14FA13762CA
102
}
330
14FA13762CA
100
AcDbXrecord
 70
     0
  0
XRECORD
  5
14FA13762CE
102
{ACAD_REACTORS
330
14FA13762CA
102
}
330
14FA13762CA
100
AcDbXrecord
  1

  0
XRECORD
  5
14FA13762CB
102
{ACAD_REACTORS
330
14FA13762CA
102
}
330
14FA13762CA
100
AcDbXrecord
 90
        1
  0
XRECORD
  5
14FA13762CC
102
{ACAD_REACTORS
330
14FA13762CA
102
}
330
14FA13762CA
100
AcDbXrecord
 90
       70
  0
XRECORD
  5
14FA13762E3
102
{ACAD_REACTORS
330
14FA13762CA
102
}
330
14FA13762CA
100
AcDbXrecord
340
0
  0
XRECORD
  5
14FA13762E9
102
{ACAD_REACTORS
330
14FA13762CA
102
}
330
14FA13762CA
100
AcDbXrecord
 10
0.0
 20
0.0
 30
0.0
  0
XRECORD
  5
14FA13762E5
102
{ACAD_REACTORS
330
14FA13762CA
102
}
330
14FA13762CA
100
AcDbXrecord
 10
0.0
 20
0.0
 30
0.0
  0
XRECORD
  5
14FA13762E8
102
{ACAD_REACTORS
330
14FA13762CA
102
}
330
14FA13762CA
100
AcDbXrecord
 10
0.0
 20
0.0
 30
0.0
  0
XRECORD
  5
14FA13762E6
102
{ACAD_REACTORS
330
14FA13762CA
102
}
330
14FA13762CA
100
AcDbXrecord
 10
0.0
 20
0.0
 30
0.0
  0
XRECORD
  5
14FA13762E7
102
{ACAD_REACTORS
330
14FA13762CA
102
}
330
14FA13762CA
100
AcDbXrecord
 10
0.0
 20
0.0
 30
0.0
  0
XRECORD
  5
14FA13762E4
102
{ACAD_REACTORS
330
14FA13762CA
102
}
330
14FA13762CA
100
AcDbXrecord
 10
0.0
 20
0.0
 30
0.0
  0
XRECORD
  5
14FA13762E1
102
{ACAD_REACTORS
330
14FA13762CA
102
}
330
14FA13762CA
100
AcDbXrecord
340
0
  0
XRECORD
  5
14FA13762E2
102
{ACAD_REACTORS
330
14FA13762CA
102
}
330
14FA13762CA
100
AcDbXrecord
 70
     0
  0
XRECORD
  5
14FA13762D6
102
{ACAD_REACTORS
330
14FA13762CA
102
}
330
14FA13762CA
100
AcDbXrecord
  1
{BCD0A212-8DB3-11D6-88E6-0090279574E7}
  0
DICTIONARYVAR
  5
14FA13762C8
102
{ACAD_REACTORS
330
14FA13762C7
102
}
330
14FA13762C7
100
DictionaryVariables
280
     0
  1
1
  0
ENDSEC
  0
EOF
