  0
SECTION
  2
HEADER
  9
$ACADVER
  1
AC1014
  9
$ACADMAINTVER
 70
     9
  9
$DWGCODEPAGE
  3
ANSI_1252
  9
$INSBASE
 10
1.765625
 20
1.421875
 30
0.0
  9
$EXTMIN
 10
0.1465518522483582
 20
0.1978792204144553
 30
0.0
  9
$EXTMAX
 10
3.631771173995486
 20
1.927736027932633
 30
0.0
  9
$LIMMIN
 10
0.0
 20
0.0
  9
$LIMMAX
 10
18.0
 20
12.0
  9
$ORTHOMODE
 70
     1
  9
$REGENMODE
 70
     1
  9
$FILLMODE
 70
     1
  9
$QTEXTMODE
 70
     0
  9
$MIRRTEXT
 70
     0
  9
$DRAGMODE
 70
     2
  9
$LTSCALE
 40
1.0
  9
$OSMODE
 70
    39
  9
$ATTMODE
 70
     1
  9
$TEXTSIZE
 40
0.125
  9
$TRACEWID
 40
0.05
  9
$TEXTSTYLE
  7
ROMANS
  9
$CLAYER
  8
0
  9
$CELTYPE
  6
BYLAYER
  9
$CECOLOR
 62
   256
  9
$CELTSCALE
 40
1.0
  9
$DELOBJ
 70
     1
  9
$DISPSILH
 70
     1
  9
$DIMSCALE
 40
1.0
  9
$DIMASZ
 40
0.125
  9
$DIMEXO
 40
0.125
  9
$DIMDLI
 40
0.375
  9
$DIMRND
 40
0.0
  9
$DIMDLE
 40
0.0
  9
$DIMEXE
 40
0.125
  9
$DIMTP
 40
0.0
  9
$DIMTM
 40
0.0
  9
$DIMTXT
 40
0.125
  9
$DIMCEN
 40
-0.125
  9
$DIMTSZ
 40
0.0
  9
$DIMTOL
 70
     0
  9
$DIMLIM
 70
     0
  9
$DIMTIH
 70
     1
  9
$DIMTOH
 70
     1
  9
$DIMSE1
 70
     0
  9
$DIMSE2
 70
     0
  9
$DIMTAD
 70
     0
  9
$DIMZIN
 70
     4
  9
$DIMBLK
  1

  9
$DIMASO
 70
     1
  9
$DIMSHO
 70
     1
  9
$DIMPOST
  1

  9
$DIMAPOST
  1

  9
$DIMALT
 70
     0
  9
$DIMALTD
 70
     2
  9
$DIMALTF
 40
25.4
  9
$DIMLFAC
 40
1.0
  9
$DIMTOFL
 70
     0
  9
$DIMTVP
 40
0.0
  9
$DIMTIX
 70
     1
  9
$DIMSOXD
 70
     0
  9
$DIMSAH
 70
     0
  9
$DIMBLK1
  1

  9
$DIMBLK2
  1

  9
$DIMSTYLE
  2
STANDARD
  9
$DIMCLRD
 70
     0
  9
$DIMCLRE
 70
     0
  9
$DIMCLRT
 70
     0
  9
$DIMTFAC
 40
1.0
  9
$DIMGAP
 40
0.09
  9
$DIMJUST
 70
     0
  9
$DIMSD1
 70
     0
  9
$DIMSD2
 70
     0
  9
$DIMTOLJ
 70
     1
  9
$DIMTZIN
 70
     4
  9
$DIMALTZ
 70
     0
  9
$DIMALTTZ
 70
     0
  9
$DIMFIT
 70
     3
  9
$DIMUPT
 70
     0
  9
$DIMUNIT
 70
     2
  9
$DIMDEC
 70
     3
  9
$DIMTDEC
 70
     3
  9
$DIMALTU
 70
     2
  9
$DIMALTTD
 70
     2
  9
$DIMTXSTY
  7
ROMANS
  9
$DIMAUNIT
 70
     0
  9
$LUNITS
 70
     2
  9
$LUPREC
 70
     3
  9
$SKETCHINC
 40
0.1
  9
$FILLETRAD
 40
0.03125
  9
$AUNITS
 70
     0
  9
$AUPREC
 70
     0
  9
$MENU
  1
ACAD
  9
$ELEVATION
 40
0.0
  9
$PELEVATION
 40
0.0
  9
$THICKNESS
 40
0.0
  9
$LIMCHECK
 70
     0
  9
$BLIPMODE
 70
     0
  9
$CHAMFERA
 40
0.0
  9
$CHAMFERB
 40
0.0
  9
$CHAMFERC
 40
0.0
  9
$CHAMFERD
 40
0.0
  9
$SKPOLY
 70
     0
  9
$TDCREATE
 40
2448993.463280555
  9
$TDUPDATE
 40
2452458.294139248
  9
$TDINDWG
 40
0.0008245370
  9
$TDUSRTIMER
 40
0.0008245370
  9
$USRTIMER
 70
     1
  9
$ANGBASE
 50
0.0
  9
$ANGDIR
 70
     0
  9
$PDMODE
 70
     0
  9
$PDSIZE
 40
0.0
  9
$PLINEWID
 40
0.0
  9
$COORDS
 70
     2
  9
$SPLFRAME
 70
     0
  9
$SPLINETYPE
 70
     6
  9
$SPLINESEGS
 70
     8
  9
$ATTDIA
 70
     0
  9
$ATTREQ
 70
     1
  9
$HANDLING
 70
 22529
  9
$HANDSEED
  5
14FA1375C71
  9
$SURFTAB1
 70
     6
  9
$SURFTAB2
 70
     6
  9
$SURFTYPE
 70
     6
  9
$SURFU
 70
     6
  9
$SURFV
 70
     6
  9
$UCSNAME
  2

  9
$UCSORG
 10
0.0
 20
0.0
 30
0.0
  9
$UCSXDIR
 10
1.0
 20
0.0
 30
0.0
  9
$UCSYDIR
 10
0.0
 20
1.0
 30
0.0
  9
$PUCSNAME
  2

  9
$PUCSORG
 10
0.0
 20
0.0
 30
0.0
  9
$PUCSXDIR
 10
1.0
 20
0.0
 30
0.0
  9
$PUCSYDIR
 10
0.0
 20
1.0
 30
0.0
  9
$USERI1
 70
     0
  9
$USERI2
 70
     0
  9
$USERI3
 70
     0
  9
$USERI4
 70
     0
  9
$USERI5
 70
     0
  9
$USERR1
 40
0.0
  9
$USERR2
 40
0.0
  9
$USERR3
 40
0.0
  9
$USERR4
 40
0.0
  9
$USERR5
 40
0.0
  9
$WORLDVIEW
 70
     1
  9
$SHADEDGE
 70
     3
  9
$SHADEDIF
 70
    70
  9
$TILEMODE
 70
     1
  9
$MAXACTVP
 70
    16
  9
$PINSBASE
 10
1.093773973951128
 20
50.00000000000001
 30
1.899390240722314
  9
$PLIMCHECK
 70
     0
  9
$PEXTMIN
 10
1.000000000000000E+20
 20
1.000000000000000E+20
 30
1.000000000000000E+20
  9
$PEXTMAX
 10
-1.000000000000000E+20
 20
-1.000000000000000E+20
 30
-1.000000000000000E+20
  9
$PLIMMIN
 10
0.0
 20
0.0
  9
$PLIMMAX
 10
12.0
 20
9.0
  9
$UNITMODE
 70
     0
  9
$VISRETAIN
 70
     0
  9
$PLINEGEN
 70
     1
  9
$PSLTSCALE
 70
     0
  9
$TREEDEPTH
 70
  3020
  9
$PICKSTYLE
 70
     1
  9
$CMLSTYLE
  2
STANDARD
  9
$CMLJUST
 70
     0
  9
$CMLSCALE
 40
1.0
  9
$PROXYGRAPHICS
 70
     1
  9
$MEASUREMENT
 70
     0
  0
ENDSEC
  0
SECTION
  2
CLASSES
  0
CLASS
  1
LWPOLYLINE
  2
AcDbPolyline
  3
AutoCAD 2000
 90
        0
280
     0
281
     1
  0
CLASS
  1
ACDBDICTIONARYWDFLT
  2
AcDbDictionaryWithDefault
  3
AutoCAD 2000
 90
        0
280
     0
281
     0
  0
CLASS
  1
ACDBPLACEHOLDER
  2
AcDbPlaceHolder
  3
AutoCAD 2000
 90
        0
280
     0
281
     0
  0
CLASS
  1
LAYOUT
  2
AcDbLayout
  3
AutoCAD 2000
 90
        0
280
     0
281
     0
  0
CLASS
  1
DICTIONARYVAR
  2
AcDbDictionaryVar
  3
AutoCAD 2000
 90
        0
280
     0
281
     0
  0
CLASS
  1
LONG_TRANSACTION
  2
AcDbLongTransaction
  3
AutoCAD 2000
 90
        0
280
     0
281
     0
  0
CLASS
  1
LWPOLYLINE
  2
AcDbPolyline
  3
AutoCAD 2000
 90
        0
280
     0
281
     1
  0
CLASS
  1
HATCH
  2
AcDbHatch
  3
AutoCAD 2000
 90
        0
280
     0
281
     1
  0
CLASS
  1
XRECORD
  2
AcDbXrecord
  3
AutoCAD 2000
 90
        0
280
     0
281
     0
  0
ENDSEC
  0
SECTION
  2
TABLES
  0
TABLE
  2
VPORT
  5
14FA1375C18
330
0
100
AcDbSymbolTable
 70
     2
  0
VPORT
  5
14FA1375C4C
330
14FA1375C18
100
AcDbSymbolTableRecord
100
AcDbViewportTableRecord
  2
*ACTIVE
 70
     0
 10
0.0
 20
0.0
 11
1.0
 21
1.0
 12
4.864263196301337
 22
1.063018821020399
 13
0.0
 23
0.0
 14
0.015625
 24
0.015625
 15
0.0
 25
0.0
 16
0.0
 26
0.0
 36
1.0
 17
0.0
 27
0.0
 37
0.0
 40
2.281748181188984
 41
4.320930232558139
 42
50.0
 43
0.0
 44
0.0
 50
0.0
 51
0.0
 71
     0
 72
  2000
 73
     1
 74
     0
 75
     1
 76
     0
 77
     0
 78
     0
  0
ENDTAB
  0
TABLE
  2
LTYPE
  5
14FA1375C15
330
0
100
AcDbSymbolTable
 70
     1
  0
LTYPE
  5
14FA1375C22
330
14FA1375C15
100
AcDbSymbolTableRecord
100
AcDbLinetypeTableRecord
  2
BYBLOCK
 70
     0
  3

 72
    65
 73
     0
 40
0.0
  0
LTYPE
  5
14FA1375C23
330
14FA1375C15
100
AcDbSymbolTableRecord
100
AcDbLinetypeTableRecord
  2
BYLAYER
 70
     0
  3

 72
    65
 73
     0
 40
0.0
  0
LTYPE
  5
14FA1375C24
330
14FA1375C15
100
AcDbSymbolTableRecord
100
AcDbLinetypeTableRecord
  2
CONTINUOUS
 70
     0
  3
Solid line
 72
    65
 73
     0
 40
0.0
  0
ENDTAB
  0
TABLE
  2
LAYER
  5
14FA1375C12
330
0
100
AcDbSymbolTable
 70
     2
  0
LAYER
  5
14FA1375C1F
330
14FA1375C12
100
AcDbSymbolTableRecord
100
AcDbLayerTableRecord
  2
0
 70
     0
 62
     7
  6
CONTINUOUS
  0
LAYER
  5
14FA1375C2F
330
14FA1375C12
100
AcDbSymbolTableRecord
100
AcDbLayerTableRecord
  2
TEXT
 70
     0
 62
     3
  6
CONTINUOUS
  0
ENDTAB
  0
TABLE
  2
STYLE
  5
14FA1375C13
330
0
100
AcDbSymbolTable
 70
     3
  0
STYLE
  5
14FA1375C20
330
14FA1375C13
100
AcDbSymbolTableRecord
100
AcDbTextStyleTableRecord
  2
STANDARD
 70
     0
 40
0.0
 41
1.0
 50
0.0
 71
     0
 42
0.3125
  3
txt
  4

  0
STYLE
  5
14FA1375C2C
330
14FA1375C13
100
AcDbSymbolTableRecord
100
AcDbTextStyleTableRecord
  2
ITALICC
 70
     0
 40
0.0
 41
1.0
 50
0.0
 71
     0
 42
0.125
  3
italicc
  4

  0
STYLE
  5
14FA1375C3C
330
14FA1375C13
100
AcDbSymbolTableRecord
100
AcDbTextStyleTableRecord
  2
ROMANS
 70
     0
 40
0.0
 41
1.0
 50
0.0
 71
     0
 42
0.125
  3
romans.shx
  4

  0
ENDTAB
  0
TABLE
  2
VIEW
  5
14FA1375C16
330
0
100
AcDbSymbolTable
 70
     0
  0
ENDTAB
  0
TABLE
  2
UCS
  5
14FA1375C17
330
0
100
AcDbSymbolTable
 70
     0
  0
ENDTAB
  0
TABLE
  2
APPID
  5
14FA1375C19
330
0
100
AcDbSymbolTable
 70
     1
  0
APPID
  5
14FA1375C21
330
14FA1375C19
100
AcDbSymbolTableRecord
100
AcDbRegAppTableRecord
  2
ACAD
 70
     0
  0
ENDTAB
  0
TABLE
  2
DIMSTYLE
  5
14FA1375C1A
330
0
100
AcDbSymbolTable
 70
     1
  0
DIMSTYLE
105
14FA1375C34
330
14FA1375C1A
100
AcDbSymbolTableRecord
100
AcDbDimStyleTableRecord
  2
STANDARD
 70
     0
  3

  4

  5

  6

  7

 40
1.0
 41
0.125
 42
0.125
 43
0.375
 44
0.125
 45
0.0
 46
0.0
 47
0.0
 48
0.0
140
0.125
141
-0.125
142
0.0
143
25.4
144
1.0
145
0.0
146
1.0
147
0.09
 71
     0
 72
     0
 73
     1
 74
     1
 75
     0
 76
     0
 77
     0
 78
     4
170
     0
171
     2
172
     0
173
     0
174
     1
175
     0
176
     0
177
     0
178
     0
270
     2
271
     3
272
     3
273
     2
274
     2
340
14FA1375C3C
275
     0
280
     0
281
     0
282
     0
283
     1
284
     4
285
     0
286
     0
287
     3
288
     0
  0
ENDTAB
  0
TABLE
  2
BLOCK_RECORD
  5
14FA1375C11
330
0
100
AcDbSymbolTable
 70
     0
  0
BLOCK_RECORD
  5
14FA1375C28
102
{ACAD_XDICTIONARY
360
14FA1375C6F
102
}
330
14FA1375C11
100
AcDbSymbolTableRecord
100
AcDbBlockTableRecord
  2
*MODEL_SPACE
  0
BLOCK_RECORD
  5
14FA1375C25
102
{ACAD_XDICTIONARY
360
14FA1375C6D
102
}
330
14FA1375C11
100
AcDbSymbolTableRecord
100
AcDbBlockTableRecord
  2
*PAPER_SPACE
  0
ENDTAB
  0
ENDSEC
  0
SECTION
  2
BLOCKS
  0
BLOCK
  5
14FA1375C32
330
14FA1375C28
100
AcDbEntity
  8
0
100
AcDbBlockBegin
  2
*MODEL_SPACE
 70
     0
 10
0.0
 20
0.0
 30
0.0
  3
*MODEL_SPACE
  1

  0
ENDBLK
  5
14FA1375C33
330
14FA1375C28
100
AcDbEntity
  8
0
100
AcDbBlockEnd
  0
BLOCK
  5
14FA1375C30
330
14FA1375C25
100
AcDbEntity
 67
     1
  8
0
100
AcDbBlockBegin
  2
*PAPER_SPACE
 70
     0
 10
0.0
 20
0.0
 30
0.0
  3
*PAPER_SPACE
  1

  0
ENDBLK
  5
14FA1375C31
330
14FA1375C25
100
AcDbEntity
 67
     1
  8
0
100
AcDbBlockEnd
  0
ENDSEC
  0
SECTION
  2
ENTITIES
  0
LWPOLYLINE
  5
14FA137461E
330
14FA1375C28
100
AcDbEntity
  8
0
100
AcDbPolyline
 90
       24
 70
     1
 43
0.0
 10
1.562645072840388
 20
1.71956130026997
 42
-3.732050807568855
 10
1.622645072840384
 20
1.719561300269978
 10
1.641719845721507
 20
1.686522824497036
 10
1.742645072840388
 20
1.686522824497036
 10
1.742645072840388
 20
1.201522824497036
 42
0.4142135623730951
 10
1.772645072840388
 20
1.171522824497036
 10
1.811408431475501
 20
1.171522824497036
 10
2.215414782421608
 20
0.9382696490239821
 42
0.2679491924311226
 10
2.340414782421608
 20
0.9382696490239823
 10
2.403582572840388
 20
0.9747395898263775
 42
2.878082264767126
 10
2.307719091298609
 20
0.9887586212880925
 42
-0.2553250599966484
 10
2.245414782421609
 20
0.990231173251049
 10
1.804645072840388
 20
1.2447096837284
 10
1.804645072840389
 20
1.891522824497037
 42
0.4142135623730951
 10
1.774645072840389
 20
1.921522824497036
 10
1.410645072840388
 20
1.921522824497036
 42
0.4142135623730951
 10
1.380645072840388
 20
1.891522824497037
 10
1.380645072840389
 20
1.382522824497036
 42
1.0
 10
1.442645072840389
 20
1.382522824497036
 10
1.442645072840388
 20
1.686522824497036
 10
1.480020072840389
 20
1.686522824497036
 10
1.490020072840388
 20
1.696522824497036
 10
1.500020072840388
 20
1.686522824497036
 10
1.54357029995927
 20
1.686522824497036
  0
TEXT
  5
14FA1375AD3
330
14FA1375C28
100
AcDbEntity
  8
TEXT
100
AcDbText
 10
1.13655724099931
 20
0.6558978244970369
 30
0.0
 40
0.125
  1
PART #110069
  7
ITALICC
 72
     1
 11
1.889533431475501
 21
0.6558978244970369
 31
0.0
100
AcDbText
  0
TEXT
  5
14FA1375AD4
330
14FA1375C28
100
AcDbEntity
  8
TEXT
100
AcDbText
 10
2.302838589725822
 20
0.2089751818246617
 30
0.0
 40
0.0522247191011236
  1
Phone  1-800-328-2495
 41
1.272321428571429
 72
     5
 11
3.631771173995486
 21
0.2089751818246617
 31
0.0
100
AcDbText
  0
TEXT
  5
14FA1375AD5
330
14FA1375C28
100
AcDbEntity
  8
TEXT
100
AcDbText
 10
2.302838589725822
 20
0.4887504627235382
 30
0.0
 40
0.0522247191011236
  1
Stylmark  Incorporated
 41
1.221428571428573
 72
     5
 11
3.631771173995486
 21
0.4887504627235382
 31
0.0
100
AcDbText
  0
TEXT
  5
14FA1375AD6
330
14FA1375C28
100
AcDbEntity
  8
TEXT
100
AcDbText
 10
2.302838589725822
 20
0.395492035757246
 30
0.0
 40
0.0522247191011236
  1
6536 Main St. N.E. * P.O. Box 32008
 41
0.8388932496075366
 72
     5
 11
3.631771173995486
 21
0.395492035757246
 31
0.0
100
AcDbText
  0
TEXT
  5
14FA1375AD7
330
14FA1375C28
100
AcDbEntity
  8
TEXT
100
AcDbText
 10
2.302838589725822
 20
0.3022336087909538
 30
0.0
 40
0.0522247191011236
  1
Minneapolis, MN 55432-0008
 41
1.11444212721585
 72
     5
 11
3.631771173995486
 21
0.3022336087909538
 31
0.0
100
AcDbText
  0
LWPOLYLINE
  5
14FA1375AD8
330
14FA1375C28
100
AcDbEntity
  8
TEXT
100
AcDbPolyline
 90
        3
 70
     0
 43
0.0006660908203125
 10
0.1468848976585144
 20
0.3226199444620965
 10
0.1468848976585144
 20
0.2093845050089689
 10
0.2601203371116367
 20
0.2093845050089689
  0
LWPOLYLINE
  5
14FA1375ADD
330
14FA1375C28
100
AcDbEntity
  8
TEXT
100
AcDbPolyline
 90
        3
 70
     0
 43
0.0006660908203125
 10
0.1735285304710119
 20
0.3226199444620965
 10
0.1735285304710119
 20
0.2360281378214699
 10
0.2601203371116367
 20
0.2360281378214699
  0
LWPOLYLINE
  5
14FA1375AE2
330
14FA1375C28
100
AcDbEntity
  8
TEXT
100
AcDbPolyline
 90
        2
 70
     0
 43
0.0001332181640625
 10
0.2201548878928887
 20
0.3326113067667817
 10
0.1468848976585144
 20
0.3226199444620965
  0
LWPOLYLINE
  5
14FA1375AE6
330
14FA1375C28
100
AcDbEntity
  8
TEXT
100
AcDbPolyline
 90
        2
 70
     0
 43
0.0001332181640625
 10
0.1735285304710119
 20
0.3226199444620965
 10
0.2334767042991392
 20
0.3326113067667817
  0
LWPOLYLINE
  5
14FA1375AEA
330
14FA1375C28
100
AcDbEntity
  8
TEXT
100
AcDbPolyline
 90
        2
 70
     0
 43
0.0001332181640625
 10
0.1735285304710119
 20
0.2360281378214699
 10
0.2334767042991392
 20
0.2959763116495955
  0
LWPOLYLINE
  5
14FA1375AEE
330
14FA1375C28
100
AcDbEntity
  8
TEXT
100
AcDbPolyline
 90
        3
 70
     0
 43
0.0006660908203125
 10
0.2601203371116367
 20
0.4758208331339722
 10
0.1468848976585144
 20
0.4758208331339722
 10
0.1468848976585144
 20
0.3625853936808445
  0
LWPOLYLINE
  5
14FA1375AF3
330
14FA1375C28
100
AcDbEntity
  8
TEXT
100
AcDbPolyline
 90
        3
 70
     0
 43
0.0006660908203125
 10
0.2601203371116367
 20
0.4491772003214712
 10
0.1735285304710119
 20
0.4491772003214712
 10
0.1735285304710119
 20
0.3625853936808445
  0
LWPOLYLINE
  5
14FA1375AF8
330
14FA1375C28
100
AcDbEntity
  8
TEXT
100
AcDbPolyline
 90
        2
 70
     0
 43
0.0001332181640625
 10
0.1735285304710119
 20
0.4491772003214712
 10
0.2334767042991375
 20
0.3892290264933456
  0
LWPOLYLINE
  5
14FA1375AFC
330
14FA1375C28
100
AcDbEntity
  8
TEXT
100
AcDbPolyline
 90
        2
 70
     0
 43
0.0001332181640625
 10
0.1735285304710119
 20
0.3625853936808445
 10
0.2334767042991375
 20
0.3525940313761557
  0
LWPOLYLINE
  5
14FA1375B00
330
14FA1375C28
100
AcDbEntity
  8
TEXT
100
AcDbPolyline
 90
        2
 70
     0
 43
0.0001332181640625
 10
0.1468848976585144
 20
0.3625853936808445
 10
0.2201548878928887
 20
0.3525940313761557
  0
LWPOLYLINE
  5
14FA1375B04
330
14FA1375C28
100
AcDbEntity
  8
TEXT
100
AcDbPolyline
 90
        2
 70
     0
 43
0.0006660908203125
 10
0.1735285304710119
 20
0.3226199444620965
 10
0.1468848976585144
 20
0.3226199444620965
  0
LWPOLYLINE
  5
14FA1375B08
330
14FA1375C28
100
AcDbEntity
  8
TEXT
100
AcDbPolyline
 90
        2
 70
     0
 43
0.0006660908203125
 10
0.1735285304710119
 20
0.3625853936808445
 10
0.1468848976585144
 20
0.3625853936808445
  0
LINE
  5
14FA1375B0C
330
14FA1375C28
100
AcDbEntity
  8
TEXT
100
AcDbLine
 10
1.662075326785011
 20
0.4115441384772032
 30
0.0
 11
1.554869053397722
 21
0.4115441384772032
 31
0.0
  0
LINE
  5
14FA1375B0D
330
14FA1375C28
100
AcDbEntity
  8
TEXT
100
AcDbLine
 10
1.69110622512949
 20
0.4758208331339687
 30
0.0
 11
1.556274315912431
 21
0.4758208331339687
 31
0.0
  0
ARC
  5
14FA1375B0E
330
14FA1375C28
100
AcDbEntity
  8
TEXT
100
AcDbCircle
 10
1.615588412305748
 20
0.3065835838709523
 30
0.0
 40
0.0676855811441166
100
AcDbArc
 50
90.0
 51
153.7768192527749
  0
LWPOLYLINE
  5
14FA1375B0F
330
14FA1375C28
100
AcDbEntity
  8
TEXT
100
AcDbPolyline
 90
        2
 70
     0
 43
0.0
 10
1.553836557942912
 20
0.2528387450958958
 42
0.2901071551932823
 10
1.596912490810548
 20
0.2093478001454576
 42
5.328517124445801
  0
ARC
  5
14FA1375B13
330
14FA1375C28
100
AcDbEntity
  8
TEXT
100
AcDbCircle
 10
0.9104570346342624
 20
0.2691401914835074
 30
0.0
 40
0.0601160179737537
100
AcDbArc
 50
180.0000000000003
 51
264.0521544866073
  0
LINE
  5
14FA1375B14
330
14FA1375C28
100
AcDbEntity
  8
TEXT
100
AcDbLine
 10
0.9139723902598102
 20
0.5102087507281068
 30
0.0
 11
0.8539297854158032
 21
0.5102087507281068
 31
0.0
  0
ARC
  5
14FA1375B15
330
14FA1375C28
100
AcDbEntity
  8
TEXT
100
AcDbCircle
 10
0.6781980325172919
 20
0.3937333736874668
 30
0.0
 40
0.0820874594465043
100
AcDbArc
 50
90.0
 51
270.0
  0
LWPOLYLINE
  5
14FA1375B16
330
14FA1375C28
100
AcDbEntity
  8
TEXT
100
AcDbPolyline
 90
        2
 70
     0
 43
0.0001332181640625
 10
0.2701116994163273
 20
0.4025508428995926
 10
0.2601203371116367
 20
0.4758208331339722
  0
LWPOLYLINE
  5
14FA1375B1A
330
14FA1375C28
100
AcDbEntity
  8
TEXT
100
AcDbPolyline
 90
        2
 70
     0
 43
0.0001332181640625
 10
0.2601203371116367
 20
0.4491772003214712
 10
0.2701116994163273
 20
0.3892290264933456
  0
LWPOLYLINE
  5
14FA1375B1E
330
14FA1375C28
100
AcDbEntity
  8
TEXT
100
AcDbPolyline
 90
        3
 70
     0
 43
0.0006660908203125
 10
0.4133212257835142
 20
0.3625853936808445
 10
0.4133212257835142
 20
0.4758208331339722
 10
0.3000857863303883
 20
0.4758208331339722
  0
LWPOLYLINE
  5
14FA1375B23
330
14FA1375C28
100
AcDbEntity
  8
TEXT
100
AcDbPolyline
 90
        3
 70
     0
 43
0.0006660908203125
 10
0.3866775929710131
 20
0.3625853936808445
 10
0.3866775929710131
 20
0.4491772003214712
 10
0.3000857863303883
 20
0.4491772003214712
  0
LWPOLYLINE
  5
14FA1375B28
330
14FA1375C28
100
AcDbEntity
  8
TEXT
100
AcDbPolyline
 90
        2
 70
     0
 43
0.0001332181640625
 10
0.3866775929710131
 20
0.4491772003214712
 10
0.3267294191428893
 20
0.3892290264933456
  0
LWPOLYLINE
  5
14FA1375B2C
330
14FA1375C28
100
AcDbEntity
  8
TEXT
100
AcDbPolyline
 90
        2
 70
     0
 43
0.0001332181640625
 10
0.3000857863303883
 20
0.4491772003214712
 10
0.2900944240256995
 20
0.3892290264933456
  0
LWPOLYLINE
  5
14FA1375B30
330
14FA1375C28
100
AcDbEntity
  8
TEXT
100
AcDbPolyline
 90
        2
 70
     0
 43
0.0001332181640625
 10
0.3000857863303883
 20
0.4758208331339722
 10
0.2900944240256995
 20
0.4025508428995926
  0
LWPOLYLINE
  5
14FA1375B34
330
14FA1375C28
100
AcDbEntity
  8
TEXT
100
AcDbPolyline
 90
        2
 70
     0
 43
0.0001332181640625
 10
0.3400512355491381
 20
0.3525940313761557
 10
0.4133212257835142
 20
0.3625853936808445
  0
LWPOLYLINE
  5
14FA1375B38
330
14FA1375C28
100
AcDbEntity
  8
TEXT
100
AcDbPolyline
 90
        2
 70
     0
 43
0.0001332181640625
 10
0.3866775929710131
 20
0.3625853936808445
 10
0.3267294191428893
 20
0.3525940313761557
  0
LWPOLYLINE
  5
14FA1375B3C
330
14FA1375C28
100
AcDbEntity
  8
TEXT
100
AcDbPolyline
 90
        2
 70
     0
 43
0.0001332181640625
 10
0.4133212257835142
 20
0.3226199444620965
 10
0.3400512355491381
 20
0.3326113067667817
  0
LWPOLYLINE
  5
14FA1375B40
330
14FA1375C28
100
AcDbEntity
  8
TEXT
100
AcDbPolyline
 90
        2
 70
     0
 43
0.0001332181640625
 10
0.3866775929710131
 20
0.3226199444620965
 10
0.3267294191428893
 20
0.3326113067667817
  0
LWPOLYLINE
  5
14FA1375B44
330
14FA1375C28
100
AcDbEntity
  8
TEXT
100
AcDbPolyline
 90
        2
 70
     0
 43
0.0001332181640625
 10
0.3866775929710131
 20
0.2360281378214699
 10
0.3267294191428893
 20
0.2959763116495955
  0
LWPOLYLINE
  5
14FA1375B48
330
14FA1375C28
100
AcDbEntity
  8
TEXT
100
AcDbPolyline
 90
        3
 70
     0
 43
0.0006660908203125
 10
0.3000857863303883
 20
0.2360281378214699
 10
0.3866775929710131
 20
0.2360281378214699
 10
0.3866775929710131
 20
0.3226199444620965
  0
LWPOLYLINE
  5
14FA1375B4D
330
14FA1375C28
100
AcDbEntity
  8
TEXT
100
AcDbPolyline
 90
        3
 70
     0
 43
0.0006660908203125
 10
0.3000857863303883
 20
0.2093845050089689
 10
0.4133212257835142
 20
0.2093845050089689
 10
0.4133212257835142
 20
0.3226199444620965
  0
LWPOLYLINE
  5
14FA1375B52
330
14FA1375C28
100
AcDbEntity
  8
TEXT
100
AcDbPolyline
 90
        5
 70
     0
 43
0.0001332181640625
 10
0.2701116994163273
 20
0.2826544952433449
 10
0.2701116994163273
 20
0.2959763116495955
 10
0.2334767042991392
 20
0.2959763116495955
 10
0.2334767042991392
 20
0.3326113067667817
 10
0.2201548878928887
 20
0.3326113067667817
  0
LWPOLYLINE
  5
14FA1375B59
330
14FA1375C28
100
AcDbEntity
  8
TEXT
100
AcDbPolyline
 90
        2
 70
     0
 43
0.0006660908203125
 10
0.2601203371116367
 20
0.2360281378214699
 10
0.2601203371116367
 20
0.2093845050089689
  0
LWPOLYLINE
  5
14FA1375B5D
330
14FA1375C28
100
AcDbEntity
  8
TEXT
100
AcDbPolyline
 90
        2
 70
     0
 43
0.0001332181640625
 10
0.2601203371116367
 20
0.2360281378214699
 10
0.2701116994163273
 20
0.2959763116495955
  0
LWPOLYLINE
  5
14FA1375B61
330
14FA1375C28
100
AcDbEntity
  8
TEXT
100
AcDbPolyline
 90
        2
 70
     0
 43
0.0001332181640625
 10
0.2601203371116367
 20
0.2093845050089689
 10
0.2701116994163273
 20
0.2826544952433449
  0
LWPOLYLINE
  5
14FA1375B65
330
14FA1375C28
100
AcDbEntity
  8
TEXT
100
AcDbPolyline
 90
        5
 70
     0
 43
0.0001332181640625
 10
0.2201548878928887
 20
0.3525940313761557
 10
0.2334767042991375
 20
0.3525940313761557
 10
0.2334767042991375
 20
0.3892290264933456
 10
0.2701116994163273
 20
0.3892290264933456
 10
0.2701116994163273
 20
0.4025508428995926
  0
LWPOLYLINE
  5
14FA1375B6C
330
14FA1375C28
100
AcDbEntity
  8
TEXT
100
AcDbPolyline
 90
        5
 70
     0
 43
0.0001332181640625
 10
0.2900944240256995
 20
0.4025508428995926
 10
0.2900944240256995
 20
0.3892290264933456
 10
0.3267294191428893
 20
0.3892290264933456
 10
0.3267294191428893
 20
0.3525940313761557
 10
0.3400512355491381
 20
0.3525940313761557
  0
LWPOLYLINE
  5
14FA1375B73
330
14FA1375C28
100
AcDbEntity
  8
TEXT
100
AcDbPolyline
 90
        2
 70
     0
 43
0.0001332181640625
 10
0.3000857863303883
 20
0.2360281378214699
 10
0.2900944240256995
 20
0.2959763116495955
  0
LWPOLYLINE
  5
14FA1375B77
330
14FA1375C28
100
AcDbEntity
  8
TEXT
100
AcDbPolyline
 90
        2
 70
     0
 43
0.0001332181640625
 10
0.2900944240256995
 20
0.2826544952433449
 10
0.3000857863303883
 20
0.2093845050089689
  0
LWPOLYLINE
  5
14FA1375B7B
330
14FA1375C28
100
AcDbEntity
  8
TEXT
100
AcDbPolyline
 90
        2
 70
     0
 43
0.0006660908203125
 10
0.3000857863303883
 20
0.2360281378214699
 10
0.3000857863303883
 20
0.2093845050089689
  0
LWPOLYLINE
  5
14FA1375B7F
330
14FA1375C28
100
AcDbEntity
  8
TEXT
100
AcDbPolyline
 90
        5
 70
     0
 43
0.0001332181640625
 10
0.3400512355491381
 20
0.3326113067667817
 10
0.3267294191428893
 20
0.3326113067667817
 10
0.3267294191428893
 20
0.2959763116495955
 10
0.2900944240256995
 20
0.2959763116495955
 10
0.2900944240256995
 20
0.2826544952433449
  0
LWPOLYLINE
  5
14FA1375B86
330
14FA1375C28
100
AcDbEntity
  8
TEXT
100
AcDbPolyline
 90
        2
 70
     0
 43
0.0006660908203125
 10
0.3866775929710131
 20
0.3625853936808445
 10
0.4133212257835142
 20
0.3625853936808445
  0
LWPOLYLINE
  5
14FA1375B8A
330
14FA1375C28
100
AcDbEntity
  8
TEXT
100
AcDbPolyline
 90
        2
 70
     0
 43
0.0006660908203125
 10
0.3866775929710131
 20
0.3226199444620965
 10
0.4133212257835142
 20
0.3226199444620965
  0
LINE
  5
14FA1375B8E
330
14FA1375C28
100
AcDbEntity
  8
TEXT
100
AcDbLine
 10
0.6834353626315391
 20
0.4115441384772032
 30
0.0
 11
0.8503410166605103
 21
0.4115441384772032
 31
0.0
  0
LINE
  5
14FA1375B8F
330
14FA1375C28
100
AcDbEntity
  8
TEXT
100
AcDbLine
 10
0.7490354988758402
 20
0.3757394168665753
 30
0.0
 11
0.6834353626315391
 21
0.3757394168665753
 31
0.0
  0
LINE
  5
14FA1375B90
330
14FA1375C28
100
AcDbEntity
  8
TEXT
100
AcDbLine
 10
0.5961105730707875
 20
0.2093478001454576
 30
0.0
 11
0.7490354988758402
 21
0.2093478001454576
 31
0.0
  0
LINE
  5
14FA1375B91
330
14FA1375C28
100
AcDbEntity
  8
TEXT
100
AcDbLine
 10
0.7539758727821198
 20
0.2777048064788969
 30
0.0
 11
0.5961105730707857
 21
0.2777048064788969
 31
0.0
  0
LINE
  5
14FA1375B92
330
14FA1375C28
100
AcDbEntity
  8
TEXT
100
AcDbLine
 10
0.678198032517291
 20
0.3116459142409615
 30
0.0
 11
0.7539758727821198
 21
0.3116459142409615
 31
0.0
  0
ARC
  5
14FA1375B93
330
14FA1375C28
100
AcDbEntity
  8
TEXT
100
AcDbCircle
 10
0.68343536263154
 20
0.393641777671891
 30
0.0
 40
0.017902360805315
100
AcDbArc
 50
90.0
 51
270.0
  0
LINE
  5
14FA1375B94
330
14FA1375C28
100
AcDbEntity
  8
TEXT
100
AcDbLine
 10
0.5961105730707857
 20
0.2777048064788969
 30
0.0
 11
0.5961105730707875
 21
0.2093478001454576
 31
0.0
  0
LINE
  5
14FA1375B95
330
14FA1375C28
100
AcDbEntity
  8
TEXT
100
AcDbLine
 10
0.8503410166605103
 20
0.4115441384772032
 30
0.0
 11
0.8503410166605103
 21
0.2691401914835074
 31
0.0
  0
ARC
  5
14FA1375B96
330
14FA1375C28
100
AcDbEntity
  8
TEXT
100
AcDbCircle
 10
0.7490354988758411
 20
0.2925436085060147
 30
0.0
 40
0.0831958083605586
100
AcDbArc
 50
270.0
 51
90.0
  0
ARC
  5
14FA1375B97
330
14FA1375C28
100
AcDbEntity
  8
TEXT
100
AcDbCircle
 10
0.7539758727821207
 20
0.294675360359931
 30
0.0
 40
0.0169705538810321
100
AcDbArc
 50
270.0
 51
90.0
  0
LWPOLYLINE
  5
14FA1375B98
330
14FA1375C28
100
AcDbEntity
  8
TEXT
100
AcDbPolyline
 90
        2
 70
     0
 43
0.0006660908203125
 10
0.2601203371116367
 20
0.4491772003214712
 10
0.2601203371116367
 20
0.4758208331339722
  0
LWPOLYLINE
  5
14FA1375B9C
330
14FA1375C28
100
AcDbEntity
  8
TEXT
100
AcDbPolyline
 90
        2
 70
     0
 43
0.0006660908203125
 10
0.3000857863303883
 20
0.4491772003214712
 10
0.3000857863303883
 20
0.4758208331339722
  0
LINE
  5
14FA1375BA0
330
14FA1375C28
100
AcDbEntity
  8
TEXT
100
AcDbLine
 10
0.8539297854158032
 20
0.4758208331339687
 30
0.0
 11
0.678198032517291
 21
0.4758208331339687
 31
0.0
  0
LINE
  5
14FA1375BA1
330
14FA1375C28
100
AcDbEntity
  8
TEXT
100
AcDbLine
 10
0.8539297854158032
 20
0.5102087507281068
 30
0.0
 11
0.8539297854158032
 21
0.4758208331339687
 31
0.0
  0
LINE
  5
14FA1375BA2
330
14FA1375C28
100
AcDbEntity
  8
TEXT
100
AcDbLine
 10
1.044401677435655
 20
0.374948837020848
 30
0.0
 11
0.9857713564037176
 21
0.4758208331339687
 31
0.0
  0
LINE
  5
14FA1375BA3
330
14FA1375C28
100
AcDbEntity
  8
TEXT
100
AcDbLine
 10
1.10315024024152
 20
0.4758208331339687
 30
0.0
 11
1.044401677435655
 21
0.374948837020848
 31
0.0
  0
LINE
  5
14FA1375BA4
330
14FA1375C28
100
AcDbEntity
  8
TEXT
100
AcDbLine
 10
1.200080865601262
 20
0.2917356382484568
 30
0.0
 11
1.200080865601262
 21
0.5438323108727792
 31
0.0
  0
LINE
  5
14FA1375BA5
330
14FA1375C28
100
AcDbEntity
  8
TEXT
100
AcDbLine
 10
1.232392719738922
 20
0.4758208331339687
 30
0.0
 11
1.232392719738922
 21
0.2749566264015604
 31
0.0
  0
LINE
  5
14FA1375BA6
330
14FA1375C28
100
AcDbEntity
  8
TEXT
100
AcDbLine
 10
1.232392719738922
 20
0.2749566264015604
 30
0.0
 11
1.215399082854321
 21
0.2749566264015604
 31
0.0
  0
LINE
  5
14FA1375BA7
330
14FA1375C28
100
AcDbEntity
  8
TEXT
100
AcDbLine
 10
1.201220439097457
 20
0.2093478001454576
 30
0.0
 11
1.299223772796891
 21
0.2093478001454576
 31
0.0
  0
LINE
  5
14FA1375BA8
330
14FA1375C28
100
AcDbEntity
  8
TEXT
100
AcDbLine
 10
1.034801440438701
 20
0.2293063062504705
 30
0.0
 11
1.132101146532145
 21
0.3936565171857387
 31
0.0
  0
ARC
  5
14FA1375BA9
330
14FA1375C28
100
AcDbEntity
  8
TEXT
100
AcDbCircle
 10
1.000757880526487
 20
0.2488955224191534
 30
0.0
 40
0.0392772371940762
100
AcDbArc
 50
270.1604552698595
 51
330.0831797321295
  0
LINE
  5
14FA1375BAA
330
14FA1375C28
100
AcDbEntity
  8
TEXT
100
AcDbLine
 10
0.904227624140616
 20
0.2093478001454576
 30
0.0
 11
1.00086787521561
 21
0.2096184392437399
 31
0.0
  0
LWPOLYLINE
  5
14FA1375BAB
330
14FA1375C28
100
AcDbEntity
  8
TEXT
100
AcDbPolyline
 90
        6
 70
     1
 43
0.0
 10
0.9467514277157656
 20
0.4115441384772032
 10
0.9164348334955574
 20
0.4115441384772032
 10
0.9164348334955574
 20
0.2884331404223088
 42
0.407328721240804
 10
0.9279784846570338
 20
0.2766142257459228
 10
0.9886001837017646
 20
0.2766142257459228
 10
1.006065524109082
 20
0.3094264547894019
  0
LINE
  5
14FA1375BB3
330
14FA1375C28
100
AcDbEntity
  8
TEXT
100
AcDbLine
 10
1.132101146532145
 20
0.3936565171857387
 30
0.0
 11
1.132101146532145
 21
0.2608991423603824
 31
0.0
  0
ARC
  5
14FA1375BB4
330
14FA1375C28
100
AcDbEntity
  8
TEXT
100
AcDbCircle
 10
1.215399082854319
 20
0.2903384326449858
 30
0.0
 40
0.0153818062434269
100
AcDbArc
 50
174.7883570302258
 51
270.0
  0
LWPOLYLINE
  5
14FA1375BB5
330
14FA1375C28
100
AcDbEntity
  8
TEXT
100
AcDbPolyline
 90
        2
 70
     0
 43
0.0
 10
1.132101146532143
 20
0.2608991423603859
 42
0.3318488747599744
 10
1.201220439097457
 20
0.2093478001454576
 42
-6.868794160588311
  0
LINE
  5
14FA1375BB9
330
14FA1375C28
100
AcDbEntity
  8
TEXT
100
AcDbLine
 10
1.356612841786152
 20
0.2093478001454576
 30
0.0
 11
1.423670888567992
 21
0.2093478001454576
 31
0.0
  0
LINE
  5
14FA1375BBA
330
14FA1375C28
100
AcDbEntity
  8
TEXT
100
AcDbLine
 10
1.356612841786152
 20
0.4039903493110933
 30
0.0
 11
1.356612841786152
 21
0.2093478001454576
 31
0.0
  0
LINE
  5
14FA1375BBB
330
14FA1375C28
100
AcDbEntity
  8
TEXT
100
AcDbLine
 10
1.299223772796891
 20
0.4115441384772032
 30
0.0
 11
1.349059052620039
 21
0.4115441384772032
 31
0.0
  0
LINE
  5
14FA1375BBC
330
14FA1375C28
100
AcDbEntity
  8
TEXT
100
AcDbLine
 10
1.299223772796891
 20
0.2093478001454576
 30
0.0
 11
1.299223772796891
 21
0.4115441384772032
 31
0.0
  0
LWPOLYLINE
  5
14FA1375BBD
330
14FA1375C28
100
AcDbEntity
  8
TEXT
100
AcDbPolyline
 90
        2
 70
     0
 43
0.0
 10
1.349059052620037
 20
0.4115441384772032
 42
-0.4142135623731017
 10
1.35661284178615
 20
0.4039903493110933
 42
-0.9999999999999998
  0
LINE
  5
14FA1375BC1
330
14FA1375C28
100
AcDbEntity
  8
TEXT
100
AcDbLine
 10
1.554869053397722
 20
0.4115441384772032
 30
0.0
 11
1.554869053397722
 21
0.3364917324029966
 31
0.0
  0
LINE
  5
14FA1375BC2
330
14FA1375C28
100
AcDbEntity
  8
TEXT
100
AcDbLine
 10
1.423670888567992
 20
0.4115441384772032
 30
0.0
 11
1.477804485488942
 21
0.4115441384772032
 31
0.0
  0
LINE
  5
14FA1375BC3
330
14FA1375C28
100
AcDbEntity
  8
TEXT
100
AcDbLine
 10
1.423670888567992
 20
0.2093478001454576
 30
0.0
 11
1.423670888567992
 21
0.4115441384772032
 31
0.0
  0
LWPOLYLINE
  5
14FA1375BC4
330
14FA1375C28
100
AcDbEntity
  8
TEXT
100
AcDbPolyline
 90
        2
 70
     0
 43
0.0
 10
1.477804485488941
 20
0.4115441384772032
 42
-0.4142135623731017
 10
1.485358274655054
 20
0.4039903493110933
 42
-0.9999999999999998
  0
LWPOLYLINE
  5
14FA1375BC8
330
14FA1375C28
100
AcDbEntity
  8
TEXT
100
AcDbPolyline
 90
        4
 70
     0
 43
0.0
 10
1.485358274655054
 20
0.4039903493110933
 10
1.485358274655054
 20
0.2093478001454576
 10
1.553836557942912
 20
0.2093478001454576
 10
1.553836557942912
 20
0.2528387450958958
 42
-1.714843617202739
  0
LINE
  5
14FA1375BCE
330
14FA1375C28
100
AcDbEntity
  8
TEXT
100
AcDbLine
 10
0.9139723902598102
 20
0.4758208331339687
 30
0.0
 11
0.9139723902598102
 21
0.5102087507281068
 31
0.0
  0
LINE
  5
14FA1375BCF
330
14FA1375C28
100
AcDbEntity
  8
TEXT
100
AcDbLine
 10
0.9857713564037176
 20
0.4758208331339687
 30
0.0
 11
0.9139723902598102
 21
0.4758208331339687
 31
0.0
  0
LINE
  5
14FA1375BD0
330
14FA1375C28
100
AcDbEntity
  8
TEXT
100
AcDbLine
 10
1.133272153034897
 20
0.4758208331339687
 30
0.0
 11
1.10315024024152
 21
0.4758208331339687
 31
0.0
  0
LINE
  5
14FA1375BD1
330
14FA1375C28
100
AcDbEntity
  8
TEXT
100
AcDbLine
 10
1.133272153034897
 20
0.5438323108727792
 30
0.0
 11
1.133272153034897
 21
0.4758208331339687
 31
0.0
  0
LINE
  5
14FA1375BD2
330
14FA1375C28
100
AcDbEntity
  8
TEXT
100
AcDbLine
 10
1.200080865601262
 20
0.5438323108727792
 30
0.0
 11
1.133272153034897
 21
0.5438323108727792
 31
0.0
  0
LWPOLYLINE
  5
14FA1375BD3
330
14FA1375C28
100
AcDbEntity
  8
TEXT
100
AcDbPolyline
 90
        3
 70
     0
 43
0.0
 10
1.520492625199264
 20
0.4758208331339722
 10
1.40219246638322
 20
0.4758208331339722
 10
1.40219246638322
 20
0.4486533363730763
 42
-1.960274751411753
  0
LINE
  5
14FA1375BD8
330
14FA1375C28
100
AcDbEntity
  8
TEXT
100
AcDbLine
 10
1.366410775670058
 20
0.4758208331339687
 30
0.0
 11
1.232392719738922
 21
0.4758208331339687
 31
0.0
  0
LWPOLYLINE
  5
14FA1375BD9
330
14FA1375C28
100
AcDbEntity
  8
TEXT
100
AcDbPolyline
 90
        2
 70
     0
 43
0.0
 10
1.366410775670058
 20
0.4758208331339722
 42
-0.3328679258950098
 10
1.40219246638322
 20
0.4486533363730763
 42
6.772930709997214
  0
LINE
  5
14FA1375BDD
330
14FA1375C28
100
AcDbEntity
  8
TEXT
100
AcDbLine
 10
1.556274315912431
 20
0.4758208331339687
 30
0.0
 11
1.556274315912431
 21
0.4474982873643248
 31
0.0
  0
LWPOLYLINE
  5
14FA1375BDE
330
14FA1375C28
100
AcDbEntity
  8
TEXT
100
AcDbPolyline
 90
        2
 70
     0
 43
0.0
 10
1.520492625199264
 20
0.4758208331339722
 42
-0.3277054968067132
 10
1.556274315912429
 20
0.4474982873643283
 42
6.667889725900311
  0
LINE
  5
14FA1375BE2
330
14FA1375C28
100
AcDbEntity
  8
TEXT
100
AcDbLine
 10
1.770066164004531
 20
0.3706088545805413
 30
0.0
 11
1.726315392822629
 21
0.4528591305766865
 31
0.0
  0
LINE
  5
14FA1375BE3
330
14FA1375C28
100
AcDbEntity
  8
TEXT
100
AcDbLine
 10
1.770066164004531
 20
0.4758208331339687
 30
0.0
 11
1.770066164004531
 21
0.3706088545805413
 31
0.0
  0
LINE
  5
14FA1375BE4
330
14FA1375C28
100
AcDbEntity
  8
TEXT
100
AcDbLine
 10
1.9977499029429
 20
0.3999555067224305
 30
0.0
 11
1.9977499029429
 21
0.5412850389015694
 31
0.0
  0
LINE
  5
14FA1375BE5
330
14FA1375C28
100
AcDbEntity
  8
TEXT
100
AcDbLine
 10
2.044848061498885
 20
0.4758208331339687
 30
0.0
 11
1.9977499029429
 21
0.3999555067224305
 31
0.0
  0
LINE
  5
14FA1375BE6
330
14FA1375C28
100
AcDbEntity
  8
TEXT
100
AcDbLine
 10
2.055282778262808
 20
0.365927590192995
 30
0.0
 11
2.119839894228513
 21
0.4758208331339687
 31
0.0
  0
LINE
  5
14FA1375BE7
330
14FA1375C28
100
AcDbEntity
  8
TEXT
100
AcDbLine
 10
1.933914911720127
 20
0.2093478001454576
 30
0.0
 11
1.998293096038747
 21
0.2093478001454576
 31
0.0
  0
LWPOLYLINE
  5
14FA1375BE8
330
14FA1375C28
100
AcDbEntity
  8
TEXT
100
AcDbPolyline
 90
        2
 70
     0
 43
0.0
 10
1.774005841309569
 20
0.2528387450958958
 42
-0.2901071551932486
 10
1.730929908441924
 20
0.2093478001454576
 42
-5.328517124445184
  0
ARC
  5
14FA1375BEC
330
14FA1375C28
100
AcDbEntity
  8
TEXT
100
AcDbCircle
 10
1.66207532678501
 20
0.3831847634772059
 30
0.0
 40
0.028359375
100
AcDbArc
 50
25.78218179591245
 51
90.0
  0
LINE
  5
14FA1375BED
330
14FA1375C28
100
AcDbEntity
  8
TEXT
100
AcDbLine
 10
1.697876402089133
 20
0.3742691650150709
 30
0.0
 11
1.687611641675568
 21
0.3955197045877652
 31
0.0
  0
LINE
  5
14FA1375BEE
330
14FA1375C28
100
AcDbEntity
  8
TEXT
100
AcDbLine
 10
1.61558841230575
 20
0.3742691650150709
 30
0.0
 11
1.697876402089133
 21
0.3742691650150709
 31
0.0
  0
LWPOLYLINE
  5
14FA1375BEF
330
14FA1375C28
100
AcDbEntity
  8
TEXT
100
AcDbPolyline
 90
        4
 70
     1
 43
0.0
 10
1.710807443372032
 20
0.3123117781294828
 10
1.622147124712173
 20
0.3123117781294828
 42
0.9999999999999998
 10
1.622147124712173
 20
0.2699132376256221
 10
1.710807443372032
 20
0.2699132376256221
 42
1.0
  0
LWPOLYLINE
  5
14FA1375BF5
330
14FA1375C28
100
AcDbEntity
  8
TEXT
100
AcDbPolyline
 90
        2
 70
     0
 43
0.0
 10
1.596912490810548
 20
0.2093478001454576
 10
1.730929908441924
 20
0.2093478001454576
 42
0.9999999999999998
  0
LINE
  5
14FA1375BF9
330
14FA1375C28
100
AcDbEntity
  8
TEXT
100
AcDbLine
 10
1.857266930427564
 20
0.4115441384772032
 30
0.0
 11
1.933914911720122
 21
0.4115441384772032
 31
0.0
  0
LINE
  5
14FA1375BFA
330
14FA1375C28
100
AcDbEntity
  8
TEXT
100
AcDbLine
 10
1.933914911720122
 20
0.4115441384772032
 30
0.0
 11
1.933914911720127
 21
0.2093478001454576
 31
0.0
  0
ARC
  5
14FA1375BFB
330
14FA1375C28
100
AcDbEntity
  8
TEXT
100
AcDbCircle
 10
1.857266930427562
 20
0.3866382631945404
 30
0.0
 40
0.0249058752826653
100
AcDbArc
 50
89.99971217465335
 51
179.9999999999985
  0
LINE
  5
14FA1375BFC
330
14FA1375C28
100
AcDbEntity
  8
TEXT
100
AcDbLine
 10
1.832361055144905
 20
0.2093478001454576
 30
0.0
 11
1.832361055144899
 21
0.386638305576926
 31
0.0
  0
LWPOLYLINE
  5
14FA1375BFD
330
14FA1375C28
100
AcDbEntity
  8
TEXT
100
AcDbPolyline
 90
        2
 70
     0
 43
0.0
 10
1.774005841309569
 20
0.2093478001454576
 10
1.832361055144903
 20
0.2093478001454576
  0
LWPOLYLINE
  5
14FA1375C01
330
14FA1375C28
100
AcDbEntity
  8
TEXT
100
AcDbPolyline
 90
        2
 70
     0
 43
0.0
 10
1.774005841309569
 20
0.2528387450958958
 10
1.774005841309569
 20
0.2093478001454576
  0
LINE
  5
14FA1375C05
330
14FA1375C28
100
AcDbEntity
  8
TEXT
100
AcDbLine
 10
2.150775001626418
 20
0.2093478001454576
 30
0.0
 11
2.055282778262808
 21
0.365927590192995
 31
0.0
  0
LINE
  5
14FA1375C06
330
14FA1375C28
100
AcDbEntity
  8
TEXT
100
AcDbLine
 10
2.074196629250212
 20
0.2093478001454576
 30
0.0
 11
2.150775001626418
 21
0.2093478001454576
 31
0.0
  0
LINE
  5
14FA1375C07
330
14FA1375C28
100
AcDbEntity
  8
TEXT
100
AcDbLine
 10
1.998293096038747
 20
0.3409273686216379
 30
0.0
 11
2.074196629250212
 21
0.2093478001454576
 31
0.0
  0
LINE
  5
14FA1375C08
330
14FA1375C28
100
AcDbEntity
  8
TEXT
100
AcDbLine
 10
1.998293096038747
 20
0.2093478001454576
 30
0.0
 11
1.998293096038747
 21
0.3409273686216379
 31
0.0
  0
LINE
  5
14FA1375C09
330
14FA1375C28
100
AcDbEntity
  8
TEXT
100
AcDbLine
 10
1.9977499029429
 20
0.5412850389015694
 30
0.0
 11
1.929435024393627
 21
0.5412850389015694
 31
0.0
  0
ARC
  5
14FA1375C0A
330
14FA1375C28
100
AcDbEntity
  8
TEXT
100
AcDbCircle
 10
1.689079285352421
 20
0.4342372660130663
 30
0.0
 40
0.0416329381542859
100
AcDbArc
 50
26.56974201007528
 51
87.20939649401342
  0
LINE
  5
14FA1375C0B
330
14FA1375C28
100
AcDbEntity
  8
TEXT
100
AcDbLine
 10
1.833963070304032
 20
0.4758208331339687
 30
0.0
 11
1.770066164004531
 21
0.4758208331339687
 31
0.0
  0
LINE
  5
14FA1375C0C
330
14FA1375C28
100
AcDbEntity
  8
TEXT
100
AcDbLine
 10
1.833963070304032
 20
0.448273183273094
 30
0.0
 11
1.833963070304032
 21
0.4758208331339687
 31
0.0
  0
ARC
  5
14FA1375C0D
330
14FA1375C28
100
AcDbEntity
  8
TEXT
100
AcDbCircle
 10
1.86515588736714
 20
0.4445751058517038
 30
0.0
 40
0.0314112657011332
100
AcDbArc
 50
95.88484768694724
 51
173.2388340632136
  0
LINE
  5
14FA1375C0E
330
14FA1375C28
100
AcDbEntity
  8
TEXT
100
AcDbLine
 10
1.929435024393621
 20
0.4758208331339687
 30
0.0
 11
1.861935306744105
 21
0.4758208331339687
 31
0.0
  0
LINE
  5
14FA1375C0F
330
14FA1375C28
100
AcDbEntity
  8
TEXT
100
AcDbLine
 10
1.929435024393627
 20
0.5412850389015694
 30
0.0
 11
1.929435024393621
 21
0.4758208331339687
 31
0.0
  0
LINE
  5
14FA1375C10
330
14FA1375C28
100
AcDbEntity
  8
TEXT
100
AcDbLine
 10
2.119839894228513
 20
0.4758208331339687
 30
0.0
 11
2.044848061498886
 21
0.4758208331339687
 31
0.0
  0
ENDSEC
  0
SECTION
  2
OBJECTS
  0
DICTIONARY
  5
14FA1375C1C
330
0
100
AcDbDictionary
  3
ACAD_GROUP
350
14FA1375C1D
  3
ACAD_LAYOUT
350
14FA1375C42
  3
ACAD_MLINESTYLE
350
14FA1375C1E
  3
ACAD_PLOTSETTINGS
350
14FA1375C43
  3
ACAD_PLOTSTYLENAME
350
14FA1375C40
  3
ACDBHEADERROUNDTRIPXREC
350
14FA1375C4D
  3
ACDBVARIABLEDICTIONARY
350
14FA1375C4A
  0
DICTIONARY
  5
14FA1375C6F
330
14FA1375C28
100
AcDbDictionary
280
     1
  3
ACAD_LAYOUTSELFREF
360
14FA1375C70
  0
DICTIONARY
  5
14FA1375C6D
330
14FA1375C25
100
AcDbDictionary
280
     1
  3
ACAD_LAYOUTSELFREF
360
14FA1375C6E
  0
DICTIONARY
  5
14FA1375C1D
102
{ACAD_REACTORS
330
14FA1375C1C
102
}
330
14FA1375C1C
100
AcDbDictionary
  0
DICTIONARY
  5
14FA1375C42
102
{ACAD_REACTORS
330
14FA1375C1C
102
}
330
14FA1375C1C
100
AcDbDictionary
  0
DICTIONARY
  5
14FA1375C1E
102
{ACAD_REACTORS
330
14FA1375C1C
102
}
330
14FA1375C1C
100
AcDbDictionary
  3
STANDARD
350
14FA1375C2B
  0
DICTIONARY
  5
14FA1375C43
102
{ACAD_REACTORS
330
14FA1375C1C
102
}
330
14FA1375C1C
100
AcDbDictionary
  0
ACDBDICTIONARYWDFLT
  5
14FA1375C40
102
{ACAD_REACTORS
330
14FA1375C1C
102
}
330
14FA1375C1C
100
AcDbDictionary
281
     1
  3
Normal
350
14FA1375C41
100
AcDbDictionaryWithDefault
340
14FA1375C41
  0
DICTIONARY
  5
14FA1375C4D
102
{ACAD_REACTORS
330
14FA1375C1C
102
}
330
14FA1375C1C
100
AcDbDictionary
  3
CEPSNTYPE
350
14FA1375C57
  3
FINGERPRINTGUID
350
14FA1375C58
  3
HYPERLINKBASE
350
14FA1375C50
  3
INSUNITS
350
14FA1375C56
  3
LAYOUTDICT
350
14FA1375C52
  3
LWETCUNION
350
14FA1375C55
  3
PLOTSETDICT
350
14FA1375C53
  3
PLOTSTYLNAMDICT
350
14FA1375C54
  3
PSVPSCALE
350
14FA1375C5A
  3
PUCSBASE
350
14FA1375C5D
  3
PUCSORGBACK
350
14FA1375C63
  3
PUCSORGBOTTOM
350
14FA1375C5F
  3
PUCSORGFRONT
350
14FA1375C62
  3
PUCSORGLEFT
350
14FA1375C60
  3
PUCSORGRIGHT
350
14FA1375C61
  3
PUCSORGTOP
350
14FA1375C5E
  3
PUCSORTHOREF
350
14FA1375C5B
  3
PUCSORTHOVIEW
350
14FA1375C5C
  3
STYLESHEET
350
14FA1375C51
  3
TSTACKALIGN
350
14FA1375C4E
  3
TSTACKSIZE
350
14FA1375C4F
  3
UCSBASE
350
14FA1375C66
  3
UCSORGBACK
350
14FA1375C6C
  3
UCSORGBOTTOM
350
14FA1375C68
  3
UCSORGFRONT
350
14FA1375C6B
  3
UCSORGLEFT
350
14FA1375C69
  3
UCSORGRIGHT
350
14FA1375C6A
  3
UCSORGTOP
350
14FA1375C67
  3
UCSORTHOREF
350
14FA1375C64
  3
UCSORTHOVIEW
350
14FA1375C65
  3
VERSIONGUID
350
14FA1375C59
  0
DICTIONARY
  5
14FA1375C4A
102
{ACAD_REACTORS
330
14FA1375C1C
102
}
330
14FA1375C1C
100
AcDbDictionary
  3
DIMASSOC
350
14FA1375C4B
  0
XRECORD
  5
14FA1375C70
102
{ACAD_REACTORS
330
14FA1375C6F
102
}
330
14FA1375C6F
100
AcDbXrecord
340
14FA1375C28
  0
XRECORD
  5
14FA1375C6E
102
{ACAD_REACTORS
330
14FA1375C6D
102
}
330
14FA1375C6D
100
AcDbXrecord
340
14FA1375C25
  0
MLINESTYLE
  5
14FA1375C2B
102
{ACAD_REACTORS
330
14FA1375C1E
102
}
330
14FA1375C1E
100
AcDbMlineStyle
  2
STANDARD
 70
     0
  3

 62
     0
 51
90.0
 52
90.0
 71
     2
 49
0.5
 62
   256
  6
BYLAYER
 49
-0.5
 62
   256
  6
BYLAYER
  0
ACDBPLACEHOLDER
  5
14FA1375C41
102
{ACAD_REACTORS
330
14FA1375C40
102
}
330
14FA1375C40
100
AcDbPlaceHolder
280
     0
  0
XRECORD
  5
14FA1375C57
102
{ACAD_REACTORS
330
14FA1375C4D
102
}
330
14FA1375C4D
100
AcDbXrecord
 90
        0
  0
XRECORD
  5
14FA1375C58
102
{ACAD_REACTORS
330
14FA1375C4D
102
}
330
14FA1375C4D
100
AcDbXrecord
  1
{B8D56800-8DB3-11D6-88E6-0090279574E7}
  0
XRECORD
  5
14FA1375C50
102
{ACAD_REACTORS
330
14FA1375C4D
102
}
330
14FA1375C4D
100
AcDbXrecord
  1

  0
XRECORD
  5
14FA1375C56
102
{ACAD_REACTORS
330
14FA1375C4D
102
}
330
14FA1375C4D
100
AcDbXrecord
 90
        0
  0
XRECORD
  5
14FA1375C52
102
{ACAD_REACTORS
330
14FA1375C4D
102
}
330
14FA1375C4D
100
AcDbXrecord
340
14FA1375C42
  0
XRECORD
  5
14FA1375C55
102
{ACAD_REACTORS
330
14FA1375C4D
102
}
330
14FA1375C4D
100
AcDbXrecord
 90
    14877
  0
XRECORD
  5
14FA1375C53
102
{ACAD_REACTORS
330
14FA1375C4D
102
}
330
14FA1375C4D
100
AcDbXrecord
340
14FA1375C43
  0
XRECORD
  5
14FA1375C54
102
{ACAD_REACTORS
330
14FA1375C4D
102
}
330
14FA1375C4D
100
AcDbXrecord
340
14FA1375C40
  0
XRECORD
  5
14FA1375C5A
102
{ACAD_REACTORS
330
14FA1375C4D
102
}
330
14FA1375C4D
100
AcDbXrecord
 40
0.0
  0
XRECORD
  5
14FA1375C5D
102
{ACAD_REACTORS
330
14FA1375C4D
102
}
330
14FA1375C4D
100
AcDbXrecord
340
0
  0
XRECORD
  5
14FA1375C63
102
{ACAD_REACTORS
330
14FA1375C4D
102
}
330
14FA1375C4D
100
AcDbXrecord
 10
0.0
 20
0.0
 30
0.0
  0
XRECORD
  5
14FA1375C5F
102
{ACAD_REACTORS
330
14FA1375C4D
102
}
330
14FA1375C4D
100
AcDbXrecord
 10
0.0
 20
0.0
 30
0.0
  0
XRECORD
  5
14FA1375C62
102
{ACAD_REACTORS
330
14FA1375C4D
102
}
330
14FA1375C4D
100
AcDbXrecord
 10
0.0
 20
0.0
 30
0.0
  0
XRECORD
  5
14FA1375C60
102
{ACAD_REACTORS
330
14FA1375C4D
102
}
330
14FA1375C4D
100
AcDbXrecord
 10
0.0
 20
0.0
 30
0.0
  0
XRECORD
  5
14FA1375C61
102
{ACAD_REACTORS
330
14FA1375C4D
102
}
330
14FA1375C4D
100
AcDbXrecord
 10
0.0
 20
0.0
 30
0.0
  0
XRECORD
  5
14FA1375C5E
102
{ACAD_REACTORS
330
14FA1375C4D
102
}
330
14FA1375C4D
100
AcDbXrecord
 10
0.0
 20
0.0
 30
0.0
  0
XRECORD
  5
14FA1375C5B
102
{ACAD_REACTORS
330
14FA1375C4D
102
}
330
14FA1375C4D
100
AcDbXrecord
340
0
  0
XRECORD
  5
14FA1375C5C
102
{ACAD_REACTORS
330
14FA1375C4D
102
}
330
14FA1375C4D
100
AcDbXrecord
 70
     0
  0
XRECORD
  5
14FA1375C51
102
{ACAD_REACTORS
330
14FA1375C4D
102
}
330
14FA1375C4D
100
AcDbXrecord
  1

  0
XRECORD
  5
14FA1375C4E
102
{ACAD_REACTORS
330
14FA1375C4D
102
}
330
14FA1375C4D
100
AcDbXrecord
 90
        1
  0
XRECORD
  5
14FA1375C4F
102
{ACAD_REACTORS
330
14FA1375C4D
102
}
330
14FA1375C4D
100
AcDbXrecord
 90
       70
  0
XRECORD
  5
14FA1375C66
102
{ACAD_REACTORS
330
14FA1375C4D
102
}
330
14FA1375C4D
100
AcDbXrecord
340
0
  0
XRECORD
  5
14FA1375C6C
102
{ACAD_REACTORS
330
14FA1375C4D
102
}
330
14FA1375C4D
100
AcDbXrecord
 10
0.0
 20
0.0
 30
0.0
  0
XRECORD
  5
14FA1375C68
102
{ACAD_REACTORS
330
14FA1375C4D
102
}
330
14FA1375C4D
100
AcDbXrecord
 10
0.0
 20
0.0
 30
0.0
  0
XRECORD
  5
14FA1375C6B
102
{ACAD_REACTORS
330
14FA1375C4D
102
}
330
14FA1375C4D
100
AcDbXrecord
 10
0.0
 20
0.0
 30
0.0
  0
XRECORD
  5
14FA1375C69
102
{ACAD_REACTORS
330
14FA1375C4D
102
}
330
14FA1375C4D
100
AcDbXrecord
 10
0.0
 20
0.0
 30
0.0
  0
XRECORD
  5
14FA1375C6A
102
{ACAD_REACTORS
330
14FA1375C4D
102
}
330
14FA1375C4D
100
AcDbXrecord
 10
0.0
 20
0.0
 30
0.0
  0
XRECORD
  5
14FA1375C67
102
{ACAD_REACTORS
330
14FA1375C4D
102
}
330
14FA1375C4D
100
AcDbXrecord
 10
0.0
 20
0.0
 30
0.0
  0
XRECORD
  5
14FA1375C64
102
{ACAD_REACTORS
330
14FA1375C4D
102
}
330
14FA1375C4D
100
AcDbXrecord
340
0
  0
XRECORD
  5
14FA1375C65
102
{ACAD_REACTORS
330
14FA1375C4D
102
}
330
14FA1375C4D
100
AcDbXrecord
 70
     0
  0
XRECORD
  5
14FA1375C59
102
{ACAD_REACTORS
330
14FA1375C4D
102
}
330
14FA1375C4D
100
AcDbXrecord
  1
{B8D56802-8DB3-11D6-88E6-0090279574E7}
  0
DICTIONARYVAR
  5
14FA1375C4B
102
{ACAD_REACTORS
330
14FA1375C4A
102
}
330
14FA1375C4A
100
DictionaryVariables
280
     0
  1
1
  0
ENDSEC
  0
EOF
