  0
SECTION
  2
HEADER
  9
$ACADVER
  1
AC1014
  9
$ACADMAINTVER
 70
     9
  9
$DWGCODEPAGE
  3
ANSI_1252
  9
$INSBASE
 10
2.636752169622253
 20
1.360169821866247
 30
0.0
  9
$EXTMIN
 10
0.8937705903951103
 20
-0.1759737822163336
 30
0.0
  9
$EXTMAX
 10
4.378989912142239
 20
1.735938796152421
 30
0.0
  9
$LIMMIN
 10
0.0
 20
0.0
  9
$LIMMAX
 10
18.0
 20
12.0
  9
$ORTHOMODE
 70
     1
  9
$REGENMODE
 70
     1
  9
$FILLMODE
 70
     1
  9
$QTEXTMODE
 70
     0
  9
$MIRRTEXT
 70
     0
  9
$DRAGMODE
 70
     2
  9
$LTSCALE
 40
1.0
  9
$OSMODE
 70
    39
  9
$ATTMODE
 70
     1
  9
$TEXTSIZE
 40
0.125
  9
$TRACEWID
 40
0.05
  9
$TEXTSTYLE
  7
ROMANS
  9
$CLAYER
  8
0
  9
$CELTYPE
  6
BYLAYER
  9
$CECOLOR
 62
   256
  9
$CELTSCALE
 40
1.0
  9
$DELOBJ
 70
     1
  9
$DISPSILH
 70
     1
  9
$DIMSCALE
 40
1.0
  9
$DIMASZ
 40
0.125
  9
$DIMEXO
 40
0.125
  9
$DIMDLI
 40
0.375
  9
$DIMRND
 40
0.0
  9
$DIMDLE
 40
0.0
  9
$DIMEXE
 40
0.125
  9
$DIMTP
 40
0.0
  9
$DIMTM
 40
0.0
  9
$DIMTXT
 40
0.125
  9
$DIMCEN
 40
-0.125
  9
$DIMTSZ
 40
0.0
  9
$DIMTOL
 70
     0
  9
$DIMLIM
 70
     0
  9
$DIMTIH
 70
     1
  9
$DIMTOH
 70
     1
  9
$DIMSE1
 70
     0
  9
$DIMSE2
 70
     0
  9
$DIMTAD
 70
     0
  9
$DIMZIN
 70
     4
  9
$DIMBLK
  1

  9
$DIMASO
 70
     1
  9
$DIMSHO
 70
     1
  9
$DIMPOST
  1

  9
$DIMAPOST
  1

  9
$DIMALT
 70
     0
  9
$DIMALTD
 70
     2
  9
$DIMALTF
 40
25.4
  9
$DIMLFAC
 40
1.0
  9
$DIMTOFL
 70
     0
  9
$DIMTVP
 40
0.0
  9
$DIMTIX
 70
     1
  9
$DIMSOXD
 70
     0
  9
$DIMSAH
 70
     0
  9
$DIMBLK1
  1

  9
$DIMBLK2
  1

  9
$DIMSTYLE
  2
STANDARD
  9
$DIMCLRD
 70
     0
  9
$DIMCLRE
 70
     0
  9
$DIMCLRT
 70
     0
  9
$DIMTFAC
 40
1.0
  9
$DIMGAP
 40
0.09
  9
$DIMJUST
 70
     0
  9
$DIMSD1
 70
     0
  9
$DIMSD2
 70
     0
  9
$DIMTOLJ
 70
     1
  9
$DIMTZIN
 70
     4
  9
$DIMALTZ
 70
     0
  9
$DIMALTTZ
 70
     0
  9
$DIMFIT
 70
     3
  9
$DIMUPT
 70
     0
  9
$DIMUNIT
 70
     2
  9
$DIMDEC
 70
     3
  9
$DIMTDEC
 70
     3
  9
$DIMALTU
 70
     2
  9
$DIMALTTD
 70
     2
  9
$DIMTXSTY
  7
ROMANS
  9
$DIMAUNIT
 70
     0
  9
$LUNITS
 70
     2
  9
$LUPREC
 70
     3
  9
$SKETCHINC
 40
0.1
  9
$FILLETRAD
 40
0.03125
  9
$AUNITS
 70
     0
  9
$AUPREC
 70
     0
  9
$MENU
  1
ACAD
  9
$ELEVATION
 40
0.0
  9
$PELEVATION
 40
0.0
  9
$THICKNESS
 40
0.0
  9
$LIMCHECK
 70
     0
  9
$BLIPMODE
 70
     0
  9
$CHAMFERA
 40
0.0
  9
$CHAMFERB
 40
0.0
  9
$CHAMFERC
 40
0.0
  9
$CHAMFERD
 40
0.0
  9
$SKPOLY
 70
     0
  9
$TDCREATE
 40
2448993.462099421
  9
$TDUPDATE
 40
2452458.294063321
  9
$TDINDWG
 40
0.0007134838
  9
$TDUSRTIMER
 40
0.0007134838
  9
$USRTIMER
 70
     1
  9
$ANGBASE
 50
0.0
  9
$ANGDIR
 70
     0
  9
$PDMODE
 70
     0
  9
$PDSIZE
 40
0.0
  9
$PLINEWID
 40
0.0
  9
$COORDS
 70
     2
  9
$SPLFRAME
 70
     0
  9
$SPLINETYPE
 70
     6
  9
$SPLINESEGS
 70
     8
  9
$ATTDIA
 70
     0
  9
$ATTREQ
 70
     1
  9
$HANDLING
 70
 22529
  9
$HANDSEED
  5
A7D09BB5D3
  9
$SURFTAB1
 70
     6
  9
$SURFTAB2
 70
     6
  9
$SURFTYPE
 70
     6
  9
$SURFU
 70
     6
  9
$SURFV
 70
     6
  9
$UCSNAME
  2

  9
$UCSORG
 10
0.0
 20
0.0
 30
0.0
  9
$UCSXDIR
 10
1.0
 20
0.0
 30
0.0
  9
$UCSYDIR
 10
0.0
 20
1.0
 30
0.0
  9
$PUCSNAME
  2

  9
$PUCSORG
 10
0.0
 20
0.0
 30
0.0
  9
$PUCSXDIR
 10
1.0
 20
0.0
 30
0.0
  9
$PUCSYDIR
 10
0.0
 20
1.0
 30
0.0
  9
$USERI1
 70
     0
  9
$USERI2
 70
     0
  9
$USERI3
 70
     0
  9
$USERI4
 70
     0
  9
$USERI5
 70
     0
  9
$USERR1
 40
0.0
  9
$USERR2
 40
0.0
  9
$USERR3
 40
0.0
  9
$USERR4
 40
0.0
  9
$USERR5
 40
0.0
  9
$WORLDVIEW
 70
     1
  9
$SHADEDGE
 70
     3
  9
$SHADEDIF
 70
    70
  9
$TILEMODE
 70
     1
  9
$MAXACTVP
 70
    16
  9
$PINSBASE
 10
0.5270832809975959
 20
50.00000000000001
 30
2.338414637604731
  9
$PLIMCHECK
 70
     0
  9
$PEXTMIN
 10
1.000000000000000E+20
 20
1.000000000000000E+20
 30
1.000000000000000E+20
  9
$PEXTMAX
 10
-1.000000000000000E+20
 20
-1.000000000000000E+20
 30
-1.000000000000000E+20
  9
$PLIMMIN
 10
0.0
 20
0.0
  9
$PLIMMAX
 10
12.0
 20
9.0
  9
$UNITMODE
 70
     0
  9
$VISRETAIN
 70
     0
  9
$PLINEGEN
 70
     1
  9
$PSLTSCALE
 70
     0
  9
$TREEDEPTH
 70
  3020
  9
$PICKSTYLE
 70
     1
  9
$CMLSTYLE
  2
STANDARD
  9
$CMLJUST
 70
     0
  9
$CMLSCALE
 40
1.0
  9
$PROXYGRAPHICS
 70
     1
  9
$MEASUREMENT
 70
     0
  0
ENDSEC
  0
SECTION
  2
CLASSES
  0
CLASS
  1
LWPOLYLINE
  2
AcDbPolyline
  3
AutoCAD 2000
 90
        0
280
     0
281
     1
  0
CLASS
  1
ACDBDICTIONARYWDFLT
  2
AcDbDictionaryWithDefault
  3
AutoCAD 2000
 90
        0
280
     0
281
     0
  0
CLASS
  1
ACDBPLACEHOLDER
  2
AcDbPlaceHolder
  3
AutoCAD 2000
 90
        0
280
     0
281
     0
  0
CLASS
  1
LAYOUT
  2
AcDbLayout
  3
AutoCAD 2000
 90
        0
280
     0
281
     0
  0
CLASS
  1
DICTIONARYVAR
  2
AcDbDictionaryVar
  3
AutoCAD 2000
 90
        0
280
     0
281
     0
  0
CLASS
  1
LONG_TRANSACTION
  2
AcDbLongTransaction
  3
AutoCAD 2000
 90
        0
280
     0
281
     0
  0
CLASS
  1
LWPOLYLINE
  2
AcDbPolyline
  3
AutoCAD 2000
 90
        0
280
     0
281
     1
  0
CLASS
  1
HATCH
  2
AcDbHatch
  3
AutoCAD 2000
 90
        0
280
     0
281
     1
  0
CLASS
  1
XRECORD
  2
AcDbXrecord
  3
AutoCAD 2000
 90
        0
280
     0
281
     0
  0
ENDSEC
  0
SECTION
  2
TABLES
  0
TABLE
  2
VPORT
  5
A7D09BB57A
330
0
100
AcDbSymbolTable
 70
     2
  0
VPORT
  5
A7D09BB5AE
330
A7D09BB57A
100
AcDbSymbolTableRecord
100
AcDbViewportTableRecord
  2
*ACTIVE
 70
     0
 10
0.0
 20
0.0
 11
1.0
 21
1.0
 12
5.613192402642011
 22
0.7800118525913984
 13
0.0
 23
0.0
 14
0.015625
 24
0.015625
 15
0.0
 25
0.0
 16
0.0
 26
0.0
 36
1.0
 17
0.0
 27
0.0
 37
0.0
 40
2.282647215150728
 41
4.320930232558139
 42
50.0
 43
0.0
 44
0.0
 50
0.0
 51
0.0
 71
     0
 72
  2000
 73
     1
 74
     0
 75
     1
 76
     0
 77
     0
 78
     0
  0
ENDTAB
  0
TABLE
  2
LTYPE
  5
A7D09BB577
330
0
100
AcDbSymbolTable
 70
     1
  0
LTYPE
  5
A7D09BB584
330
A7D09BB577
100
AcDbSymbolTableRecord
100
AcDbLinetypeTableRecord
  2
BYBLOCK
 70
     0
  3

 72
    65
 73
     0
 40
0.0
  0
LTYPE
  5
A7D09BB585
330
A7D09BB577
100
AcDbSymbolTableRecord
100
AcDbLinetypeTableRecord
  2
BYLAYER
 70
     0
  3

 72
    65
 73
     0
 40
0.0
  0
LTYPE
  5
A7D09BB586
330
A7D09BB577
100
AcDbSymbolTableRecord
100
AcDbLinetypeTableRecord
  2
CONTINUOUS
 70
     0
  3
Solid line
 72
    65
 73
     0
 40
0.0
  0
ENDTAB
  0
TABLE
  2
LAYER
  5
A7D09BB574
330
0
100
AcDbSymbolTable
 70
     2
  0
LAYER
  5
A7D09BB581
330
A7D09BB574
100
AcDbSymbolTableRecord
100
AcDbLayerTableRecord
  2
0
 70
     0
 62
     7
  6
CONTINUOUS
  0
LAYER
  5
A7D09BB591
330
A7D09BB574
100
AcDbSymbolTableRecord
100
AcDbLayerTableRecord
  2
TEXT
 70
     0
 62
     3
  6
CONTINUOUS
  0
ENDTAB
  0
TABLE
  2
STYLE
  5
A7D09BB575
330
0
100
AcDbSymbolTable
 70
     3
  0
STYLE
  5
A7D09BB582
330
A7D09BB575
100
AcDbSymbolTableRecord
100
AcDbTextStyleTableRecord
  2
STANDARD
 70
     0
 40
0.0
 41
1.0
 50
0.0
 71
     0
 42
0.3125
  3
txt
  4

  0
STYLE
  5
A7D09BB58E
330
A7D09BB575
100
AcDbSymbolTableRecord
100
AcDbTextStyleTableRecord
  2
ITALICC
 70
     0
 40
0.0
 41
1.0
 50
0.0
 71
     0
 42
0.125
  3
italicc
  4

  0
STYLE
  5
A7D09BB59E
330
A7D09BB575
100
AcDbSymbolTableRecord
100
AcDbTextStyleTableRecord
  2
ROMANS
 70
     0
 40
0.0
 41
1.0
 50
0.0
 71
     0
 42
0.125
  3
romans.shx
  4

  0
ENDTAB
  0
TABLE
  2
VIEW
  5
A7D09BB578
330
0
100
AcDbSymbolTable
 70
     0
  0
ENDTAB
  0
TABLE
  2
UCS
  5
A7D09BB579
330
0
100
AcDbSymbolTable
 70
     0
  0
ENDTAB
  0
TABLE
  2
APPID
  5
A7D09BB57B
330
0
100
AcDbSymbolTable
 70
     1
  0
APPID
  5
A7D09BB583
330
A7D09BB57B
100
AcDbSymbolTableRecord
100
AcDbRegAppTableRecord
  2
ACAD
 70
     0
  0
ENDTAB
  0
TABLE
  2
DIMSTYLE
  5
A7D09BB57C
330
0
100
AcDbSymbolTable
 70
     1
  0
DIMSTYLE
105
A7D09BB596
330
A7D09BB57C
100
AcDbSymbolTableRecord
100
AcDbDimStyleTableRecord
  2
STANDARD
 70
     0
  3

  4

  5

  6

  7

 40
1.0
 41
0.125
 42
0.125
 43
0.375
 44
0.125
 45
0.0
 46
0.0
 47
0.0
 48
0.0
140
0.125
141
-0.125
142
0.0
143
25.4
144
1.0
145
0.0
146
1.0
147
0.09
 71
     0
 72
     0
 73
     1
 74
     1
 75
     0
 76
     0
 77
     0
 78
     4
170
     0
171
     2
172
     0
173
     0
174
     1
175
     0
176
     0
177
     0
178
     0
270
     2
271
     3
272
     3
273
     2
274
     2
340
A7D09BB59E
275
     0
280
     0
281
     0
282
     0
283
     1
284
     4
285
     0
286
     0
287
     3
288
     0
  0
ENDTAB
  0
TABLE
  2
BLOCK_RECORD
  5
A7D09BB573
330
0
100
AcDbSymbolTable
 70
     0
  0
BLOCK_RECORD
  5
A7D09BB58A
102
{ACAD_XDICTIONARY
360
A7D09BB5D1
102
}
330
A7D09BB573
100
AcDbSymbolTableRecord
100
AcDbBlockTableRecord
  2
*MODEL_SPACE
  0
BLOCK_RECORD
  5
A7D09BB587
102
{ACAD_XDICTIONARY
360
A7D09BB5CF
102
}
330
A7D09BB573
100
AcDbSymbolTableRecord
100
AcDbBlockTableRecord
  2
*PAPER_SPACE
  0
ENDTAB
  0
ENDSEC
  0
SECTION
  2
BLOCKS
  0
BLOCK
  5
A7D09BB594
330
A7D09BB58A
100
AcDbEntity
  8
0
100
AcDbBlockBegin
  2
*MODEL_SPACE
 70
     0
 10
0.0
 20
0.0
 30
0.0
  3
*MODEL_SPACE
  1

  0
ENDBLK
  5
A7D09BB595
330
A7D09BB58A
100
AcDbEntity
  8
0
100
AcDbBlockEnd
  0
BLOCK
  5
A7D09BB592
330
A7D09BB587
100
AcDbEntity
 67
     1
  8
0
100
AcDbBlockBegin
  2
*PAPER_SPACE
 70
     0
 10
0.0
 20
0.0
 30
0.0
  3
*PAPER_SPACE
  1

  0
ENDBLK
  5
A7D09BB593
330
A7D09BB587
100
AcDbEntity
 67
     1
  8
0
100
AcDbBlockEnd
  0
ENDSEC
  0
SECTION
  2
ENTITIES
  0
LWPOLYLINE
  5
A7D09B9FCB
330
A7D09BB58A
100
AcDbEntity
  8
0
100
AcDbPolyline
 90
       15
 70
     1
 43
0.0
 10
2.486752169622253
 20
1.420169821866247
 10
2.486752169622252
 20
1.710065320628153
 42
0.9693391183701589
 10
2.436591825714521
 20
1.711627604382088
 42
0.0373287798260613
 10
2.4506919252643
 20
0.5701115546352574
 42
0.9574316963921889
 10
2.499752169622253
 20
0.5722463923681522
 10
2.499752169622253
 20
1.360169821866247
 10
2.773752169622253
 20
1.360169821866247
 10
2.773752169622253
 20
1.245169821866247
 10
2.783752169622252
 20
1.235169821866247
 10
2.773752169622252
 20
1.225169821866247
 10
2.773752169622253
 20
0.5722463923681503
 42
0.9574316963921885
 10
2.822812413980202
 20
0.5701115546352554
 42
0.0373287798260614
 10
2.836912513529986
 20
1.711627604382088
 42
0.9693391183701589
 10
2.786752169622253
 20
1.710065320628153
 10
2.786752169622253
 20
1.420169821866247
  0
TEXT
  5
A7D09BB435
330
A7D09BB58A
100
AcDbEntity
  8
TEXT
100
AcDbText
 10
1.880799788669872
 20
0.2820448218662479
 30
0.0
 40
0.125
  1
PART #110067
  7
ITALICC
 72
     1
 11
2.636752169622253
 21
0.2820448218662479
 31
0.0
100
AcDbText
  0
TEXT
  5
A7D09BB436
330
A7D09BB58A
100
AcDbEntity
  8
TEXT
100
AcDbText
 10
3.050057327872574
 20
-0.1648778208061272
 30
0.0
 40
0.0522247191011236
  1
Phone  1-800-328-2495
 41
1.272321428571429
 72
     5
 11
4.378989912142237
 21
-0.1648778208061272
 31
0.0
100
AcDbText
  0
TEXT
  5
A7D09BB437
330
A7D09BB58A
100
AcDbEntity
  8
TEXT
100
AcDbText
 10
3.050057327872574
 20
0.1148974600927493
 30
0.0
 40
0.0522247191011236
  1
Stylmark  Incorporated
 41
1.221428571428573
 72
     5
 11
4.378989912142237
 21
0.1148974600927493
 31
0.0
100
AcDbText
  0
TEXT
  5
A7D09BB438
330
A7D09BB58A
100
AcDbEntity
  8
TEXT
100
AcDbText
 10
3.050057327872574
 20
0.0216390331264571
 30
0.0
 40
0.0522247191011236
  1
6536 Main St. N.E. * P.O. Box 32008
 41
0.8388932496075366
 72
     5
 11
4.378989912142237
 21
0.0216390331264571
 31
0.0
100
AcDbText
  0
TEXT
  5
A7D09BB439
330
A7D09BB58A
100
AcDbEntity
  8
TEXT
100
AcDbText
 10
3.050057327872574
 20
-0.0716193938398351
 30
0.0
 40
0.0522247191011236
  1
Minneapolis, MN 55432-0008
 41
1.11444212721585
 72
     5
 11
4.378989912142237
 21
-0.0716193938398351
 31
0.0
100
AcDbText
  0
LWPOLYLINE
  5
A7D09BB43A
330
A7D09BB58A
100
AcDbEntity
  8
TEXT
100
AcDbPolyline
 90
        3
 70
     0
 43
0.0006660908203125
 10
0.8941036358052665
 20
-0.0512330581686924
 10
0.8941036358052665
 20
-0.16446849762182
 10
1.007339075258388
 20
-0.16446849762182
  0
LWPOLYLINE
  5
A7D09BB43F
330
A7D09BB58A
100
AcDbEntity
  8
TEXT
100
AcDbPolyline
 90
        3
 70
     0
 43
0.0006660908203125
 10
0.920747268617764
 20
-0.0512330581686924
 10
0.920747268617764
 20
-0.137824864809319
 10
1.007339075258388
 20
-0.137824864809319
  0
LWPOLYLINE
  5
A7D09BB444
330
A7D09BB58A
100
AcDbEntity
  8
TEXT
100
AcDbPolyline
 90
        2
 70
     0
 43
0.0001332181640625
 10
0.9673736260396408
 20
-0.0412416958640072
 10
0.8941036358052665
 20
-0.0512330581686924
  0
LWPOLYLINE
  5
A7D09BB448
330
A7D09BB58A
100
AcDbEntity
  8
TEXT
100
AcDbPolyline
 90
        2
 70
     0
 43
0.0001332181640625
 10
0.920747268617764
 20
-0.0512330581686924
 10
0.9806954424458913
 20
-0.0412416958640072
  0
LWPOLYLINE
  5
A7D09BB44C
330
A7D09BB58A
100
AcDbEntity
  8
TEXT
100
AcDbPolyline
 90
        2
 70
     0
 43
0.0001332181640625
 10
0.920747268617764
 20
-0.137824864809319
 10
0.9806954424458913
 20
-0.0778766909811934
  0
LWPOLYLINE
  5
A7D09BB450
330
A7D09BB58A
100
AcDbEntity
  8
TEXT
100
AcDbPolyline
 90
        3
 70
     0
 43
0.0006660908203125
 10
1.007339075258388
 20
0.1019678305031832
 10
0.8941036358052665
 20
0.1019678305031832
 10
0.8941036358052665
 20
-0.0112676089499444
  0
LWPOLYLINE
  5
A7D09BB455
330
A7D09BB58A
100
AcDbEntity
  8
TEXT
100
AcDbPolyline
 90
        3
 70
     0
 43
0.0006660908203125
 10
1.007339075258388
 20
0.0753241976906822
 10
0.920747268617764
 20
0.0753241976906822
 10
0.920747268617764
 20
-0.0112676089499444
  0
LWPOLYLINE
  5
A7D09BB45A
330
A7D09BB58A
100
AcDbEntity
  8
TEXT
100
AcDbPolyline
 90
        2
 70
     0
 43
0.0001332181640625
 10
0.920747268617764
 20
0.0753241976906822
 10
0.9806954424458895
 20
0.0153760238625567
  0
LWPOLYLINE
  5
A7D09BB45E
330
A7D09BB58A
100
AcDbEntity
  8
TEXT
100
AcDbPolyline
 90
        2
 70
     0
 43
0.0001332181640625
 10
0.920747268617764
 20
-0.0112676089499444
 10
0.9806954424458895
 20
-0.0212589712546332
  0
LWPOLYLINE
  5
A7D09BB462
330
A7D09BB58A
100
AcDbEntity
  8
TEXT
100
AcDbPolyline
 90
        2
 70
     0
 43
0.0001332181640625
 10
0.8941036358052665
 20
-0.0112676089499444
 10
0.9673736260396408
 20
-0.0212589712546332
  0
LWPOLYLINE
  5
A7D09BB466
330
A7D09BB58A
100
AcDbEntity
  8
TEXT
100
AcDbPolyline
 90
        2
 70
     0
 43
0.0006660908203125
 10
0.920747268617764
 20
-0.0512330581686924
 10
0.8941036358052665
 20
-0.0512330581686924
  0
LWPOLYLINE
  5
A7D09BB46A
330
A7D09BB58A
100
AcDbEntity
  8
TEXT
100
AcDbPolyline
 90
        2
 70
     0
 43
0.0006660908203125
 10
0.920747268617764
 20
-0.0112676089499444
 10
0.8941036358052665
 20
-0.0112676089499444
  0
LINE
  5
A7D09BB46E
330
A7D09BB58A
100
AcDbEntity
  8
TEXT
100
AcDbLine
 10
2.409294064931764
 20
0.0376911358464143
 30
0.0
 11
2.302087791544474
 21
0.0376911358464143
 31
0.0
  0
LINE
  5
A7D09BB46F
330
A7D09BB58A
100
AcDbEntity
  8
TEXT
100
AcDbLine
 10
2.438324963276242
 20
0.1019678305031797
 30
0.0
 11
2.303493054059183
 21
0.1019678305031797
 31
0.0
  0
ARC
  5
A7D09BB470
330
A7D09BB58A
100
AcDbEntity
  8
TEXT
100
AcDbCircle
 10
2.3628071504525
 20
-0.0672694187598366
 30
0.0
 40
0.0676855811441166
100
AcDbArc
 50
90.0
 51
153.7768192527749
  0
LWPOLYLINE
  5
A7D09BB471
330
A7D09BB58A
100
AcDbEntity
  8
TEXT
100
AcDbPolyline
 90
        2
 70
     0
 43
0.0
 10
2.301055296089664
 20
-0.1210142575348931
 42
0.2901071551932823
 10
2.3441312289573
 20
-0.1645052024853313
 42
5.328517124445801
  0
ARC
  5
A7D09BB475
330
A7D09BB58A
100
AcDbEntity
  8
TEXT
100
AcDbCircle
 10
1.657675772781014
 20
-0.1047128111472815
 30
0.0
 40
0.0601160179737537
100
AcDbArc
 50
180.0000000000003
 51
264.0521544866073
  0
LINE
  5
A7D09BB476
330
A7D09BB58A
100
AcDbEntity
  8
TEXT
100
AcDbLine
 10
1.661191128406562
 20
0.1363557480973179
 30
0.0
 11
1.601148523562555
 21
0.1363557480973179
 31
0.0
  0
ARC
  5
A7D09BB477
330
A7D09BB58A
100
AcDbEntity
  8
TEXT
100
AcDbCircle
 10
1.425416770664043
 20
0.019880371056678
 30
0.0
 40
0.0820874594465043
100
AcDbArc
 50
90.0
 51
270.0
  0
LWPOLYLINE
  5
A7D09BB478
330
A7D09BB58A
100
AcDbEntity
  8
TEXT
100
AcDbPolyline
 90
        2
 70
     0
 43
0.0001332181640625
 10
1.017330437563079
 20
0.0286978402688036
 10
1.007339075258388
 20
0.1019678305031832
  0
LWPOLYLINE
  5
A7D09BB47C
330
A7D09BB58A
100
AcDbEntity
  8
TEXT
100
AcDbPolyline
 90
        2
 70
     0
 43
0.0001332181640625
 10
1.007339075258388
 20
0.0753241976906822
 10
1.017330437563079
 20
0.0153760238625567
  0
LWPOLYLINE
  5
A7D09BB480
330
A7D09BB58A
100
AcDbEntity
  8
TEXT
100
AcDbPolyline
 90
        3
 70
     0
 43
0.0006660908203125
 10
1.160539963930266
 20
-0.0112676089499444
 10
1.160539963930266
 20
0.1019678305031832
 10
1.04730452447714
 20
0.1019678305031832
  0
LWPOLYLINE
  5
A7D09BB485
330
A7D09BB58A
100
AcDbEntity
  8
TEXT
100
AcDbPolyline
 90
        3
 70
     0
 43
0.0006660908203125
 10
1.133896331117765
 20
-0.0112676089499444
 10
1.133896331117765
 20
0.0753241976906822
 10
1.04730452447714
 20
0.0753241976906822
  0
LWPOLYLINE
  5
A7D09BB48A
330
A7D09BB58A
100
AcDbEntity
  8
TEXT
100
AcDbPolyline
 90
        2
 70
     0
 43
0.0001332181640625
 10
1.133896331117765
 20
0.0753241976906822
 10
1.073948157289641
 20
0.0153760238625567
  0
LWPOLYLINE
  5
A7D09BB48E
330
A7D09BB58A
100
AcDbEntity
  8
TEXT
100
AcDbPolyline
 90
        2
 70
     0
 43
0.0001332181640625
 10
1.04730452447714
 20
0.0753241976906822
 10
1.037313162172451
 20
0.0153760238625567
  0
LWPOLYLINE
  5
A7D09BB492
330
A7D09BB58A
100
AcDbEntity
  8
TEXT
100
AcDbPolyline
 90
        2
 70
     0
 43
0.0001332181640625
 10
1.04730452447714
 20
0.1019678305031832
 10
1.037313162172451
 20
0.0286978402688036
  0
LWPOLYLINE
  5
A7D09BB496
330
A7D09BB58A
100
AcDbEntity
  8
TEXT
100
AcDbPolyline
 90
        2
 70
     0
 43
0.0001332181640625
 10
1.08726997369589
 20
-0.0212589712546332
 10
1.160539963930266
 20
-0.0112676089499444
  0
LWPOLYLINE
  5
A7D09BB49A
330
A7D09BB58A
100
AcDbEntity
  8
TEXT
100
AcDbPolyline
 90
        2
 70
     0
 43
0.0001332181640625
 10
1.133896331117765
 20
-0.0112676089499444
 10
1.073948157289641
 20
-0.0212589712546332
  0
LWPOLYLINE
  5
A7D09BB49E
330
A7D09BB58A
100
AcDbEntity
  8
TEXT
100
AcDbPolyline
 90
        2
 70
     0
 43
0.0001332181640625
 10
1.160539963930266
 20
-0.0512330581686924
 10
1.08726997369589
 20
-0.0412416958640072
  0
LWPOLYLINE
  5
A7D09BB4A2
330
A7D09BB58A
100
AcDbEntity
  8
TEXT
100
AcDbPolyline
 90
        2
 70
     0
 43
0.0001332181640625
 10
1.133896331117765
 20
-0.0512330581686924
 10
1.073948157289641
 20
-0.0412416958640072
  0
LWPOLYLINE
  5
A7D09BB4A6
330
A7D09BB58A
100
AcDbEntity
  8
TEXT
100
AcDbPolyline
 90
        2
 70
     0
 43
0.0001332181640625
 10
1.133896331117765
 20
-0.137824864809319
 10
1.073948157289641
 20
-0.0778766909811934
  0
LWPOLYLINE
  5
A7D09BB4AA
330
A7D09BB58A
100
AcDbEntity
  8
TEXT
100
AcDbPolyline
 90
        3
 70
     0
 43
0.0006660908203125
 10
1.04730452447714
 20
-0.137824864809319
 10
1.133896331117765
 20
-0.137824864809319
 10
1.133896331117765
 20
-0.0512330581686924
  0
LWPOLYLINE
  5
A7D09BB4AF
330
A7D09BB58A
100
AcDbEntity
  8
TEXT
100
AcDbPolyline
 90
        3
 70
     0
 43
0.0006660908203125
 10
1.04730452447714
 20
-0.16446849762182
 10
1.160539963930266
 20
-0.16446849762182
 10
1.160539963930266
 20
-0.0512330581686924
  0
LWPOLYLINE
  5
A7D09BB4B4
330
A7D09BB58A
100
AcDbEntity
  8
TEXT
100
AcDbPolyline
 90
        5
 70
     0
 43
0.0001332181640625
 10
1.017330437563079
 20
-0.091198507387444
 10
1.017330437563079
 20
-0.0778766909811934
 10
0.9806954424458913
 20
-0.0778766909811934
 10
0.9806954424458913
 20
-0.0412416958640072
 10
0.9673736260396408
 20
-0.0412416958640072
  0
LWPOLYLINE
  5
A7D09BB4BB
330
A7D09BB58A
100
AcDbEntity
  8
TEXT
100
AcDbPolyline
 90
        2
 70
     0
 43
0.0006660908203125
 10
1.007339075258388
 20
-0.137824864809319
 10
1.007339075258388
 20
-0.16446849762182
  0
LWPOLYLINE
  5
A7D09BB4BF
330
A7D09BB58A
100
AcDbEntity
  8
TEXT
100
AcDbPolyline
 90
        2
 70
     0
 43
0.0001332181640625
 10
1.007339075258388
 20
-0.137824864809319
 10
1.017330437563079
 20
-0.0778766909811934
  0
LWPOLYLINE
  5
A7D09BB4C3
330
A7D09BB58A
100
AcDbEntity
  8
TEXT
100
AcDbPolyline
 90
        2
 70
     0
 43
0.0001332181640625
 10
1.007339075258388
 20
-0.16446849762182
 10
1.017330437563079
 20
-0.091198507387444
  0
LWPOLYLINE
  5
A7D09BB4C7
330
A7D09BB58A
100
AcDbEntity
  8
TEXT
100
AcDbPolyline
 90
        5
 70
     0
 43
0.0001332181640625
 10
0.9673736260396408
 20
-0.0212589712546332
 10
0.9806954424458895
 20
-0.0212589712546332
 10
0.9806954424458895
 20
0.0153760238625567
 10
1.017330437563079
 20
0.0153760238625567
 10
1.017330437563079
 20
0.0286978402688036
  0
LWPOLYLINE
  5
A7D09BB4CE
330
A7D09BB58A
100
AcDbEntity
  8
TEXT
100
AcDbPolyline
 90
        5
 70
     0
 43
0.0001332181640625
 10
1.037313162172451
 20
0.0286978402688036
 10
1.037313162172451
 20
0.0153760238625567
 10
1.073948157289641
 20
0.0153760238625567
 10
1.073948157289641
 20
-0.0212589712546332
 10
1.08726997369589
 20
-0.0212589712546332
  0
LWPOLYLINE
  5
A7D09BB4D5
330
A7D09BB58A
100
AcDbEntity
  8
TEXT
100
AcDbPolyline
 90
        2
 70
     0
 43
0.0001332181640625
 10
1.04730452447714
 20
-0.137824864809319
 10
1.037313162172451
 20
-0.0778766909811934
  0
LWPOLYLINE
  5
A7D09BB4D9
330
A7D09BB58A
100
AcDbEntity
  8
TEXT
100
AcDbPolyline
 90
        2
 70
     0
 43
0.0001332181640625
 10
1.037313162172451
 20
-0.091198507387444
 10
1.04730452447714
 20
-0.16446849762182
  0
LWPOLYLINE
  5
A7D09BB4DD
330
A7D09BB58A
100
AcDbEntity
  8
TEXT
100
AcDbPolyline
 90
        2
 70
     0
 43
0.0006660908203125
 10
1.04730452447714
 20
-0.137824864809319
 10
1.04730452447714
 20
-0.16446849762182
  0
LWPOLYLINE
  5
A7D09BB4E1
330
A7D09BB58A
100
AcDbEntity
  8
TEXT
100
AcDbPolyline
 90
        5
 70
     0
 43
0.0001332181640625
 10
1.08726997369589
 20
-0.0412416958640072
 10
1.073948157289641
 20
-0.0412416958640072
 10
1.073948157289641
 20
-0.0778766909811934
 10
1.037313162172451
 20
-0.0778766909811934
 10
1.037313162172451
 20
-0.091198507387444
  0
LWPOLYLINE
  5
A7D09BB4E8
330
A7D09BB58A
100
AcDbEntity
  8
TEXT
100
AcDbPolyline
 90
        2
 70
     0
 43
0.0006660908203125
 10
1.133896331117765
 20
-0.0112676089499444
 10
1.160539963930266
 20
-0.0112676089499444
  0
LWPOLYLINE
  5
A7D09BB4EC
330
A7D09BB58A
100
AcDbEntity
  8
TEXT
100
AcDbPolyline
 90
        2
 70
     0
 43
0.0006660908203125
 10
1.133896331117765
 20
-0.0512330581686924
 10
1.160539963930266
 20
-0.0512330581686924
  0
LINE
  5
A7D09BB4F0
330
A7D09BB58A
100
AcDbEntity
  8
TEXT
100
AcDbLine
 10
1.430654100778291
 20
0.0376911358464143
 30
0.0
 11
1.597559754807262
 21
0.0376911358464143
 31
0.0
  0
LINE
  5
A7D09BB4F1
330
A7D09BB58A
100
AcDbEntity
  8
TEXT
100
AcDbLine
 10
1.496254237022592
 20
0.0018864142357864
 30
0.0
 11
1.430654100778291
 21
0.0018864142357864
 31
0.0
  0
LINE
  5
A7D09BB4F2
330
A7D09BB58A
100
AcDbEntity
  8
TEXT
100
AcDbLine
 10
1.343329311217539
 20
-0.1645052024853313
 30
0.0
 11
1.496254237022592
 21
-0.1645052024853313
 31
0.0
  0
LINE
  5
A7D09BB4F3
330
A7D09BB58A
100
AcDbEntity
  8
TEXT
100
AcDbLine
 10
1.501194610928871
 20
-0.096148196151892
 30
0.0
 11
1.343329311217537
 21
-0.096148196151892
 31
0.0
  0
LINE
  5
A7D09BB4F4
330
A7D09BB58A
100
AcDbEntity
  8
TEXT
100
AcDbLine
 10
1.425416770664043
 20
-0.0622070883898274
 30
0.0
 11
1.501194610928871
 21
-0.0622070883898274
 31
0.0
  0
ARC
  5
A7D09BB4F5
330
A7D09BB58A
100
AcDbEntity
  8
TEXT
100
AcDbCircle
 10
1.430654100778292
 20
0.0197887750411021
 30
0.0
 40
0.017902360805315
100
AcDbArc
 50
90.0
 51
270.0
  0
LINE
  5
A7D09BB4F6
330
A7D09BB58A
100
AcDbEntity
  8
TEXT
100
AcDbLine
 10
1.343329311217537
 20
-0.096148196151892
 30
0.0
 11
1.343329311217539
 21
-0.1645052024853313
 31
0.0
  0
LINE
  5
A7D09BB4F7
330
A7D09BB58A
100
AcDbEntity
  8
TEXT
100
AcDbLine
 10
1.597559754807262
 20
0.0376911358464143
 30
0.0
 11
1.597559754807262
 21
-0.1047128111472815
 31
0.0
  0
ARC
  5
A7D09BB4F8
330
A7D09BB58A
100
AcDbEntity
  8
TEXT
100
AcDbCircle
 10
1.496254237022593
 20
-0.0813093941247742
 30
0.0
 40
0.0831958083605586
100
AcDbArc
 50
270.0
 51
90.0
  0
ARC
  5
A7D09BB4F9
330
A7D09BB58A
100
AcDbEntity
  8
TEXT
100
AcDbCircle
 10
1.501194610928872
 20
-0.0791776422708579
 30
0.0
 40
0.0169705538810321
100
AcDbArc
 50
270.0
 51
90.0
  0
LWPOLYLINE
  5
A7D09BB4FA
330
A7D09BB58A
100
AcDbEntity
  8
TEXT
100
AcDbPolyline
 90
        2
 70
     0
 43
0.0006660908203125
 10
1.007339075258388
 20
0.0753241976906822
 10
1.007339075258388
 20
0.1019678305031832
  0
LWPOLYLINE
  5
A7D09BB4FE
330
A7D09BB58A
100
AcDbEntity
  8
TEXT
100
AcDbPolyline
 90
        2
 70
     0
 43
0.0006660908203125
 10
1.04730452447714
 20
0.0753241976906822
 10
1.04730452447714
 20
0.1019678305031832
  0
LINE
  5
A7D09BB502
330
A7D09BB58A
100
AcDbEntity
  8
TEXT
100
AcDbLine
 10
1.601148523562555
 20
0.1019678305031797
 30
0.0
 11
1.425416770664043
 21
0.1019678305031797
 31
0.0
  0
LINE
  5
A7D09BB503
330
A7D09BB58A
100
AcDbEntity
  8
TEXT
100
AcDbLine
 10
1.601148523562555
 20
0.1363557480973179
 30
0.0
 11
1.601148523562555
 21
0.1019678305031797
 31
0.0
  0
LINE
  5
A7D09BB504
330
A7D09BB58A
100
AcDbEntity
  8
TEXT
100
AcDbLine
 10
1.791620415582407
 20
0.0010958343900591
 30
0.0
 11
1.732990094550469
 21
0.1019678305031797
 31
0.0
  0
LINE
  5
A7D09BB505
330
A7D09BB58A
100
AcDbEntity
  8
TEXT
100
AcDbLine
 10
1.850368978388273
 20
0.1019678305031797
 30
0.0
 11
1.791620415582407
 21
0.0010958343900591
 31
0.0
  0
LINE
  5
A7D09BB506
330
A7D09BB58A
100
AcDbEntity
  8
TEXT
100
AcDbLine
 10
1.947299603748014
 20
-0.0821173643823321
 30
0.0
 11
1.947299603748014
 21
0.1699793082419903
 31
0.0
  0
LINE
  5
A7D09BB507
330
A7D09BB58A
100
AcDbEntity
  8
TEXT
100
AcDbLine
 10
1.979611457885674
 20
0.1019678305031797
 30
0.0
 11
1.979611457885674
 21
-0.0988963762292286
 31
0.0
  0
LINE
  5
A7D09BB508
330
A7D09BB58A
100
AcDbEntity
  8
TEXT
100
AcDbLine
 10
1.979611457885674
 20
-0.0988963762292286
 30
0.0
 11
1.962617821001073
 21
-0.0988963762292286
 31
0.0
  0
LINE
  5
A7D09BB509
330
A7D09BB58A
100
AcDbEntity
  8
TEXT
100
AcDbLine
 10
1.948439177244209
 20
-0.1645052024853313
 30
0.0
 11
2.046442510943643
 21
-0.1645052024853313
 31
0.0
  0
LINE
  5
A7D09BB50A
330
A7D09BB58A
100
AcDbEntity
  8
TEXT
100
AcDbLine
 10
1.782020178585453
 20
-0.1445466963803184
 30
0.0
 11
1.879319884678897
 21
0.0198035145549498
 31
0.0
  0
ARC
  5
A7D09BB50B
330
A7D09BB58A
100
AcDbEntity
  8
TEXT
100
AcDbCircle
 10
1.747976618673239
 20
-0.1249574802116355
 30
0.0
 40
0.0392772371940762
100
AcDbArc
 50
270.1604552698595
 51
330.0831797321295
  0
LINE
  5
A7D09BB50C
330
A7D09BB58A
100
AcDbEntity
  8
TEXT
100
AcDbLine
 10
1.651446362287368
 20
-0.1645052024853313
 30
0.0
 11
1.748086613362362
 21
-0.164234563387049
 31
0.0
  0
LWPOLYLINE
  5
A7D09BB50D
330
A7D09BB58A
100
AcDbEntity
  8
TEXT
100
AcDbPolyline
 90
        6
 70
     1
 43
0.0
 10
1.693970165862517
 20
0.0376911358464143
 10
1.663653571642309
 20
0.0376911358464143
 10
1.663653571642309
 20
-0.0854198622084801
 42
0.407328721240804
 10
1.675197222803785
 20
-0.0972387768848662
 10
1.735818921848516
 20
-0.0972387768848662
 10
1.753284262255834
 20
-0.064426547841387
  0
LINE
  5
A7D09BB515
330
A7D09BB58A
100
AcDbEntity
  8
TEXT
100
AcDbLine
 10
1.879319884678897
 20
0.0198035145549498
 30
0.0
 11
1.879319884678897
 21
-0.1129538602704065
 31
0.0
  0
ARC
  5
A7D09BB516
330
A7D09BB58A
100
AcDbEntity
  8
TEXT
100
AcDbCircle
 10
1.962617821001071
 20
-0.0835145699858031
 30
0.0
 40
0.0153818062434269
100
AcDbArc
 50
174.7883570302258
 51
270.0
  0
LWPOLYLINE
  5
A7D09BB517
330
A7D09BB58A
100
AcDbEntity
  8
TEXT
100
AcDbPolyline
 90
        2
 70
     0
 43
0.0
 10
1.879319884678896
 20
-0.112953860270403
 42
0.3318488747599744
 10
1.948439177244209
 20
-0.1645052024853313
 42
-6.868794160588311
  0
LINE
  5
A7D09BB51B
330
A7D09BB58A
100
AcDbEntity
  8
TEXT
100
AcDbLine
 10
2.103831579932904
 20
-0.1645052024853313
 30
0.0
 11
2.170889626714744
 21
-0.1645052024853313
 31
0.0
  0
LINE
  5
A7D09BB51C
330
A7D09BB58A
100
AcDbEntity
  8
TEXT
100
AcDbLine
 10
2.103831579932904
 20
0.0301373466803043
 30
0.0
 11
2.103831579932904
 21
-0.1645052024853313
 31
0.0
  0
LINE
  5
A7D09BB51D
330
A7D09BB58A
100
AcDbEntity
  8
TEXT
100
AcDbLine
 10
2.046442510943643
 20
0.0376911358464143
 30
0.0
 11
2.096277790766791
 21
0.0376911358464143
 31
0.0
  0
LINE
  5
A7D09BB51E
330
A7D09BB58A
100
AcDbEntity
  8
TEXT
100
AcDbLine
 10
2.046442510943643
 20
-0.1645052024853313
 30
0.0
 11
2.046442510943643
 21
0.0376911358464143
 31
0.0
  0
LWPOLYLINE
  5
A7D09BB51F
330
A7D09BB58A
100
AcDbEntity
  8
TEXT
100
AcDbPolyline
 90
        2
 70
     0
 43
0.0
 10
2.096277790766789
 20
0.0376911358464143
 42
-0.4142135623731017
 10
2.103831579932903
 20
0.0301373466803043
 42
-0.9999999999999998
  0
LINE
  5
A7D09BB523
330
A7D09BB58A
100
AcDbEntity
  8
TEXT
100
AcDbLine
 10
2.302087791544474
 20
0.0376911358464143
 30
0.0
 11
2.302087791544474
 21
-0.0373612702277924
 31
0.0
  0
LINE
  5
A7D09BB524
330
A7D09BB58A
100
AcDbEntity
  8
TEXT
100
AcDbLine
 10
2.170889626714744
 20
0.0376911358464143
 30
0.0
 11
2.225023223635695
 21
0.0376911358464143
 31
0.0
  0
LINE
  5
A7D09BB525
330
A7D09BB58A
100
AcDbEntity
  8
TEXT
100
AcDbLine
 10
2.170889626714744
 20
-0.1645052024853313
 30
0.0
 11
2.170889626714744
 21
0.0376911358464143
 31
0.0
  0
LWPOLYLINE
  5
A7D09BB526
330
A7D09BB58A
100
AcDbEntity
  8
TEXT
100
AcDbPolyline
 90
        2
 70
     0
 43
0.0
 10
2.225023223635693
 20
0.0376911358464143
 42
-0.4142135623731017
 10
2.232577012801806
 20
0.0301373466803043
 42
-0.9999999999999998
  0
LWPOLYLINE
  5
A7D09BB52A
330
A7D09BB58A
100
AcDbEntity
  8
TEXT
100
AcDbPolyline
 90
        4
 70
     0
 43
0.0
 10
2.232577012801806
 20
0.0301373466803043
 10
2.232577012801806
 20
-0.1645052024853313
 10
2.301055296089664
 20
-0.1645052024853313
 10
2.301055296089664
 20
-0.1210142575348931
 42
-1.714843617202739
  0
LINE
  5
A7D09BB530
330
A7D09BB58A
100
AcDbEntity
  8
TEXT
100
AcDbLine
 10
1.661191128406562
 20
0.1019678305031797
 30
0.0
 11
1.661191128406562
 21
0.1363557480973179
 31
0.0
  0
LINE
  5
A7D09BB531
330
A7D09BB58A
100
AcDbEntity
  8
TEXT
100
AcDbLine
 10
1.732990094550469
 20
0.1019678305031797
 30
0.0
 11
1.661191128406562
 21
0.1019678305031797
 31
0.0
  0
LINE
  5
A7D09BB532
330
A7D09BB58A
100
AcDbEntity
  8
TEXT
100
AcDbLine
 10
1.880490891181649
 20
0.1019678305031797
 30
0.0
 11
1.850368978388273
 21
0.1019678305031797
 31
0.0
  0
LINE
  5
A7D09BB533
330
A7D09BB58A
100
AcDbEntity
  8
TEXT
100
AcDbLine
 10
1.880490891181649
 20
0.1699793082419903
 30
0.0
 11
1.880490891181649
 21
0.1019678305031797
 31
0.0
  0
LINE
  5
A7D09BB534
330
A7D09BB58A
100
AcDbEntity
  8
TEXT
100
AcDbLine
 10
1.947299603748014
 20
0.1699793082419903
 30
0.0
 11
1.880490891181649
 21
0.1699793082419903
 31
0.0
  0
LWPOLYLINE
  5
A7D09BB535
330
A7D09BB58A
100
AcDbEntity
  8
TEXT
100
AcDbPolyline
 90
        3
 70
     0
 43
0.0
 10
2.267711363346016
 20
0.1019678305031832
 10
2.149411204529972
 20
0.1019678305031832
 10
2.149411204529972
 20
0.0748003337422874
 42
-1.960274751411753
  0
LINE
  5
A7D09BB53A
330
A7D09BB58A
100
AcDbEntity
  8
TEXT
100
AcDbLine
 10
2.11362951381681
 20
0.1019678305031797
 30
0.0
 11
1.979611457885674
 21
0.1019678305031797
 31
0.0
  0
LWPOLYLINE
  5
A7D09BB53B
330
A7D09BB58A
100
AcDbEntity
  8
TEXT
100
AcDbPolyline
 90
        2
 70
     0
 43
0.0
 10
2.11362951381681
 20
0.1019678305031832
 42
-0.3328679258950098
 10
2.149411204529972
 20
0.0748003337422874
 42
6.772930709997214
  0
LINE
  5
A7D09BB53F
330
A7D09BB58A
100
AcDbEntity
  8
TEXT
100
AcDbLine
 10
2.303493054059183
 20
0.1019678305031797
 30
0.0
 11
2.303493054059183
 21
0.0736452847335358
 31
0.0
  0
LWPOLYLINE
  5
A7D09BB540
330
A7D09BB58A
100
AcDbEntity
  8
TEXT
100
AcDbPolyline
 90
        2
 70
     0
 43
0.0
 10
2.267711363346016
 20
0.1019678305031832
 42
-0.3277054968067132
 10
2.303493054059181
 20
0.0736452847335394
 42
6.667889725900311
  0
LINE
  5
A7D09BB544
330
A7D09BB58A
100
AcDbEntity
  8
TEXT
100
AcDbLine
 10
2.517284902151283
 20
-0.0032441480502476
 30
0.0
 11
2.473534130969381
 21
0.0790061279458976
 31
0.0
  0
LINE
  5
A7D09BB545
330
A7D09BB58A
100
AcDbEntity
  8
TEXT
100
AcDbLine
 10
2.517284902151283
 20
0.1019678305031797
 30
0.0
 11
2.517284902151283
 21
-0.0032441480502476
 31
0.0
  0
LINE
  5
A7D09BB546
330
A7D09BB58A
100
AcDbEntity
  8
TEXT
100
AcDbLine
 10
2.744968641089652
 20
0.0261025040916416
 30
0.0
 11
2.744968641089652
 21
0.1674320362707804
 31
0.0
  0
LINE
  5
A7D09BB547
330
A7D09BB58A
100
AcDbEntity
  8
TEXT
100
AcDbLine
 10
2.792066799645636
 20
0.1019678305031797
 30
0.0
 11
2.744968641089652
 21
0.0261025040916416
 31
0.0
  0
LINE
  5
A7D09BB548
330
A7D09BB58A
100
AcDbEntity
  8
TEXT
100
AcDbLine
 10
2.802501516409559
 20
-0.0079254124377939
 30
0.0
 11
2.867058632375265
 21
0.1019678305031797
 31
0.0
  0
LINE
  5
A7D09BB549
330
A7D09BB58A
100
AcDbEntity
  8
TEXT
100
AcDbLine
 10
2.681133649866879
 20
-0.1645052024853313
 30
0.0
 11
2.745511834185499
 21
-0.1645052024853313
 31
0.0
  0
LWPOLYLINE
  5
A7D09BB54A
330
A7D09BB58A
100
AcDbEntity
  8
TEXT
100
AcDbPolyline
 90
        2
 70
     0
 43
0.0
 10
2.521224579456321
 20
-0.1210142575348931
 42
-0.2901071551932486
 10
2.478148646588676
 20
-0.1645052024853313
 42
-5.328517124445184
  0
ARC
  5
A7D09BB54E
330
A7D09BB58A
100
AcDbEntity
  8
TEXT
100
AcDbCircle
 10
2.409294064931762
 20
0.009331760846417
 30
0.0
 40
0.028359375
100
AcDbArc
 50
25.78218179591245
 51
90.0
  0
LINE
  5
A7D09BB54F
330
A7D09BB58A
100
AcDbEntity
  8
TEXT
100
AcDbLine
 10
2.445095140235885
 20
0.000416162384282
 30
0.0
 11
2.43483037982232
 21
0.0216667019569763
 31
0.0
  0
LINE
  5
A7D09BB550
330
A7D09BB58A
100
AcDbEntity
  8
TEXT
100
AcDbLine
 10
2.362807150452502
 20
0.000416162384282
 30
0.0
 11
2.445095140235885
 21
0.000416162384282
 31
0.0
  0
LWPOLYLINE
  5
A7D09BB551
330
A7D09BB58A
100
AcDbEntity
  8
TEXT
100
AcDbPolyline
 90
        4
 70
     1
 43
0.0
 10
2.458026181518784
 20
-0.0615412245013061
 10
2.369365862858925
 20
-0.0615412245013061
 42
0.9999999999999998
 10
2.369365862858925
 20
-0.1039397650051668
 10
2.458026181518784
 20
-0.1039397650051668
 42
1.0
  0
LWPOLYLINE
  5
A7D09BB557
330
A7D09BB58A
100
AcDbEntity
  8
TEXT
100
AcDbPolyline
 90
        2
 70
     0
 43
0.0
 10
2.3441312289573
 20
-0.1645052024853313
 10
2.478148646588676
 20
-0.1645052024853313
 42
0.9999999999999998
  0
LINE
  5
A7D09BB55B
330
A7D09BB58A
100
AcDbEntity
  8
TEXT
100
AcDbLine
 10
2.604485668574316
 20
0.0376911358464143
 30
0.0
 11
2.681133649866874
 21
0.0376911358464143
 31
0.0
  0
LINE
  5
A7D09BB55C
330
A7D09BB58A
100
AcDbEntity
  8
TEXT
100
AcDbLine
 10
2.681133649866874
 20
0.0376911358464143
 30
0.0
 11
2.681133649866879
 21
-0.1645052024853313
 31
0.0
  0
ARC
  5
A7D09BB55D
330
A7D09BB58A
100
AcDbEntity
  8
TEXT
100
AcDbCircle
 10
2.604485668574314
 20
0.0127852605637515
 30
0.0
 40
0.0249058752826653
100
AcDbArc
 50
89.99971217465335
 51
179.9999999999985
  0
LINE
  5
A7D09BB55E
330
A7D09BB58A
100
AcDbEntity
  8
TEXT
100
AcDbLine
 10
2.579579793291657
 20
-0.1645052024853313
 30
0.0
 11
2.579579793291651
 21
0.0127853029461371
 31
0.0
  0
LWPOLYLINE
  5
A7D09BB55F
330
A7D09BB58A
100
AcDbEntity
  8
TEXT
100
AcDbPolyline
 90
        2
 70
     0
 43
0.0
 10
2.521224579456321
 20
-0.1645052024853313
 10
2.579579793291655
 20
-0.1645052024853313
  0
LWPOLYLINE
  5
A7D09BB563
330
A7D09BB58A
100
AcDbEntity
  8
TEXT
100
AcDbPolyline
 90
        2
 70
     0
 43
0.0
 10
2.521224579456321
 20
-0.1210142575348931
 10
2.521224579456321
 20
-0.1645052024853313
  0
LINE
  5
A7D09BB567
330
A7D09BB58A
100
AcDbEntity
  8
TEXT
100
AcDbLine
 10
2.89799373977317
 20
-0.1645052024853313
 30
0.0
 11
2.802501516409559
 21
-0.0079254124377939
 31
0.0
  0
LINE
  5
A7D09BB568
330
A7D09BB58A
100
AcDbEntity
  8
TEXT
100
AcDbLine
 10
2.821415367396964
 20
-0.1645052024853313
 30
0.0
 11
2.89799373977317
 21
-0.1645052024853313
 31
0.0
  0
LINE
  5
A7D09BB569
330
A7D09BB58A
100
AcDbEntity
  8
TEXT
100
AcDbLine
 10
2.745511834185499
 20
-0.0329256340091511
 30
0.0
 11
2.821415367396964
 21
-0.1645052024853313
 31
0.0
  0
LINE
  5
A7D09BB56A
330
A7D09BB58A
100
AcDbEntity
  8
TEXT
100
AcDbLine
 10
2.745511834185499
 20
-0.1645052024853313
 30
0.0
 11
2.745511834185499
 21
-0.0329256340091511
 31
0.0
  0
LINE
  5
A7D09BB56B
330
A7D09BB58A
100
AcDbEntity
  8
TEXT
100
AcDbLine
 10
2.744968641089652
 20
0.1674320362707804
 30
0.0
 11
2.676653762540379
 21
0.1674320362707804
 31
0.0
  0
ARC
  5
A7D09BB56C
330
A7D09BB58A
100
AcDbEntity
  8
TEXT
100
AcDbCircle
 10
2.436298023499173
 20
0.0603842633822773
 30
0.0
 40
0.0416329381542859
100
AcDbArc
 50
26.56974201007528
 51
87.20939649401342
  0
LINE
  5
A7D09BB56D
330
A7D09BB58A
100
AcDbEntity
  8
TEXT
100
AcDbLine
 10
2.581181808450784
 20
0.1019678305031797
 30
0.0
 11
2.517284902151283
 21
0.1019678305031797
 31
0.0
  0
LINE
  5
A7D09BB56E
330
A7D09BB58A
100
AcDbEntity
  8
TEXT
100
AcDbLine
 10
2.581181808450784
 20
0.0744201806423051
 30
0.0
 11
2.581181808450784
 21
0.1019678305031797
 31
0.0
  0
ARC
  5
A7D09BB56F
330
A7D09BB58A
100
AcDbEntity
  8
TEXT
100
AcDbCircle
 10
2.612374625513892
 20
0.0707221032209149
 30
0.0
 40
0.0314112657011332
100
AcDbArc
 50
95.88484768694724
 51
173.2388340632136
  0
LINE
  5
A7D09BB570
330
A7D09BB58A
100
AcDbEntity
  8
TEXT
100
AcDbLine
 10
2.676653762540373
 20
0.1019678305031797
 30
0.0
 11
2.609154044890857
 21
0.1019678305031797
 31
0.0
  0
LINE
  5
A7D09BB571
330
A7D09BB58A
100
AcDbEntity
  8
TEXT
100
AcDbLine
 10
2.676653762540379
 20
0.1674320362707804
 30
0.0
 11
2.676653762540373
 21
0.1019678305031797
 31
0.0
  0
LINE
  5
A7D09BB572
330
A7D09BB58A
100
AcDbEntity
  8
TEXT
100
AcDbLine
 10
2.867058632375265
 20
0.1019678305031797
 30
0.0
 11
2.792066799645638
 21
0.1019678305031797
 31
0.0
  0
ENDSEC
  0
SECTION
  2
OBJECTS
  0
DICTIONARY
  5
A7D09BB57E
330
0
100
AcDbDictionary
  3
ACAD_GROUP
350
A7D09BB57F
  3
ACAD_LAYOUT
350
A7D09BB5A4
  3
ACAD_MLINESTYLE
350
A7D09BB580
  3
ACAD_PLOTSETTINGS
350
A7D09BB5A5
  3
ACAD_PLOTSTYLENAME
350
A7D09BB5A2
  3
ACDBHEADERROUNDTRIPXREC
350
A7D09BB5AF
  3
ACDBVARIABLEDICTIONARY
350
A7D09BB5AC
  0
DICTIONARY
  5
A7D09BB5D1
330
A7D09BB58A
100
AcDbDictionary
280
     1
  3
ACAD_LAYOUTSELFREF
360
A7D09BB5D2
  0
DICTIONARY
  5
A7D09BB5CF
330
A7D09BB587
100
AcDbDictionary
280
     1
  3
ACAD_LAYOUTSELFREF
360
A7D09BB5D0
  0
DICTIONARY
  5
A7D09BB57F
102
{ACAD_REACTORS
330
A7D09BB57E
102
}
330
A7D09BB57E
100
AcDbDictionary
  0
DICTIONARY
  5
A7D09BB5A4
102
{ACAD_REACTORS
330
A7D09BB57E
102
}
330
A7D09BB57E
100
AcDbDictionary
  0
DICTIONARY
  5
A7D09BB580
102
{ACAD_REACTORS
330
A7D09BB57E
102
}
330
A7D09BB57E
100
AcDbDictionary
  3
STANDARD
350
A7D09BB58D
  0
DICTIONARY
  5
A7D09BB5A5
102
{ACAD_REACTORS
330
A7D09BB57E
102
}
330
A7D09BB57E
100
AcDbDictionary
  0
ACDBDICTIONARYWDFLT
  5
A7D09BB5A2
102
{ACAD_REACTORS
330
A7D09BB57E
102
}
330
A7D09BB57E
100
AcDbDictionary
281
     1
  3
Normal
350
A7D09BB5A3
100
AcDbDictionaryWithDefault
340
A7D09BB5A3
  0
DICTIONARY
  5
A7D09BB5AF
102
{ACAD_REACTORS
330
A7D09BB57E
102
}
330
A7D09BB57E
100
AcDbDictionary
  3
CEPSNTYPE
350
A7D09BB5B9
  3
FINGERPRINTGUID
350
A7D09BB5BA
  3
HYPERLINKBASE
350
A7D09BB5B2
  3
INSUNITS
350
A7D09BB5B8
  3
LAYOUTDICT
350
A7D09BB5B4
  3
LWETCUNION
350
A7D09BB5B7
  3
PLOTSETDICT
350
A7D09BB5B5
  3
PLOTSTYLNAMDICT
350
A7D09BB5B6
  3
PSVPSCALE
350
A7D09BB5BC
  3
PUCSBASE
350
A7D09BB5BF
  3
PUCSORGBACK
350
A7D09BB5C5
  3
PUCSORGBOTTOM
350
A7D09BB5C1
  3
PUCSORGFRONT
350
A7D09BB5C4
  3
PUCSORGLEFT
350
A7D09BB5C2
  3
PUCSORGRIGHT
350
A7D09BB5C3
  3
PUCSORGTOP
350
A7D09BB5C0
  3
PUCSORTHOREF
350
A7D09BB5BD
  3
PUCSORTHOVIEW
350
A7D09BB5BE
  3
STYLESHEET
350
A7D09BB5B3
  3
TSTACKALIGN
350
A7D09BB5B0
  3
TSTACKSIZE
350
A7D09BB5B1
  3
UCSBASE
350
A7D09BB5C8
  3
UCSORGBACK
350
A7D09BB5CE
  3
UCSORGBOTTOM
350
A7D09BB5CA
  3
UCSORGFRONT
350
A7D09BB5CD
  3
UCSORGLEFT
350
A7D09BB5CB
  3
UCSORGRIGHT
350
A7D09BB5CC
  3
UCSORGTOP
350
A7D09BB5C9
  3
UCSORTHOREF
350
A7D09BB5C6
  3
UCSORTHOVIEW
350
A7D09BB5C7
  3
VERSIONGUID
350
A7D09BB5BB
  0
DICTIONARY
  5
A7D09BB5AC
102
{ACAD_REACTORS
330
A7D09BB57E
102
}
330
A7D09BB57E
100
AcDbDictionary
  3
DIMASSOC
350
A7D09BB5AD
  0
XRECORD
  5
A7D09BB5D2
102
{ACAD_REACTORS
330
A7D09BB5D1
102
}
330
A7D09BB5D1
100
AcDbXrecord
340
A7D09BB58A
  0
XRECORD
  5
A7D09BB5D0
102
{ACAD_REACTORS
330
A7D09BB5CF
102
}
330
A7D09BB5CF
100
AcDbXrecord
340
A7D09BB587
  0
MLINESTYLE
  5
A7D09BB58D
102
{ACAD_REACTORS
330
A7D09BB580
102
}
330
A7D09BB580
100
AcDbMlineStyle
  2
STANDARD
 70
     0
  3

 62
     0
 51
90.0
 52
90.0
 71
     2
 49
0.5
 62
   256
  6
BYLAYER
 49
-0.5
 62
   256
  6
BYLAYER
  0
ACDBPLACEHOLDER
  5
A7D09BB5A3
102
{ACAD_REACTORS
330
A7D09BB5A2
102
}
330
A7D09BB5A2
100
AcDbPlaceHolder
280
     0
  0
XRECORD
  5
A7D09BB5B9
102
{ACAD_REACTORS
330
A7D09BB5AF
102
}
330
A7D09BB5AF
100
AcDbXrecord
 90
        0
  0
XRECORD
  5
A7D09BB5BA
102
{ACAD_REACTORS
330
A7D09BB5AF
102
}
330
A7D09BB5AF
100
AcDbXrecord
  1
{B5F666D0-8DB3-11D6-88E6-0090279574E7}
  0
XRECORD
  5
A7D09BB5B2
102
{ACAD_REACTORS
330
A7D09BB5AF
102
}
330
A7D09BB5AF
100
AcDbXrecord
  1

  0
XRECORD
  5
A7D09BB5B8
102
{ACAD_REACTORS
330
A7D09BB5AF
102
}
330
A7D09BB5AF
100
AcDbXrecord
 90
        0
  0
XRECORD
  5
A7D09BB5B4
102
{ACAD_REACTORS
330
A7D09BB5AF
102
}
330
A7D09BB5AF
100
AcDbXrecord
340
A7D09BB5A4
  0
XRECORD
  5
A7D09BB5B7
102
{ACAD_REACTORS
330
A7D09BB5AF
102
}
330
A7D09BB5AF
100
AcDbXrecord
 90
    14877
  0
XRECORD
  5
A7D09BB5B5
102
{ACAD_REACTORS
330
A7D09BB5AF
102
}
330
A7D09BB5AF
100
AcDbXrecord
340
A7D09BB5A5
  0
XRECORD
  5
A7D09BB5B6
102
{ACAD_REACTORS
330
A7D09BB5AF
102
}
330
A7D09BB5AF
100
AcDbXrecord
340
A7D09BB5A2
  0
XRECORD
  5
A7D09BB5BC
102
{ACAD_REACTORS
330
A7D09BB5AF
102
}
330
A7D09BB5AF
100
AcDbXrecord
 40
0.0
  0
XRECORD
  5
A7D09BB5BF
102
{ACAD_REACTORS
330
A7D09BB5AF
102
}
330
A7D09BB5AF
100
AcDbXrecord
340
0
  0
XRECORD
  5
A7D09BB5C5
102
{ACAD_REACTORS
330
A7D09BB5AF
102
}
330
A7D09BB5AF
100
AcDbXrecord
 10
0.0
 20
0.0
 30
0.0
  0
XRECORD
  5
A7D09BB5C1
102
{ACAD_REACTORS
330
A7D09BB5AF
102
}
330
A7D09BB5AF
100
AcDbXrecord
 10
0.0
 20
0.0
 30
0.0
  0
XRECORD
  5
A7D09BB5C4
102
{ACAD_REACTORS
330
A7D09BB5AF
102
}
330
A7D09BB5AF
100
AcDbXrecord
 10
0.0
 20
0.0
 30
0.0
  0
XRECORD
  5
A7D09BB5C2
102
{ACAD_REACTORS
330
A7D09BB5AF
102
}
330
A7D09BB5AF
100
AcDbXrecord
 10
0.0
 20
0.0
 30
0.0
  0
XRECORD
  5
A7D09BB5C3
102
{ACAD_REACTORS
330
A7D09BB5AF
102
}
330
A7D09BB5AF
100
AcDbXrecord
 10
0.0
 20
0.0
 30
0.0
  0
XRECORD
  5
A7D09BB5C0
102
{ACAD_REACTORS
330
A7D09BB5AF
102
}
330
A7D09BB5AF
100
AcDbXrecord
 10
0.0
 20
0.0
 30
0.0
  0
XRECORD
  5
A7D09BB5BD
102
{ACAD_REACTORS
330
A7D09BB5AF
102
}
330
A7D09BB5AF
100
AcDbXrecord
340
0
  0
XRECORD
  5
A7D09BB5BE
102
{ACAD_REACTORS
330
A7D09BB5AF
102
}
330
A7D09BB5AF
100
AcDbXrecord
 70
     0
  0
XRECORD
  5
A7D09BB5B3
102
{ACAD_REACTORS
330
A7D09BB5AF
102
}
330
A7D09BB5AF
100
AcDbXrecord
  1

  0
XRECORD
  5
A7D09BB5B0
102
{ACAD_REACTORS
330
A7D09BB5AF
102
}
330
A7D09BB5AF
100
AcDbXrecord
 90
        1
  0
XRECORD
  5
A7D09BB5B1
102
{ACAD_REACTORS
330
A7D09BB5AF
102
}
330
A7D09BB5AF
100
AcDbXrecord
 90
       70
  0
XRECORD
  5
A7D09BB5C8
102
{ACAD_REACTORS
330
A7D09BB5AF
102
}
330
A7D09BB5AF
100
AcDbXrecord
340
0
  0
XRECORD
  5
A7D09BB5CE
102
{ACAD_REACTORS
330
A7D09BB5AF
102
}
330
A7D09BB5AF
100
AcDbXrecord
 10
0.0
 20
0.0
 30
0.0
  0
XRECORD
  5
A7D09BB5CA
102
{ACAD_REACTORS
330
A7D09BB5AF
102
}
330
A7D09BB5AF
100
AcDbXrecord
 10
0.0
 20
0.0
 30
0.0
  0
XRECORD
  5
A7D09BB5CD
102
{ACAD_REACTORS
330
A7D09BB5AF
102
}
330
A7D09BB5AF
100
AcDbXrecord
 10
0.0
 20
0.0
 30
0.0
  0
XRECORD
  5
A7D09BB5CB
102
{ACAD_REACTORS
330
A7D09BB5AF
102
}
330
A7D09BB5AF
100
AcDbXrecord
 10
0.0
 20
0.0
 30
0.0
  0
XRECORD
  5
A7D09BB5CC
102
{ACAD_REACTORS
330
A7D09BB5AF
102
}
330
A7D09BB5AF
100
AcDbXrecord
 10
0.0
 20
0.0
 30
0.0
  0
XRECORD
  5
A7D09BB5C9
102
{ACAD_REACTORS
330
A7D09BB5AF
102
}
330
A7D09BB5AF
100
AcDbXrecord
 10
0.0
 20
0.0
 30
0.0
  0
XRECORD
  5
A7D09BB5C6
102
{ACAD_REACTORS
330
A7D09BB5AF
102
}
330
A7D09BB5AF
100
AcDbXrecord
340
0
  0
XRECORD
  5
A7D09BB5C7
102
{ACAD_REACTORS
330
A7D09BB5AF
102
}
330
A7D09BB5AF
100
AcDbXrecord
 70
     0
  0
XRECORD
  5
A7D09BB5BB
102
{ACAD_REACTORS
330
A7D09BB5AF
102
}
330
A7D09BB5AF
100
AcDbXrecord
  1
{B5F666D2-8DB3-11D6-88E6-0090279574E7}
  0
DICTIONARYVAR
  5
A7D09BB5AD
102
{ACAD_REACTORS
330
A7D09BB5AC
102
}
330
A7D09BB5AC
100
DictionaryVariables
280
     0
  1
1
  0
ENDSEC
  0
EOF
