  0
SECTION
  2
HEADER
  9
$ACADVER
  1
AC1014
  9
$ACADMAINTVER
 70
     9
  9
$DWGCODEPAGE
  3
ANSI_1252
  9
$INSBASE
 10
1.706069115718472
 20
1.515625
 30
0.0
  9
$EXTMIN
 10
-0.0369124635086704
 20
0.0888563959174185
 30
0.0
  9
$EXTMAX
 10
3.448306858238457
 20
1.991152168251411
 30
0.0
  9
$LIMMIN
 10
0.0
 20
0.0
  9
$LIMMAX
 10
18.0
 20
12.0
  9
$ORTHOMODE
 70
     1
  9
$REGENMODE
 70
     1
  9
$FILLMODE
 70
     1
  9
$QTEXTMODE
 70
     0
  9
$MIRRTEXT
 70
     0
  9
$DRAGMODE
 70
     2
  9
$LTSCALE
 40
1.0
  9
$OSMODE
 70
    39
  9
$ATTMODE
 70
     1
  9
$TEXTSIZE
 40
0.125
  9
$TRACEWID
 40
0.05
  9
$TEXTSTYLE
  7
ROMANS
  9
$CLAYER
  8
0
  9
$CELTYPE
  6
BYLAYER
  9
$CECOLOR
 62
   256
  9
$CELTSCALE
 40
1.0
  9
$DELOBJ
 70
     1
  9
$DISPSILH
 70
     1
  9
$DIMSCALE
 40
1.0
  9
$DIMASZ
 40
0.125
  9
$DIMEXO
 40
0.125
  9
$DIMDLI
 40
0.375
  9
$DIMRND
 40
0.0
  9
$DIMDLE
 40
0.0
  9
$DIMEXE
 40
0.125
  9
$DIMTP
 40
0.0
  9
$DIMTM
 40
0.0
  9
$DIMTXT
 40
0.125
  9
$DIMCEN
 40
-0.125
  9
$DIMTSZ
 40
0.0
  9
$DIMTOL
 70
     0
  9
$DIMLIM
 70
     0
  9
$DIMTIH
 70
     1
  9
$DIMTOH
 70
     1
  9
$DIMSE1
 70
     0
  9
$DIMSE2
 70
     0
  9
$DIMTAD
 70
     0
  9
$DIMZIN
 70
     4
  9
$DIMBLK
  1

  9
$DIMASO
 70
     1
  9
$DIMSHO
 70
     1
  9
$DIMPOST
  1

  9
$DIMAPOST
  1

  9
$DIMALT
 70
     0
  9
$DIMALTD
 70
     2
  9
$DIMALTF
 40
25.4
  9
$DIMLFAC
 40
1.0
  9
$DIMTOFL
 70
     0
  9
$DIMTVP
 40
0.0
  9
$DIMTIX
 70
     1
  9
$DIMSOXD
 70
     0
  9
$DIMSAH
 70
     0
  9
$DIMBLK1
  1

  9
$DIMBLK2
  1

  9
$DIMSTYLE
  2
STANDARD
  9
$DIMCLRD
 70
     0
  9
$DIMCLRE
 70
     0
  9
$DIMCLRT
 70
     0
  9
$DIMTFAC
 40
1.0
  9
$DIMGAP
 40
0.09
  9
$DIMJUST
 70
     0
  9
$DIMSD1
 70
     0
  9
$DIMSD2
 70
     0
  9
$DIMTOLJ
 70
     1
  9
$DIMTZIN
 70
     4
  9
$DIMALTZ
 70
     0
  9
$DIMALTTZ
 70
     0
  9
$DIMFIT
 70
     3
  9
$DIMUPT
 70
     0
  9
$DIMUNIT
 70
     2
  9
$DIMDEC
 70
     3
  9
$DIMTDEC
 70
     3
  9
$DIMALTU
 70
     2
  9
$DIMALTTD
 70
     2
  9
$DIMTXSTY
  7
ROMANS
  9
$DIMAUNIT
 70
     0
  9
$LUNITS
 70
     2
  9
$LUPREC
 70
     3
  9
$SKETCHINC
 40
0.1
  9
$FILLETRAD
 40
0.03125
  9
$AUNITS
 70
     0
  9
$AUPREC
 70
     0
  9
$MENU
  1
ACAD
  9
$ELEVATION
 40
0.0
  9
$PELEVATION
 40
0.0
  9
$THICKNESS
 40
0.0
  9
$LIMCHECK
 70
     0
  9
$BLIPMODE
 70
     0
  9
$CHAMFERA
 40
0.0
  9
$CHAMFERB
 40
0.0
  9
$CHAMFERC
 40
0.0
  9
$CHAMFERD
 40
0.0
  9
$SKPOLY
 70
     0
  9
$TDCREATE
 40
2448993.460969791
  9
$TDUPDATE
 40
2452458.293987523
  9
$TDINDWG
 40
0.0005802894
  9
$TDUSRTIMER
 40
0.0005802894
  9
$USRTIMER
 70
     1
  9
$ANGBASE
 50
0.0
  9
$ANGDIR
 70
     0
  9
$PDMODE
 70
     0
  9
$PDSIZE
 40
0.0
  9
$PLINEWID
 40
0.0
  9
$COORDS
 70
     2
  9
$SPLFRAME
 70
     0
  9
$SPLINETYPE
 70
     6
  9
$SPLINESEGS
 70
     8
  9
$ATTDIA
 70
     0
  9
$ATTREQ
 70
     1
  9
$HANDLING
 70
 22529
  9
$HANDSEED
  5
53E84DE2CF
  9
$SURFTAB1
 70
     6
  9
$SURFTAB2
 70
     6
  9
$SURFTYPE
 70
     6
  9
$SURFU
 70
     6
  9
$SURFV
 70
     6
  9
$UCSNAME
  2

  9
$UCSORG
 10
0.0
 20
0.0
 30
0.0
  9
$UCSXDIR
 10
1.0
 20
0.0
 30
0.0
  9
$UCSYDIR
 10
0.0
 20
1.0
 30
0.0
  9
$PUCSNAME
  2

  9
$PUCSORG
 10
0.0
 20
0.0
 30
0.0
  9
$PUCSXDIR
 10
1.0
 20
0.0
 30
0.0
  9
$PUCSYDIR
 10
0.0
 20
1.0
 30
0.0
  9
$USERI1
 70
     0
  9
$USERI2
 70
     0
  9
$USERI3
 70
     0
  9
$USERI4
 70
     0
  9
$USERI5
 70
     0
  9
$USERR1
 40
0.0
  9
$USERR2
 40
0.0
  9
$USERR3
 40
0.0
  9
$USERR4
 40
0.0
  9
$USERR5
 40
0.0
  9
$WORLDVIEW
 70
     1
  9
$SHADEDGE
 70
     3
  9
$SHADEDIF
 70
    70
  9
$TILEMODE
 70
     1
  9
$MAXACTVP
 70
    16
  9
$PINSBASE
 10
1.276577427459332
 20
50.00000000000001
 30
1.673780486532828
  9
$PLIMCHECK
 70
     0
  9
$PEXTMIN
 10
1.000000000000000E+20
 20
1.000000000000000E+20
 30
1.000000000000000E+20
  9
$PEXTMAX
 10
-1.000000000000000E+20
 20
-1.000000000000000E+20
 30
-1.000000000000000E+20
  9
$PLIMMIN
 10
0.0
 20
0.0
  9
$PLIMMAX
 10
12.0
 20
9.0
  9
$UNITMODE
 70
     0
  9
$VISRETAIN
 70
     0
  9
$PLINEGEN
 70
     1
  9
$PSLTSCALE
 70
     0
  9
$TREEDEPTH
 70
  3020
  9
$PICKSTYLE
 70
     1
  9
$CMLSTYLE
  2
STANDARD
  9
$CMLJUST
 70
     0
  9
$CMLSCALE
 40
1.0
  9
$PROXYGRAPHICS
 70
     1
  9
$MEASUREMENT
 70
     0
  0
ENDSEC
  0
SECTION
  2
CLASSES
  0
CLASS
  1
LWPOLYLINE
  2
AcDbPolyline
  3
AutoCAD 2000
 90
        0
280
     0
281
     1
  0
CLASS
  1
ACDBDICTIONARYWDFLT
  2
AcDbDictionaryWithDefault
  3
AutoCAD 2000
 90
        0
280
     0
281
     0
  0
CLASS
  1
ACDBPLACEHOLDER
  2
AcDbPlaceHolder
  3
AutoCAD 2000
 90
        0
280
     0
281
     0
  0
CLASS
  1
LAYOUT
  2
AcDbLayout
  3
AutoCAD 2000
 90
        0
280
     0
281
     0
  0
CLASS
  1
DICTIONARYVAR
  2
AcDbDictionaryVar
  3
AutoCAD 2000
 90
        0
280
     0
281
     0
  0
CLASS
  1
LONG_TRANSACTION
  2
AcDbLongTransaction
  3
AutoCAD 2000
 90
        0
280
     0
281
     0
  0
CLASS
  1
LWPOLYLINE
  2
AcDbPolyline
  3
AutoCAD 2000
 90
        0
280
     0
281
     1
  0
CLASS
  1
HATCH
  2
AcDbHatch
  3
AutoCAD 2000
 90
        0
280
     0
281
     1
  0
CLASS
  1
XRECORD
  2
AcDbXrecord
  3
AutoCAD 2000
 90
        0
280
     0
281
     0
  0
ENDSEC
  0
SECTION
  2
TABLES
  0
TABLE
  2
VPORT
  5
53E84DE276
330
0
100
AcDbSymbolTable
 70
     2
  0
VPORT
  5
53E84DE2AA
330
53E84DE276
100
AcDbSymbolTableRecord
100
AcDbViewportTableRecord
  2
*ACTIVE
 70
     0
 10
0.0
 20
0.0
 11
1.0
 21
1.0
 12
4.682631548516752
 22
1.040130637400004
 13
0.0
 23
0.0
 14
0.015625
 24
0.015625
 15
0.0
 25
0.0
 16
0.0
 26
0.0
 36
1.0
 17
0.0
 27
0.0
 37
0.0
 40
2.282823834466498
 41
4.320930232558139
 42
50.0
 43
0.0
 44
0.0
 50
0.0
 51
0.0
 71
     0
 72
  2000
 73
     1
 74
     0
 75
     1
 76
     0
 77
     0
 78
     0
  0
ENDTAB
  0
TABLE
  2
LTYPE
  5
53E84DE273
330
0
100
AcDbSymbolTable
 70
     1
  0
LTYPE
  5
53E84DE280
330
53E84DE273
100
AcDbSymbolTableRecord
100
AcDbLinetypeTableRecord
  2
BYBLOCK
 70
     0
  3

 72
    65
 73
     0
 40
0.0
  0
LTYPE
  5
53E84DE281
330
53E84DE273
100
AcDbSymbolTableRecord
100
AcDbLinetypeTableRecord
  2
BYLAYER
 70
     0
  3

 72
    65
 73
     0
 40
0.0
  0
LTYPE
  5
53E84DE282
330
53E84DE273
100
AcDbSymbolTableRecord
100
AcDbLinetypeTableRecord
  2
CONTINUOUS
 70
     0
  3
Solid line
 72
    65
 73
     0
 40
0.0
  0
ENDTAB
  0
TABLE
  2
LAYER
  5
53E84DE270
330
0
100
AcDbSymbolTable
 70
     2
  0
LAYER
  5
53E84DE27D
330
53E84DE270
100
AcDbSymbolTableRecord
100
AcDbLayerTableRecord
  2
0
 70
     0
 62
     7
  6
CONTINUOUS
  0
LAYER
  5
53E84DE28D
330
53E84DE270
100
AcDbSymbolTableRecord
100
AcDbLayerTableRecord
  2
TEXT
 70
     0
 62
     3
  6
CONTINUOUS
  0
ENDTAB
  0
TABLE
  2
STYLE
  5
53E84DE271
330
0
100
AcDbSymbolTable
 70
     3
  0
STYLE
  5
53E84DE27E
330
53E84DE271
100
AcDbSymbolTableRecord
100
AcDbTextStyleTableRecord
  2
STANDARD
 70
     0
 40
0.0
 41
1.0
 50
0.0
 71
     0
 42
0.3125
  3
txt
  4

  0
STYLE
  5
53E84DE28A
330
53E84DE271
100
AcDbSymbolTableRecord
100
AcDbTextStyleTableRecord
  2
ITALICC
 70
     0
 40
0.0
 41
1.0
 50
0.0
 71
     0
 42
0.125
  3
italicc
  4

  0
STYLE
  5
53E84DE29A
330
53E84DE271
100
AcDbSymbolTableRecord
100
AcDbTextStyleTableRecord
  2
ROMANS
 70
     0
 40
0.0
 41
1.0
 50
0.0
 71
     0
 42
0.125
  3
romans.shx
  4

  0
ENDTAB
  0
TABLE
  2
VIEW
  5
53E84DE274
330
0
100
AcDbSymbolTable
 70
     0
  0
ENDTAB
  0
TABLE
  2
UCS
  5
53E84DE275
330
0
100
AcDbSymbolTable
 70
     0
  0
ENDTAB
  0
TABLE
  2
APPID
  5
53E84DE277
330
0
100
AcDbSymbolTable
 70
     1
  0
APPID
  5
53E84DE27F
330
53E84DE277
100
AcDbSymbolTableRecord
100
AcDbRegAppTableRecord
  2
ACAD
 70
     0
  0
ENDTAB
  0
TABLE
  2
DIMSTYLE
  5
53E84DE278
330
0
100
AcDbSymbolTable
 70
     1
  0
DIMSTYLE
105
53E84DE292
330
53E84DE278
100
AcDbSymbolTableRecord
100
AcDbDimStyleTableRecord
  2
STANDARD
 70
     0
  3

  4

  5

  6

  7

 40
1.0
 41
0.125
 42
0.125
 43
0.375
 44
0.125
 45
0.0
 46
0.0
 47
0.0
 48
0.0
140
0.125
141
-0.125
142
0.0
143
25.4
144
1.0
145
0.0
146
1.0
147
0.09
 71
     0
 72
     0
 73
     1
 74
     1
 75
     0
 76
     0
 77
     0
 78
     4
170
     0
171
     2
172
     0
173
     0
174
     1
175
     0
176
     0
177
     0
178
     0
270
     2
271
     3
272
     3
273
     2
274
     2
340
53E84DE29A
275
     0
280
     0
281
     0
282
     0
283
     1
284
     4
285
     0
286
     0
287
     3
288
     0
  0
ENDTAB
  0
TABLE
  2
BLOCK_RECORD
  5
53E84DE26F
330
0
100
AcDbSymbolTable
 70
     0
  0
BLOCK_RECORD
  5
53E84DE286
102
{ACAD_XDICTIONARY
360
53E84DE2CD
102
}
330
53E84DE26F
100
AcDbSymbolTableRecord
100
AcDbBlockTableRecord
  2
*MODEL_SPACE
  0
BLOCK_RECORD
  5
53E84DE283
102
{ACAD_XDICTIONARY
360
53E84DE2CB
102
}
330
53E84DE26F
100
AcDbSymbolTableRecord
100
AcDbBlockTableRecord
  2
*PAPER_SPACE
  0
ENDTAB
  0
ENDSEC
  0
SECTION
  2
BLOCKS
  0
BLOCK
  5
53E84DE290
330
53E84DE286
100
AcDbEntity
  8
0
100
AcDbBlockBegin
  2
*MODEL_SPACE
 70
     0
 10
0.0
 20
0.0
 30
0.0
  3
*MODEL_SPACE
  1

  0
ENDBLK
  5
53E84DE291
330
53E84DE286
100
AcDbEntity
  8
0
100
AcDbBlockEnd
  0
BLOCK
  5
53E84DE28E
330
53E84DE283
100
AcDbEntity
 67
     1
  8
0
100
AcDbBlockBegin
  2
*PAPER_SPACE
 70
     0
 10
0.0
 20
0.0
 30
0.0
  3
*PAPER_SPACE
  1

  0
ENDBLK
  5
53E84DE28F
330
53E84DE283
100
AcDbEntity
 67
     1
  8
0
100
AcDbBlockEnd
  0
ENDSEC
  0
SECTION
  2
ENTITIES
  0
LWPOLYLINE
  5
53E84DCC99
330
53E84DE286
100
AcDbEntity
  8
0
100
AcDbPolyline
 90
       21
 70
     1
 43
0.0
 10
1.486569115718472
 20
1.517511184829428
 10
1.486569115718472
 20
1.328125
 42
0.0241312999962687
 10
1.509398565753626
 20
0.8553747544357474
 42
0.9528745972389337
 10
1.569569115718472
 20
0.858280433654107
 10
1.569569115718472
 20
1.515625
 10
1.842569115718473
 20
1.515625
 10
1.842569115718472
 20
1.338125
 10
1.852569115718472
 20
1.328125
 10
1.842569115718472
 20
1.318124999999999
 10
1.842569115718472
 20
0.8535621354732329
 42
0.9524560398048915
 10
1.893322863235914
 20
0.8510888753400131
 42
0.024350847970876
 10
1.916569115718472
 20
1.328125
 10
1.916569115718472
 20
1.494707173864822
 42
0.083093592247229
 10
1.909758937668387
 20
1.535403193171966
 10
1.760971184681501
 20
1.967514203861428
 42
0.999999999999996
 10
1.713695255901535
 20
1.951235796138571
 10
1.807296100307966
 20
1.679399205653768
 10
1.523640527628171
 20
1.581728759316622
 10
1.430039683221739
 20
1.853565349801425
 42
1.000000000000004
 10
1.382763754441774
 20
1.837286942078568
 10
1.480610209924647
 20
1.55312020172318
 42
-0.0830935922472291
  0
TEXT
  5
53E84DE131
330
53E84DE286
100
AcDbEntity
  8
TEXT
100
AcDbText
 10
0.9530929252422822
 20
0.546875
 30
0.0
 40
0.125
  1
PART #110066
  7
ITALICC
 72
     1
 11
1.706069115718472
 21
0.546875
 31
0.0
100
AcDbText
  0
TEXT
  5
53E84DE132
330
53E84DE286
100
AcDbEntity
  8
TEXT
100
AcDbText
 10
2.119374273968793
 20
0.0999523573276249
 30
0.0
 40
0.0522247191011236
  1
Phone  1-800-328-2495
 41
1.272321428571429
 72
     5
 11
3.448306858238457
 21
0.0999523573276249
 31
0.0
100
AcDbText
  0
TEXT
  5
53E84DE133
330
53E84DE286
100
AcDbEntity
  8
TEXT
100
AcDbText
 10
2.119374273968793
 20
0.3797276382265013
 30
0.0
 40
0.0522247191011236
  1
Stylmark  Incorporated
 41
1.221428571428573
 72
     5
 11
3.448306858238457
 21
0.3797276382265013
 31
0.0
100
AcDbText
  0
TEXT
  5
53E84DE134
330
53E84DE286
100
AcDbEntity
  8
TEXT
100
AcDbText
 10
2.119374273968793
 20
0.2864692112602092
 30
0.0
 40
0.0522247191011236
  1
6536 Main St. N.E. * P.O. Box 32008
 41
0.8388932496075366
 72
     5
 11
3.448306858238457
 21
0.2864692112602092
 31
0.0
100
AcDbText
  0
TEXT
  5
53E84DE135
330
53E84DE286
100
AcDbEntity
  8
TEXT
100
AcDbText
 10
2.119374273968793
 20
0.193210784293917
 30
0.0
 40
0.0522247191011236
  1
Minneapolis, MN 55432-0008
 41
1.11444212721585
 72
     5
 11
3.448306858238457
 21
0.193210784293917
 31
0.0
100
AcDbText
  0
LWPOLYLINE
  5
53E84DE136
330
53E84DE286
100
AcDbEntity
  8
TEXT
100
AcDbPolyline
 90
        3
 70
     0
 43
0.0006660908203125
 10
-0.0365794180985142
 20
0.2135971199650597
 10
-0.0365794180985142
 20
0.1003616805119321
 10
0.0766560213546082
 20
0.1003616805119321
  0
LWPOLYLINE
  5
53E84DE13B
330
53E84DE286
100
AcDbEntity
  8
TEXT
100
AcDbPolyline
 90
        3
 70
     0
 43
0.0006660908203125
 10
-0.0099357852860167
 20
0.2135971199650597
 10
-0.0099357852860167
 20
0.1270053133244331
 10
0.0766560213546082
 20
0.1270053133244331
  0
LWPOLYLINE
  5
53E84DE140
330
53E84DE286
100
AcDbEntity
  8
TEXT
100
AcDbPolyline
 90
        2
 70
     0
 43
0.0001332181640625
 10
0.0366905721358601
 20
0.2235884822697449
 10
-0.0365794180985142
 20
0.2135971199650597
  0
LWPOLYLINE
  5
53E84DE144
330
53E84DE286
100
AcDbEntity
  8
TEXT
100
AcDbPolyline
 90
        2
 70
     0
 43
0.0001332181640625
 10
-0.0099357852860167
 20
0.2135971199650597
 10
0.0500123885421107
 20
0.2235884822697449
  0
LWPOLYLINE
  5
53E84DE148
330
53E84DE286
100
AcDbEntity
  8
TEXT
100
AcDbPolyline
 90
        2
 70
     0
 43
0.0001332181640625
 10
-0.0099357852860167
 20
0.1270053133244331
 10
0.0500123885421107
 20
0.1869534871525587
  0
LWPOLYLINE
  5
53E84DE14C
330
53E84DE286
100
AcDbEntity
  8
TEXT
100
AcDbPolyline
 90
        3
 70
     0
 43
0.0006660908203125
 10
0.0766560213546082
 20
0.3667980086369353
 10
-0.0365794180985142
 20
0.3667980086369353
 10
-0.0365794180985142
 20
0.2535625691838077
  0
LWPOLYLINE
  5
53E84DE151
330
53E84DE286
100
AcDbEntity
  8
TEXT
100
AcDbPolyline
 90
        3
 70
     0
 43
0.0006660908203125
 10
0.0766560213546082
 20
0.3401543758244343
 10
-0.0099357852860167
 20
0.3401543758244343
 10
-0.0099357852860167
 20
0.2535625691838077
  0
LWPOLYLINE
  5
53E84DE156
330
53E84DE286
100
AcDbEntity
  8
TEXT
100
AcDbPolyline
 90
        2
 70
     0
 43
0.0001332181640625
 10
-0.0099357852860167
 20
0.3401543758244343
 10
0.0500123885421089
 20
0.2802062019963087
  0
LWPOLYLINE
  5
53E84DE15A
330
53E84DE286
100
AcDbEntity
  8
TEXT
100
AcDbPolyline
 90
        2
 70
     0
 43
0.0001332181640625
 10
-0.0099357852860167
 20
0.2535625691838077
 10
0.0500123885421089
 20
0.2435712068791189
  0
LWPOLYLINE
  5
53E84DE15E
330
53E84DE286
100
AcDbEntity
  8
TEXT
100
AcDbPolyline
 90
        2
 70
     0
 43
0.0001332181640625
 10
-0.0365794180985142
 20
0.2535625691838077
 10
0.0366905721358601
 20
0.2435712068791189
  0
LWPOLYLINE
  5
53E84DE162
330
53E84DE286
100
AcDbEntity
  8
TEXT
100
AcDbPolyline
 90
        2
 70
     0
 43
0.0006660908203125
 10
-0.0099357852860167
 20
0.2135971199650597
 10
-0.0365794180985142
 20
0.2135971199650597
  0
LWPOLYLINE
  5
53E84DE166
330
53E84DE286
100
AcDbEntity
  8
TEXT
100
AcDbPolyline
 90
        2
 70
     0
 43
0.0006660908203125
 10
-0.0099357852860167
 20
0.2535625691838077
 10
-0.0365794180985142
 20
0.2535625691838077
  0
LINE
  5
53E84DE16A
330
53E84DE286
100
AcDbEntity
  8
TEXT
100
AcDbLine
 10
1.478611011027983
 20
0.3025213139801663
 30
0.0
 11
1.371404737640693
 21
0.3025213139801663
 31
0.0
  0
LINE
  5
53E84DE16B
330
53E84DE286
100
AcDbEntity
  8
TEXT
100
AcDbLine
 10
1.507641909372461
 20
0.3667980086369318
 30
0.0
 11
1.372810000155402
 21
0.3667980086369318
 31
0.0
  0
ARC
  5
53E84DE16C
330
53E84DE286
100
AcDbEntity
  8
TEXT
100
AcDbCircle
 10
1.432124096548719
 20
0.1975607593739155
 30
0.0
 40
0.0676855811441166
100
AcDbArc
 50
90.0
 51
153.7768192527749
  0
LWPOLYLINE
  5
53E84DE16D
330
53E84DE286
100
AcDbEntity
  8
TEXT
100
AcDbPolyline
 90
        2
 70
     0
 43
0.0
 10
1.370372242185883
 20
0.1438159205988589
 42
0.2901071551932823
 10
1.413448175053519
 20
0.1003249756484208
 42
5.328517124445801
  0
ARC
  5
53E84DE171
330
53E84DE286
100
AcDbEntity
  8
TEXT
100
AcDbCircle
 10
0.7269927188772339
 20
0.1601173669864706
 30
0.0
 40
0.0601160179737537
100
AcDbArc
 50
180.0000000000003
 51
264.0521544866073
  0
LINE
  5
53E84DE172
330
53E84DE286
100
AcDbEntity
  8
TEXT
100
AcDbLine
 10
0.7305080745027817
 20
0.40118592623107
 30
0.0
 11
0.6704654696587747
 21
0.40118592623107
 31
0.0
  0
ARC
  5
53E84DE173
330
53E84DE286
100
AcDbEntity
  8
TEXT
100
AcDbCircle
 10
0.4947337167602633
 20
0.28471054919043
 30
0.0
 40
0.0820874594465043
100
AcDbArc
 50
90.0
 51
270.0
  0
LWPOLYLINE
  5
53E84DE174
330
53E84DE286
100
AcDbEntity
  8
TEXT
100
AcDbPolyline
 90
        2
 70
     0
 43
0.0001332181640625
 10
0.0866473836592987
 20
0.2935280184025557
 10
0.0766560213546082
 20
0.3667980086369353
  0
LWPOLYLINE
  5
53E84DE178
330
53E84DE286
100
AcDbEntity
  8
TEXT
100
AcDbPolyline
 90
        2
 70
     0
 43
0.0001332181640625
 10
0.0766560213546082
 20
0.3401543758244343
 10
0.0866473836592987
 20
0.2802062019963087
  0
LWPOLYLINE
  5
53E84DE17C
330
53E84DE286
100
AcDbEntity
  8
TEXT
100
AcDbPolyline
 90
        3
 70
     0
 43
0.0006660908203125
 10
0.2298569100264856
 20
0.2535625691838077
 10
0.2298569100264856
 20
0.3667980086369353
 10
0.1166214705733597
 20
0.3667980086369353
  0
LWPOLYLINE
  5
53E84DE181
330
53E84DE286
100
AcDbEntity
  8
TEXT
100
AcDbPolyline
 90
        3
 70
     0
 43
0.0006660908203125
 10
0.2032132772139845
 20
0.2535625691838077
 10
0.2032132772139845
 20
0.3401543758244343
 10
0.1166214705733597
 20
0.3401543758244343
  0
LWPOLYLINE
  5
53E84DE186
330
53E84DE286
100
AcDbEntity
  8
TEXT
100
AcDbPolyline
 90
        2
 70
     0
 43
0.0001332181640625
 10
0.2032132772139845
 20
0.3401543758244343
 10
0.1432651033858607
 20
0.2802062019963087
  0
LWPOLYLINE
  5
53E84DE18A
330
53E84DE286
100
AcDbEntity
  8
TEXT
100
AcDbPolyline
 90
        2
 70
     0
 43
0.0001332181640625
 10
0.1166214705733597
 20
0.3401543758244343
 10
0.1066301082686709
 20
0.2802062019963087
  0
LWPOLYLINE
  5
53E84DE18E
330
53E84DE286
100
AcDbEntity
  8
TEXT
100
AcDbPolyline
 90
        2
 70
     0
 43
0.0001332181640625
 10
0.1166214705733597
 20
0.3667980086369353
 10
0.1066301082686709
 20
0.2935280184025557
  0
LWPOLYLINE
  5
53E84DE192
330
53E84DE286
100
AcDbEntity
  8
TEXT
100
AcDbPolyline
 90
        2
 70
     0
 43
0.0001332181640625
 10
0.1565869197921095
 20
0.2435712068791189
 10
0.2298569100264856
 20
0.2535625691838077
  0
LWPOLYLINE
  5
53E84DE196
330
53E84DE286
100
AcDbEntity
  8
TEXT
100
AcDbPolyline
 90
        2
 70
     0
 43
0.0001332181640625
 10
0.2032132772139845
 20
0.2535625691838077
 10
0.1432651033858607
 20
0.2435712068791189
  0
LWPOLYLINE
  5
53E84DE19A
330
53E84DE286
100
AcDbEntity
  8
TEXT
100
AcDbPolyline
 90
        2
 70
     0
 43
0.0001332181640625
 10
0.2298569100264856
 20
0.2135971199650597
 10
0.1565869197921095
 20
0.2235884822697449
  0
LWPOLYLINE
  5
53E84DE19E
330
53E84DE286
100
AcDbEntity
  8
TEXT
100
AcDbPolyline
 90
        2
 70
     0
 43
0.0001332181640625
 10
0.2032132772139845
 20
0.2135971199650597
 10
0.1432651033858607
 20
0.2235884822697449
  0
LWPOLYLINE
  5
53E84DE1A2
330
53E84DE286
100
AcDbEntity
  8
TEXT
100
AcDbPolyline
 90
        2
 70
     0
 43
0.0001332181640625
 10
0.2032132772139845
 20
0.1270053133244331
 10
0.1432651033858607
 20
0.1869534871525587
  0
LWPOLYLINE
  5
53E84DE1A6
330
53E84DE286
100
AcDbEntity
  8
TEXT
100
AcDbPolyline
 90
        3
 70
     0
 43
0.0006660908203125
 10
0.1166214705733597
 20
0.1270053133244331
 10
0.2032132772139845
 20
0.1270053133244331
 10
0.2032132772139845
 20
0.2135971199650597
  0
LWPOLYLINE
  5
53E84DE1AB
330
53E84DE286
100
AcDbEntity
  8
TEXT
100
AcDbPolyline
 90
        3
 70
     0
 43
0.0006660908203125
 10
0.1166214705733597
 20
0.1003616805119321
 10
0.2298569100264856
 20
0.1003616805119321
 10
0.2298569100264856
 20
0.2135971199650597
  0
LWPOLYLINE
  5
53E84DE1B0
330
53E84DE286
100
AcDbEntity
  8
TEXT
100
AcDbPolyline
 90
        5
 70
     0
 43
0.0001332181640625
 10
0.0866473836592987
 20
0.1736316707463081
 10
0.0866473836592987
 20
0.1869534871525587
 10
0.0500123885421107
 20
0.1869534871525587
 10
0.0500123885421107
 20
0.2235884822697449
 10
0.0366905721358601
 20
0.2235884822697449
  0
LWPOLYLINE
  5
53E84DE1B7
330
53E84DE286
100
AcDbEntity
  8
TEXT
100
AcDbPolyline
 90
        2
 70
     0
 43
0.0006660908203125
 10
0.0766560213546082
 20
0.1270053133244331
 10
0.0766560213546082
 20
0.1003616805119321
  0
LWPOLYLINE
  5
53E84DE1BB
330
53E84DE286
100
AcDbEntity
  8
TEXT
100
AcDbPolyline
 90
        2
 70
     0
 43
0.0001332181640625
 10
0.0766560213546082
 20
0.1270053133244331
 10
0.0866473836592987
 20
0.1869534871525587
  0
LWPOLYLINE
  5
53E84DE1BF
330
53E84DE286
100
AcDbEntity
  8
TEXT
100
AcDbPolyline
 90
        2
 70
     0
 43
0.0001332181640625
 10
0.0766560213546082
 20
0.1003616805119321
 10
0.0866473836592987
 20
0.1736316707463081
  0
LWPOLYLINE
  5
53E84DE1C3
330
53E84DE286
100
AcDbEntity
  8
TEXT
100
AcDbPolyline
 90
        5
 70
     0
 43
0.0001332181640625
 10
0.0366905721358601
 20
0.2435712068791189
 10
0.0500123885421089
 20
0.2435712068791189
 10
0.0500123885421089
 20
0.2802062019963087
 10
0.0866473836592987
 20
0.2802062019963087
 10
0.0866473836592987
 20
0.2935280184025557
  0
LWPOLYLINE
  5
53E84DE1CA
330
53E84DE286
100
AcDbEntity
  8
TEXT
100
AcDbPolyline
 90
        5
 70
     0
 43
0.0001332181640625
 10
0.1066301082686709
 20
0.2935280184025557
 10
0.1066301082686709
 20
0.2802062019963087
 10
0.1432651033858607
 20
0.2802062019963087
 10
0.1432651033858607
 20
0.2435712068791189
 10
0.1565869197921095
 20
0.2435712068791189
  0
LWPOLYLINE
  5
53E84DE1D1
330
53E84DE286
100
AcDbEntity
  8
TEXT
100
AcDbPolyline
 90
        2
 70
     0
 43
0.0001332181640625
 10
0.1166214705733597
 20
0.1270053133244331
 10
0.1066301082686709
 20
0.1869534871525587
  0
LWPOLYLINE
  5
53E84DE1D5
330
53E84DE286
100
AcDbEntity
  8
TEXT
100
AcDbPolyline
 90
        2
 70
     0
 43
0.0001332181640625
 10
0.1066301082686709
 20
0.1736316707463081
 10
0.1166214705733597
 20
0.1003616805119321
  0
LWPOLYLINE
  5
53E84DE1D9
330
53E84DE286
100
AcDbEntity
  8
TEXT
100
AcDbPolyline
 90
        2
 70
     0
 43
0.0006660908203125
 10
0.1166214705733597
 20
0.1270053133244331
 10
0.1166214705733597
 20
0.1003616805119321
  0
LWPOLYLINE
  5
53E84DE1DD
330
53E84DE286
100
AcDbEntity
  8
TEXT
100
AcDbPolyline
 90
        5
 70
     0
 43
0.0001332181640625
 10
0.1565869197921095
 20
0.2235884822697449
 10
0.1432651033858607
 20
0.2235884822697449
 10
0.1432651033858607
 20
0.1869534871525587
 10
0.1066301082686709
 20
0.1869534871525587
 10
0.1066301082686709
 20
0.1736316707463081
  0
LWPOLYLINE
  5
53E84DE1E4
330
53E84DE286
100
AcDbEntity
  8
TEXT
100
AcDbPolyline
 90
        2
 70
     0
 43
0.0006660908203125
 10
0.2032132772139845
 20
0.2535625691838077
 10
0.2298569100264856
 20
0.2535625691838077
  0
LWPOLYLINE
  5
53E84DE1E8
330
53E84DE286
100
AcDbEntity
  8
TEXT
100
AcDbPolyline
 90
        2
 70
     0
 43
0.0006660908203125
 10
0.2032132772139845
 20
0.2135971199650597
 10
0.2298569100264856
 20
0.2135971199650597
  0
LINE
  5
53E84DE1EC
330
53E84DE286
100
AcDbEntity
  8
TEXT
100
AcDbLine
 10
0.4999710468745105
 20
0.3025213139801663
 30
0.0
 11
0.6668767009034818
 21
0.3025213139801663
 31
0.0
  0
LINE
  5
53E84DE1ED
330
53E84DE286
100
AcDbEntity
  8
TEXT
100
AcDbLine
 10
0.5655711831188115
 20
0.2667165923695385
 30
0.0
 11
0.4999710468745105
 21
0.2667165923695385
 31
0.0
  0
LINE
  5
53E84DE1EE
330
53E84DE286
100
AcDbEntity
  8
TEXT
100
AcDbLine
 10
0.4126462573137589
 20
0.1003249756484208
 30
0.0
 11
0.5655711831188115
 21
0.1003249756484208
 31
0.0
  0
LINE
  5
53E84DE1EF
330
53E84DE286
100
AcDbEntity
  8
TEXT
100
AcDbLine
 10
0.5705115570250912
 20
0.1686819819818601
 30
0.0
 11
0.4126462573137571
 21
0.1686819819818601
 31
0.0
  0
LINE
  5
53E84DE1F0
330
53E84DE286
100
AcDbEntity
  8
TEXT
100
AcDbLine
 10
0.4947337167602624
 20
0.2026230897439247
 30
0.0
 11
0.5705115570250912
 21
0.2026230897439247
 31
0.0
  0
ARC
  5
53E84DE1F1
330
53E84DE286
100
AcDbEntity
  8
TEXT
100
AcDbCircle
 10
0.4999710468745114
 20
0.2846189531748542
 30
0.0
 40
0.017902360805315
100
AcDbArc
 50
90.0
 51
270.0
  0
LINE
  5
53E84DE1F2
330
53E84DE286
100
AcDbEntity
  8
TEXT
100
AcDbLine
 10
0.4126462573137571
 20
0.1686819819818601
 30
0.0
 11
0.4126462573137589
 21
0.1003249756484208
 31
0.0
  0
LINE
  5
53E84DE1F3
330
53E84DE286
100
AcDbEntity
  8
TEXT
100
AcDbLine
 10
0.6668767009034818
 20
0.3025213139801663
 30
0.0
 11
0.6668767009034818
 21
0.1601173669864706
 31
0.0
  0
ARC
  5
53E84DE1F4
330
53E84DE286
100
AcDbEntity
  8
TEXT
100
AcDbCircle
 10
0.5655711831188124
 20
0.1835207840089779
 30
0.0
 40
0.0831958083605586
100
AcDbArc
 50
270.0
 51
90.0
  0
ARC
  5
53E84DE1F5
330
53E84DE286
100
AcDbEntity
  8
TEXT
100
AcDbCircle
 10
0.5705115570250921
 20
0.1856525358628942
 30
0.0
 40
0.0169705538810321
100
AcDbArc
 50
270.0
 51
90.0
  0
LWPOLYLINE
  5
53E84DE1F6
330
53E84DE286
100
AcDbEntity
  8
TEXT
100
AcDbPolyline
 90
        2
 70
     0
 43
0.0006660908203125
 10
0.0766560213546082
 20
0.3401543758244343
 10
0.0766560213546082
 20
0.3667980086369353
  0
LWPOLYLINE
  5
53E84DE1FA
330
53E84DE286
100
AcDbEntity
  8
TEXT
100
AcDbPolyline
 90
        2
 70
     0
 43
0.0006660908203125
 10
0.1166214705733597
 20
0.3401543758244343
 10
0.1166214705733597
 20
0.3667980086369353
  0
LINE
  5
53E84DE1FE
330
53E84DE286
100
AcDbEntity
  8
TEXT
100
AcDbLine
 10
0.6704654696587747
 20
0.3667980086369318
 30
0.0
 11
0.4947337167602624
 21
0.3667980086369318
 31
0.0
  0
LINE
  5
53E84DE1FF
330
53E84DE286
100
AcDbEntity
  8
TEXT
100
AcDbLine
 10
0.6704654696587747
 20
0.40118592623107
 30
0.0
 11
0.6704654696587747
 21
0.3667980086369318
 31
0.0
  0
LINE
  5
53E84DE200
330
53E84DE286
100
AcDbEntity
  8
TEXT
100
AcDbLine
 10
0.8609373616786268
 20
0.2659260125238112
 30
0.0
 11
0.8023070406466889
 21
0.3667980086369318
 31
0.0
  0
LINE
  5
53E84DE201
330
53E84DE286
100
AcDbEntity
  8
TEXT
100
AcDbLine
 10
0.9196859244844922
 20
0.3667980086369318
 30
0.0
 11
0.8609373616786268
 21
0.2659260125238112
 31
0.0
  0
LINE
  5
53E84DE202
330
53E84DE286
100
AcDbEntity
  8
TEXT
100
AcDbLine
 10
1.016616549844233
 20
0.18271281375142
 30
0.0
 11
1.016616549844233
 21
0.4348094863757424
 31
0.0
  0
LINE
  5
53E84DE203
330
53E84DE286
100
AcDbEntity
  8
TEXT
100
AcDbLine
 10
1.048928403981893
 20
0.3667980086369318
 30
0.0
 11
1.048928403981893
 21
0.1659338019045236
 31
0.0
  0
LINE
  5
53E84DE204
330
53E84DE286
100
AcDbEntity
  8
TEXT
100
AcDbLine
 10
1.048928403981893
 20
0.1659338019045236
 30
0.0
 11
1.031934767097292
 21
0.1659338019045236
 31
0.0
  0
LINE
  5
53E84DE205
330
53E84DE286
100
AcDbEntity
  8
TEXT
100
AcDbLine
 10
1.017756123340428
 20
0.1003249756484208
 30
0.0
 11
1.115759457039863
 21
0.1003249756484208
 31
0.0
  0
LINE
  5
53E84DE206
330
53E84DE286
100
AcDbEntity
  8
TEXT
100
AcDbLine
 10
0.8513371246816724
 20
0.1202834817534337
 30
0.0
 11
0.948636830775117
 21
0.2846336926887019
 31
0.0
  0
ARC
  5
53E84DE207
330
53E84DE286
100
AcDbEntity
  8
TEXT
100
AcDbCircle
 10
0.8172935647694586
 20
0.1398726979221165
 30
0.0
 40
0.0392772371940762
100
AcDbArc
 50
270.1604552698595
 51
330.0831797321295
  0
LINE
  5
53E84DE208
330
53E84DE286
100
AcDbEntity
  8
TEXT
100
AcDbLine
 10
0.7207633083835874
 20
0.1003249756484208
 30
0.0
 11
0.8174035594585816
 21
0.1005956147467031
 31
0.0
  0
LWPOLYLINE
  5
53E84DE209
330
53E84DE286
100
AcDbEntity
  8
TEXT
100
AcDbPolyline
 90
        6
 70
     1
 43
0.0
 10
0.763287111958737
 20
0.3025213139801663
 10
0.7329705177385289
 20
0.3025213139801663
 10
0.7329705177385289
 20
0.179410315925272
 42
0.407328721240804
 10
0.7445141689000053
 20
0.1675914012488859
 10
0.8051358679447361
 20
0.1675914012488859
 10
0.822601208352054
 20
0.2004036302923651
  0
LINE
  5
53E84DE211
330
53E84DE286
100
AcDbEntity
  8
TEXT
100
AcDbLine
 10
0.948636830775117
 20
0.2846336926887019
 30
0.0
 11
0.948636830775117
 21
0.1518763178633455
 31
0.0
  0
ARC
  5
53E84DE212
330
53E84DE286
100
AcDbEntity
  8
TEXT
100
AcDbCircle
 10
1.03193476709729
 20
0.181315608147949
 30
0.0
 40
0.0153818062434269
100
AcDbArc
 50
174.7883570302258
 51
270.0
  0
LWPOLYLINE
  5
53E84DE213
330
53E84DE286
100
AcDbEntity
  8
TEXT
100
AcDbPolyline
 90
        2
 70
     0
 43
0.0
 10
0.9486368307751153
 20
0.1518763178633491
 42
0.3318488747599744
 10
1.017756123340428
 20
0.1003249756484208
 42
-6.868794160588311
  0
LINE
  5
53E84DE217
330
53E84DE286
100
AcDbEntity
  8
TEXT
100
AcDbLine
 10
1.173148526029124
 20
0.1003249756484208
 30
0.0
 11
1.240206572810964
 21
0.1003249756484208
 31
0.0
  0
LINE
  5
53E84DE218
330
53E84DE286
100
AcDbEntity
  8
TEXT
100
AcDbLine
 10
1.173148526029124
 20
0.2949675248140564
 30
0.0
 11
1.173148526029124
 21
0.1003249756484208
 31
0.0
  0
LINE
  5
53E84DE219
330
53E84DE286
100
AcDbEntity
  8
TEXT
100
AcDbLine
 10
1.115759457039863
 20
0.3025213139801663
 30
0.0
 11
1.16559473686301
 21
0.3025213139801663
 31
0.0
  0
LINE
  5
53E84DE21A
330
53E84DE286
100
AcDbEntity
  8
TEXT
100
AcDbLine
 10
1.115759457039863
 20
0.1003249756484208
 30
0.0
 11
1.115759457039863
 21
0.3025213139801663
 31
0.0
  0
LWPOLYLINE
  5
53E84DE21B
330
53E84DE286
100
AcDbEntity
  8
TEXT
100
AcDbPolyline
 90
        2
 70
     0
 43
0.0
 10
1.165594736863008
 20
0.3025213139801663
 42
-0.4142135623731017
 10
1.173148526029122
 20
0.2949675248140564
 42
-0.9999999999999998
  0
LINE
  5
53E84DE21F
330
53E84DE286
100
AcDbEntity
  8
TEXT
100
AcDbLine
 10
1.371404737640693
 20
0.3025213139801663
 30
0.0
 11
1.371404737640693
 21
0.2274689079059597
 31
0.0
  0
LINE
  5
53E84DE220
330
53E84DE286
100
AcDbEntity
  8
TEXT
100
AcDbLine
 10
1.240206572810964
 20
0.3025213139801663
 30
0.0
 11
1.294340169731914
 21
0.3025213139801663
 31
0.0
  0
LINE
  5
53E84DE221
330
53E84DE286
100
AcDbEntity
  8
TEXT
100
AcDbLine
 10
1.240206572810964
 20
0.1003249756484208
 30
0.0
 11
1.240206572810964
 21
0.3025213139801663
 31
0.0
  0
LWPOLYLINE
  5
53E84DE222
330
53E84DE286
100
AcDbEntity
  8
TEXT
100
AcDbPolyline
 90
        2
 70
     0
 43
0.0
 10
1.294340169731912
 20
0.3025213139801663
 42
-0.4142135623731017
 10
1.301893958898026
 20
0.2949675248140564
 42
-0.9999999999999998
  0
LWPOLYLINE
  5
53E84DE226
330
53E84DE286
100
AcDbEntity
  8
TEXT
100
AcDbPolyline
 90
        4
 70
     0
 43
0.0
 10
1.301893958898026
 20
0.2949675248140564
 10
1.301893958898026
 20
0.1003249756484208
 10
1.370372242185883
 20
0.1003249756484208
 10
1.370372242185883
 20
0.1438159205988589
 42
-1.714843617202739
  0
LINE
  5
53E84DE22C
330
53E84DE286
100
AcDbEntity
  8
TEXT
100
AcDbLine
 10
0.7305080745027817
 20
0.3667980086369318
 30
0.0
 11
0.7305080745027817
 21
0.40118592623107
 31
0.0
  0
LINE
  5
53E84DE22D
330
53E84DE286
100
AcDbEntity
  8
TEXT
100
AcDbLine
 10
0.8023070406466889
 20
0.3667980086369318
 30
0.0
 11
0.7305080745027817
 21
0.3667980086369318
 31
0.0
  0
LINE
  5
53E84DE22E
330
53E84DE286
100
AcDbEntity
  8
TEXT
100
AcDbLine
 10
0.9498078372778685
 20
0.3667980086369318
 30
0.0
 11
0.9196859244844922
 21
0.3667980086369318
 31
0.0
  0
LINE
  5
53E84DE22F
330
53E84DE286
100
AcDbEntity
  8
TEXT
100
AcDbLine
 10
0.9498078372778685
 20
0.4348094863757424
 30
0.0
 11
0.9498078372778685
 21
0.3667980086369318
 31
0.0
  0
LINE
  5
53E84DE230
330
53E84DE286
100
AcDbEntity
  8
TEXT
100
AcDbLine
 10
1.016616549844233
 20
0.4348094863757424
 30
0.0
 11
0.9498078372778685
 21
0.4348094863757424
 31
0.0
  0
LWPOLYLINE
  5
53E84DE231
330
53E84DE286
100
AcDbEntity
  8
TEXT
100
AcDbPolyline
 90
        3
 70
     0
 43
0.0
 10
1.337028309442235
 20
0.3667980086369353
 10
1.218728150626191
 20
0.3667980086369353
 10
1.218728150626191
 20
0.3396305118760394
 42
-1.960274751411753
  0
LINE
  5
53E84DE236
330
53E84DE286
100
AcDbEntity
  8
TEXT
100
AcDbLine
 10
1.18294645991303
 20
0.3667980086369318
 30
0.0
 11
1.048928403981893
 21
0.3667980086369318
 31
0.0
  0
LWPOLYLINE
  5
53E84DE237
330
53E84DE286
100
AcDbEntity
  8
TEXT
100
AcDbPolyline
 90
        2
 70
     0
 43
0.0
 10
1.18294645991303
 20
0.3667980086369353
 42
-0.3328679258950098
 10
1.218728150626191
 20
0.3396305118760394
 42
6.772930709997214
  0
LINE
  5
53E84DE23B
330
53E84DE286
100
AcDbEntity
  8
TEXT
100
AcDbLine
 10
1.372810000155402
 20
0.3667980086369318
 30
0.0
 11
1.372810000155402
 21
0.3384754628672879
 31
0.0
  0
LWPOLYLINE
  5
53E84DE23C
330
53E84DE286
100
AcDbEntity
  8
TEXT
100
AcDbPolyline
 90
        2
 70
     0
 43
0.0
 10
1.337028309442235
 20
0.3667980086369353
 42
-0.3277054968067132
 10
1.3728100001554
 20
0.3384754628672915
 42
6.667889725900311
  0
LINE
  5
53E84DE240
330
53E84DE286
100
AcDbEntity
  8
TEXT
100
AcDbLine
 10
1.586601848247502
 20
0.2615860300835044
 30
0.0
 11
1.542851077065601
 21
0.3438363060796497
 31
0.0
  0
LINE
  5
53E84DE241
330
53E84DE286
100
AcDbEntity
  8
TEXT
100
AcDbLine
 10
1.586601848247502
 20
0.3667980086369318
 30
0.0
 11
1.586601848247502
 21
0.2615860300835044
 31
0.0
  0
LINE
  5
53E84DE242
330
53E84DE286
100
AcDbEntity
  8
TEXT
100
AcDbLine
 10
1.814285587185871
 20
0.2909326822253937
 30
0.0
 11
1.814285587185871
 21
0.4322622144045325
 31
0.0
  0
LINE
  5
53E84DE243
330
53E84DE286
100
AcDbEntity
  8
TEXT
100
AcDbLine
 10
1.861383745741856
 20
0.3667980086369318
 30
0.0
 11
1.814285587185871
 21
0.2909326822253937
 31
0.0
  0
LINE
  5
53E84DE244
330
53E84DE286
100
AcDbEntity
  8
TEXT
100
AcDbLine
 10
1.871818462505779
 20
0.2569047656959582
 30
0.0
 11
1.936375578471484
 21
0.3667980086369318
 31
0.0
  0
LINE
  5
53E84DE245
330
53E84DE286
100
AcDbEntity
  8
TEXT
100
AcDbLine
 10
1.750450595963098
 20
0.1003249756484208
 30
0.0
 11
1.814828780281719
 21
0.1003249756484208
 31
0.0
  0
LWPOLYLINE
  5
53E84DE246
330
53E84DE286
100
AcDbEntity
  8
TEXT
100
AcDbPolyline
 90
        2
 70
     0
 43
0.0
 10
1.59054152555254
 20
0.1438159205988589
 42
-0.2901071551932486
 10
1.547465592684896
 20
0.1003249756484208
 42
-5.328517124445184
  0
ARC
  5
53E84DE24A
330
53E84DE286
100
AcDbEntity
  8
TEXT
100
AcDbCircle
 10
1.478611011027981
 20
0.274161938980169
 30
0.0
 40
0.028359375
100
AcDbArc
 50
25.78218179591245
 51
90.0
  0
LINE
  5
53E84DE24B
330
53E84DE286
100
AcDbEntity
  8
TEXT
100
AcDbLine
 10
1.514412086332104
 20
0.2652463405180341
 30
0.0
 11
1.50414732591854
 21
0.2864968800907284
 31
0.0
  0
LINE
  5
53E84DE24C
330
53E84DE286
100
AcDbEntity
  8
TEXT
100
AcDbLine
 10
1.432124096548721
 20
0.2652463405180341
 30
0.0
 11
1.514412086332104
 21
0.2652463405180341
 31
0.0
  0
LWPOLYLINE
  5
53E84DE24D
330
53E84DE286
100
AcDbEntity
  8
TEXT
100
AcDbPolyline
 90
        4
 70
     1
 43
0.0
 10
1.527343127615003
 20
0.203288953632446
 10
1.438682808955145
 20
0.203288953632446
 42
0.9999999999999998
 10
1.438682808955145
 20
0.1608904131285853
 10
1.527343127615003
 20
0.1608904131285853
 42
1.0
  0
LWPOLYLINE
  5
53E84DE253
330
53E84DE286
100
AcDbEntity
  8
TEXT
100
AcDbPolyline
 90
        2
 70
     0
 43
0.0
 10
1.413448175053519
 20
0.1003249756484208
 10
1.547465592684896
 20
0.1003249756484208
 42
0.9999999999999998
  0
LINE
  5
53E84DE257
330
53E84DE286
100
AcDbEntity
  8
TEXT
100
AcDbLine
 10
1.673802614670535
 20
0.3025213139801663
 30
0.0
 11
1.750450595963093
 21
0.3025213139801663
 31
0.0
  0
LINE
  5
53E84DE258
330
53E84DE286
100
AcDbEntity
  8
TEXT
100
AcDbLine
 10
1.750450595963093
 20
0.3025213139801663
 30
0.0
 11
1.750450595963098
 21
0.1003249756484208
 31
0.0
  0
ARC
  5
53E84DE259
330
53E84DE286
100
AcDbEntity
  8
TEXT
100
AcDbCircle
 10
1.673802614670533
 20
0.2776154386975036
 30
0.0
 40
0.0249058752826653
100
AcDbArc
 50
89.99971217465335
 51
179.9999999999985
  0
LINE
  5
53E84DE25A
330
53E84DE286
100
AcDbEntity
  8
TEXT
100
AcDbLine
 10
1.648896739387876
 20
0.1003249756484208
 30
0.0
 11
1.648896739387871
 21
0.2776154810798892
 31
0.0
  0
LWPOLYLINE
  5
53E84DE25B
330
53E84DE286
100
AcDbEntity
  8
TEXT
100
AcDbPolyline
 90
        2
 70
     0
 43
0.0
 10
1.59054152555254
 20
0.1003249756484208
 10
1.648896739387874
 20
0.1003249756484208
  0
LWPOLYLINE
  5
53E84DE25F
330
53E84DE286
100
AcDbEntity
  8
TEXT
100
AcDbPolyline
 90
        2
 70
     0
 43
0.0
 10
1.59054152555254
 20
0.1438159205988589
 10
1.59054152555254
 20
0.1003249756484208
  0
LINE
  5
53E84DE263
330
53E84DE286
100
AcDbEntity
  8
TEXT
100
AcDbLine
 10
1.967310685869389
 20
0.1003249756484208
 30
0.0
 11
1.871818462505779
 21
0.2569047656959582
 31
0.0
  0
LINE
  5
53E84DE264
330
53E84DE286
100
AcDbEntity
  8
TEXT
100
AcDbLine
 10
1.890732313493183
 20
0.1003249756484208
 30
0.0
 11
1.967310685869389
 21
0.1003249756484208
 31
0.0
  0
LINE
  5
53E84DE265
330
53E84DE286
100
AcDbEntity
  8
TEXT
100
AcDbLine
 10
1.814828780281719
 20
0.231904544124601
 30
0.0
 11
1.890732313493183
 21
0.1003249756484208
 31
0.0
  0
LINE
  5
53E84DE266
330
53E84DE286
100
AcDbEntity
  8
TEXT
100
AcDbLine
 10
1.814828780281719
 20
0.1003249756484208
 30
0.0
 11
1.814828780281719
 21
0.231904544124601
 31
0.0
  0
LINE
  5
53E84DE267
330
53E84DE286
100
AcDbEntity
  8
TEXT
100
AcDbLine
 10
1.814285587185871
 20
0.4322622144045325
 30
0.0
 11
1.745970708636598
 21
0.4322622144045325
 31
0.0
  0
ARC
  5
53E84DE268
330
53E84DE286
100
AcDbEntity
  8
TEXT
100
AcDbCircle
 10
1.505614969595392
 20
0.3252144415160294
 30
0.0
 40
0.0416329381542859
100
AcDbArc
 50
26.56974201007528
 51
87.20939649401342
  0
LINE
  5
53E84DE269
330
53E84DE286
100
AcDbEntity
  8
TEXT
100
AcDbLine
 10
1.650498754547003
 20
0.3667980086369318
 30
0.0
 11
1.586601848247502
 21
0.3667980086369318
 31
0.0
  0
LINE
  5
53E84DE26A
330
53E84DE286
100
AcDbEntity
  8
TEXT
100
AcDbLine
 10
1.650498754547003
 20
0.3392503587760571
 30
0.0
 11
1.650498754547003
 21
0.3667980086369318
 31
0.0
  0
ARC
  5
53E84DE26B
330
53E84DE286
100
AcDbEntity
  8
TEXT
100
AcDbCircle
 10
1.681691571610111
 20
0.335552281354667
 30
0.0
 40
0.0314112657011332
100
AcDbArc
 50
95.88484768694724
 51
173.2388340632136
  0
LINE
  5
53E84DE26C
330
53E84DE286
100
AcDbEntity
  8
TEXT
100
AcDbLine
 10
1.745970708636593
 20
0.3667980086369318
 30
0.0
 11
1.678470990987076
 21
0.3667980086369318
 31
0.0
  0
LINE
  5
53E84DE26D
330
53E84DE286
100
AcDbEntity
  8
TEXT
100
AcDbLine
 10
1.745970708636598
 20
0.4322622144045325
 30
0.0
 11
1.745970708636593
 21
0.3667980086369318
 31
0.0
  0
LINE
  5
53E84DE26E
330
53E84DE286
100
AcDbEntity
  8
TEXT
100
AcDbLine
 10
1.936375578471484
 20
0.3667980086369318
 30
0.0
 11
1.861383745741857
 21
0.3667980086369318
 31
0.0
  0
ENDSEC
  0
SECTION
  2
OBJECTS
  0
DICTIONARY
  5
53E84DE27A
330
0
100
AcDbDictionary
  3
ACAD_GROUP
350
53E84DE27B
  3
ACAD_LAYOUT
350
53E84DE2A0
  3
ACAD_MLINESTYLE
350
53E84DE27C
  3
ACAD_PLOTSETTINGS
350
53E84DE2A1
  3
ACAD_PLOTSTYLENAME
350
53E84DE29E
  3
ACDBHEADERROUNDTRIPXREC
350
53E84DE2AB
  3
ACDBVARIABLEDICTIONARY
350
53E84DE2A8
  0
DICTIONARY
  5
53E84DE2CD
330
53E84DE286
100
AcDbDictionary
280
     1
  3
ACAD_LAYOUTSELFREF
360
53E84DE2CE
  0
DICTIONARY
  5
53E84DE2CB
330
53E84DE283
100
AcDbDictionary
280
     1
  3
ACAD_LAYOUTSELFREF
360
53E84DE2CC
  0
DICTIONARY
  5
53E84DE27B
102
{ACAD_REACTORS
330
53E84DE27A
102
}
330
53E84DE27A
100
AcDbDictionary
  0
DICTIONARY
  5
53E84DE2A0
102
{ACAD_REACTORS
330
53E84DE27A
102
}
330
53E84DE27A
100
AcDbDictionary
  0
DICTIONARY
  5
53E84DE27C
102
{ACAD_REACTORS
330
53E84DE27A
102
}
330
53E84DE27A
100
AcDbDictionary
  3
STANDARD
350
53E84DE289
  0
DICTIONARY
  5
53E84DE2A1
102
{ACAD_REACTORS
330
53E84DE27A
102
}
330
53E84DE27A
100
AcDbDictionary
  0
ACDBDICTIONARYWDFLT
  5
53E84DE29E
102
{ACAD_REACTORS
330
53E84DE27A
102
}
330
53E84DE27A
100
AcDbDictionary
281
     1
  3
Normal
350
53E84DE29F
100
AcDbDictionaryWithDefault
340
53E84DE29F
  0
DICTIONARY
  5
53E84DE2AB
102
{ACAD_REACTORS
330
53E84DE27A
102
}
330
53E84DE27A
100
AcDbDictionary
  3
CEPSNTYPE
350
53E84DE2B5
  3
FINGERPRINTGUID
350
53E84DE2B6
  3
HYPERLINKBASE
350
53E84DE2AE
  3
INSUNITS
350
53E84DE2B4
  3
LAYOUTDICT
350
53E84DE2B0
  3
LWETCUNION
350
53E84DE2B3
  3
PLOTSETDICT
350
53E84DE2B1
  3
PLOTSTYLNAMDICT
350
53E84DE2B2
  3
PSVPSCALE
350
53E84DE2B8
  3
PUCSBASE
350
53E84DE2BB
  3
PUCSORGBACK
350
53E84DE2C1
  3
PUCSORGBOTTOM
350
53E84DE2BD
  3
PUCSORGFRONT
350
53E84DE2C0
  3
PUCSORGLEFT
350
53E84DE2BE
  3
PUCSORGRIGHT
350
53E84DE2BF
  3
PUCSORGTOP
350
53E84DE2BC
  3
PUCSORTHOREF
350
53E84DE2B9
  3
PUCSORTHOVIEW
350
53E84DE2BA
  3
STYLESHEET
350
53E84DE2AF
  3
TSTACKALIGN
350
53E84DE2AC
  3
TSTACKSIZE
350
53E84DE2AD
  3
UCSBASE
350
53E84DE2C4
  3
UCSORGBACK
350
53E84DE2CA
  3
UCSORGBOTTOM
350
53E84DE2C6
  3
UCSORGFRONT
350
53E84DE2C9
  3
UCSORGLEFT
350
53E84DE2C7
  3
UCSORGRIGHT
350
53E84DE2C8
  3
UCSORGTOP
350
53E84DE2C5
  3
UCSORTHOREF
350
53E84DE2C2
  3
UCSORTHOVIEW
350
53E84DE2C3
  3
VERSIONGUID
350
53E84DE2B7
  0
DICTIONARY
  5
53E84DE2A8
102
{ACAD_REACTORS
330
53E84DE27A
102
}
330
53E84DE27A
100
AcDbDictionary
  3
DIMASSOC
350
53E84DE2A9
  0
XRECORD
  5
53E84DE2CE
102
{ACAD_REACTORS
330
53E84DE2CD
102
}
330
53E84DE2CD
100
AcDbXrecord
340
53E84DE286
  0
XRECORD
  5
53E84DE2CC
102
{ACAD_REACTORS
330
53E84DE2CB
102
}
330
53E84DE2CB
100
AcDbXrecord
340
53E84DE283
  0
MLINESTYLE
  5
53E84DE289
102
{ACAD_REACTORS
330
53E84DE27C
102
}
330
53E84DE27C
100
AcDbMlineStyle
  2
STANDARD
 70
     0
  3

 62
     0
 51
90.0
 52
90.0
 71
     2
 49
0.5
 62
   256
  6
BYLAYER
 49
-0.5
 62
   256
  6
BYLAYER
  0
ACDBPLACEHOLDER
  5
53E84DE29F
102
{ACAD_REACTORS
330
53E84DE29E
102
}
330
53E84DE29E
100
AcDbPlaceHolder
280
     0
  0
XRECORD
  5
53E84DE2B5
102
{ACAD_REACTORS
330
53E84DE2AB
102
}
330
53E84DE2AB
100
AcDbXrecord
 90
        0
  0
XRECORD
  5
53E84DE2B6
102
{ACAD_REACTORS
330
53E84DE2AB
102
}
330
53E84DE2AB
100
AcDbXrecord
  1
{B20A74A0-8DB3-11D6-88E6-0090279574E7}
  0
XRECORD
  5
53E84DE2AE
102
{ACAD_REACTORS
330
53E84DE2AB
102
}
330
53E84DE2AB
100
AcDbXrecord
  1

  0
XRECORD
  5
53E84DE2B4
102
{ACAD_REACTORS
330
53E84DE2AB
102
}
330
53E84DE2AB
100
AcDbXrecord
 90
        0
  0
XRECORD
  5
53E84DE2B0
102
{ACAD_REACTORS
330
53E84DE2AB
102
}
330
53E84DE2AB
100
AcDbXrecord
340
53E84DE2A0
  0
XRECORD
  5
53E84DE2B3
102
{ACAD_REACTORS
330
53E84DE2AB
102
}
330
53E84DE2AB
100
AcDbXrecord
 90
    14877
  0
XRECORD
  5
53E84DE2B1
102
{ACAD_REACTORS
330
53E84DE2AB
102
}
330
53E84DE2AB
100
AcDbXrecord
340
53E84DE2A1
  0
XRECORD
  5
53E84DE2B2
102
{ACAD_REACTORS
330
53E84DE2AB
102
}
330
53E84DE2AB
100
AcDbXrecord
340
53E84DE29E
  0
XRECORD
  5
53E84DE2B8
102
{ACAD_REACTORS
330
53E84DE2AB
102
}
330
53E84DE2AB
100
AcDbXrecord
 40
0.0
  0
XRECORD
  5
53E84DE2BB
102
{ACAD_REACTORS
330
53E84DE2AB
102
}
330
53E84DE2AB
100
AcDbXrecord
340
0
  0
XRECORD
  5
53E84DE2C1
102
{ACAD_REACTORS
330
53E84DE2AB
102
}
330
53E84DE2AB
100
AcDbXrecord
 10
0.0
 20
0.0
 30
0.0
  0
XRECORD
  5
53E84DE2BD
102
{ACAD_REACTORS
330
53E84DE2AB
102
}
330
53E84DE2AB
100
AcDbXrecord
 10
0.0
 20
0.0
 30
0.0
  0
XRECORD
  5
53E84DE2C0
102
{ACAD_REACTORS
330
53E84DE2AB
102
}
330
53E84DE2AB
100
AcDbXrecord
 10
0.0
 20
0.0
 30
0.0
  0
XRECORD
  5
53E84DE2BE
102
{ACAD_REACTORS
330
53E84DE2AB
102
}
330
53E84DE2AB
100
AcDbXrecord
 10
0.0
 20
0.0
 30
0.0
  0
XRECORD
  5
53E84DE2BF
102
{ACAD_REACTORS
330
53E84DE2AB
102
}
330
53E84DE2AB
100
AcDbXrecord
 10
0.0
 20
0.0
 30
0.0
  0
XRECORD
  5
53E84DE2BC
102
{ACAD_REACTORS
330
53E84DE2AB
102
}
330
53E84DE2AB
100
AcDbXrecord
 10
0.0
 20
0.0
 30
0.0
  0
XRECORD
  5
53E84DE2B9
102
{ACAD_REACTORS
330
53E84DE2AB
102
}
330
53E84DE2AB
100
AcDbXrecord
340
0
  0
XRECORD
  5
53E84DE2BA
102
{ACAD_REACTORS
330
53E84DE2AB
102
}
330
53E84DE2AB
100
AcDbXrecord
 70
     0
  0
XRECORD
  5
53E84DE2AF
102
{ACAD_REACTORS
330
53E84DE2AB
102
}
330
53E84DE2AB
100
AcDbXrecord
  1

  0
XRECORD
  5
53E84DE2AC
102
{ACAD_REACTORS
330
53E84DE2AB
102
}
330
53E84DE2AB
100
AcDbXrecord
 90
        1
  0
XRECORD
  5
53E84DE2AD
102
{ACAD_REACTORS
330
53E84DE2AB
102
}
330
53E84DE2AB
100
AcDbXrecord
 90
       70
  0
XRECORD
  5
53E84DE2C4
102
{ACAD_REACTORS
330
53E84DE2AB
102
}
330
53E84DE2AB
100
AcDbXrecord
340
0
  0
XRECORD
  5
53E84DE2CA
102
{ACAD_REACTORS
330
53E84DE2AB
102
}
330
53E84DE2AB
100
AcDbXrecord
 10
0.0
 20
0.0
 30
0.0
  0
XRECORD
  5
53E84DE2C6
102
{ACAD_REACTORS
330
53E84DE2AB
102
}
330
53E84DE2AB
100
AcDbXrecord
 10
0.0
 20
0.0
 30
0.0
  0
XRECORD
  5
53E84DE2C9
102
{ACAD_REACTORS
330
53E84DE2AB
102
}
330
53E84DE2AB
100
AcDbXrecord
 10
0.0
 20
0.0
 30
0.0
  0
XRECORD
  5
53E84DE2C7
102
{ACAD_REACTORS
330
53E84DE2AB
102
}
330
53E84DE2AB
100
AcDbXrecord
 10
0.0
 20
0.0
 30
0.0
  0
XRECORD
  5
53E84DE2C8
102
{ACAD_REACTORS
330
53E84DE2AB
102
}
330
53E84DE2AB
100
AcDbXrecord
 10
0.0
 20
0.0
 30
0.0
  0
XRECORD
  5
53E84DE2C5
102
{ACAD_REACTORS
330
53E84DE2AB
102
}
330
53E84DE2AB
100
AcDbXrecord
 10
0.0
 20
0.0
 30
0.0
  0
XRECORD
  5
53E84DE2C2
102
{ACAD_REACTORS
330
53E84DE2AB
102
}
330
53E84DE2AB
100
AcDbXrecord
340
0
  0
XRECORD
  5
53E84DE2C3
102
{ACAD_REACTORS
330
53E84DE2AB
102
}
330
53E84DE2AB
100
AcDbXrecord
 70
     0
  0
XRECORD
  5
53E84DE2B7
102
{ACAD_REACTORS
330
53E84DE2AB
102
}
330
53E84DE2AB
100
AcDbXrecord
  1
{B20A74A2-8DB3-11D6-88E6-0090279574E7}
  0
DICTIONARYVAR
  5
53E84DE2A9
102
{ACAD_REACTORS
330
53E84DE2A8
102
}
330
53E84DE2A8
100
DictionaryVariables
280
     0
  1
1
  0
ENDSEC
  0
EOF
