  0
SECTION
  2
HEADER
  9
$ACADVER
  1
AC1014
  9
$ACADMAINTVER
 70
     9
  9
$DWGCODEPAGE
  3
ANSI_1252
  9
$INSBASE
 10
2.746187503065378
 20
2.04775036847709
 30
0.0
  9
$EXTMIN
 10
1.003205923838235
 20
1.024106764394509
 30
0.0
  9
$EXTMAX
 10
4.488425245585365
 20
2.047750368477091
 30
0.0
  9
$LIMMIN
 10
0.0
 20
0.0
  9
$LIMMAX
 10
18.0
 20
12.0
  9
$ORTHOMODE
 70
     1
  9
$REGENMODE
 70
     1
  9
$FILLMODE
 70
     1
  9
$QTEXTMODE
 70
     0
  9
$MIRRTEXT
 70
     0
  9
$DRAGMODE
 70
     2
  9
$LTSCALE
 40
1.0
  9
$OSMODE
 70
    39
  9
$ATTMODE
 70
     1
  9
$TEXTSIZE
 40
0.125
  9
$TRACEWID
 40
0.05
  9
$TEXTSTYLE
  7
ROMANS
  9
$CLAYER
  8
0
  9
$CELTYPE
  6
BYLAYER
  9
$CECOLOR
 62
   256
  9
$CELTSCALE
 40
1.0
  9
$DELOBJ
 70
     1
  9
$DISPSILH
 70
     1
  9
$DIMSCALE
 40
1.0
  9
$DIMASZ
 40
0.125
  9
$DIMEXO
 40
0.125
  9
$DIMDLI
 40
0.375
  9
$DIMRND
 40
0.0
  9
$DIMDLE
 40
0.0
  9
$DIMEXE
 40
0.125
  9
$DIMTP
 40
0.0
  9
$DIMTM
 40
0.0
  9
$DIMTXT
 40
0.125
  9
$DIMCEN
 40
-0.125
  9
$DIMTSZ
 40
0.0
  9
$DIMTOL
 70
     0
  9
$DIMLIM
 70
     0
  9
$DIMTIH
 70
     1
  9
$DIMTOH
 70
     1
  9
$DIMSE1
 70
     0
  9
$DIMSE2
 70
     0
  9
$DIMTAD
 70
     0
  9
$DIMZIN
 70
     4
  9
$DIMBLK
  1

  9
$DIMASO
 70
     1
  9
$DIMSHO
 70
     1
  9
$DIMPOST
  1

  9
$DIMAPOST
  1

  9
$DIMALT
 70
     0
  9
$DIMALTD
 70
     2
  9
$DIMALTF
 40
25.4
  9
$DIMLFAC
 40
1.0
  9
$DIMTOFL
 70
     0
  9
$DIMTVP
 40
0.0
  9
$DIMTIX
 70
     1
  9
$DIMSOXD
 70
     0
  9
$DIMSAH
 70
     0
  9
$DIMBLK1
  1

  9
$DIMBLK2
  1

  9
$DIMSTYLE
  2
STANDARD
  9
$DIMCLRD
 70
     0
  9
$DIMCLRE
 70
     0
  9
$DIMCLRT
 70
     0
  9
$DIMTFAC
 40
1.0
  9
$DIMGAP
 40
0.09
  9
$DIMJUST
 70
     0
  9
$DIMSD1
 70
     0
  9
$DIMSD2
 70
     0
  9
$DIMTOLJ
 70
     1
  9
$DIMTZIN
 70
     4
  9
$DIMALTZ
 70
     0
  9
$DIMALTTZ
 70
     0
  9
$DIMFIT
 70
     3
  9
$DIMUPT
 70
     0
  9
$DIMUNIT
 70
     2
  9
$DIMDEC
 70
     3
  9
$DIMTDEC
 70
     3
  9
$DIMALTU
 70
     2
  9
$DIMALTTD
 70
     2
  9
$DIMTXSTY
  7
ROMANS
  9
$DIMAUNIT
 70
     0
  9
$LUNITS
 70
     2
  9
$LUPREC
 70
     3
  9
$SKETCHINC
 40
0.1
  9
$FILLETRAD
 40
0.03125
  9
$AUNITS
 70
     0
  9
$AUPREC
 70
     0
  9
$MENU
  1
ACAD
  9
$ELEVATION
 40
0.0
  9
$PELEVATION
 40
0.0
  9
$THICKNESS
 40
0.0
  9
$LIMCHECK
 70
     0
  9
$BLIPMODE
 70
     0
  9
$CHAMFERA
 40
0.0
  9
$CHAMFERB
 40
0.0
  9
$CHAMFERC
 40
0.0
  9
$CHAMFERD
 40
0.0
  9
$SKPOLY
 70
     0
  9
$TDCREATE
 40
2448993.458988310
  9
$TDUPDATE
 40
2452458.293910555
  9
$TDINDWG
 40
0.0005698495
  9
$TDUSRTIMER
 40
0.0005698495
  9
$USRTIMER
 70
     1
  9
$ANGBASE
 50
0.0
  9
$ANGDIR
 70
     0
  9
$PDMODE
 70
     0
  9
$PDSIZE
 40
0.0
  9
$PLINEWID
 40
0.0
  9
$COORDS
 70
     2
  9
$SPLFRAME
 70
     0
  9
$SPLINETYPE
 70
     6
  9
$SPLINESEGS
 70
     8
  9
$ATTDIA
 70
     0
  9
$ATTREQ
 70
     1
  9
$HANDLING
 70
 22529
  9
$HANDSEED
  5
29F426F91D
  9
$SURFTAB1
 70
     6
  9
$SURFTAB2
 70
     6
  9
$SURFTYPE
 70
     6
  9
$SURFU
 70
     6
  9
$SURFV
 70
     6
  9
$UCSNAME
  2

  9
$UCSORG
 10
0.0
 20
0.0
 30
0.0
  9
$UCSXDIR
 10
1.0
 20
0.0
 30
0.0
  9
$UCSYDIR
 10
0.0
 20
1.0
 30
0.0
  9
$PUCSNAME
  2

  9
$PUCSORG
 10
0.0
 20
0.0
 30
0.0
  9
$PUCSXDIR
 10
1.0
 20
0.0
 30
0.0
  9
$PUCSYDIR
 10
0.0
 20
1.0
 30
0.0
  9
$USERI1
 70
     0
  9
$USERI2
 70
     0
  9
$USERI3
 70
     0
  9
$USERI4
 70
     0
  9
$USERI5
 70
     0
  9
$USERR1
 40
0.0
  9
$USERR2
 40
0.0
  9
$USERR3
 40
0.0
  9
$USERR4
 40
0.0
  9
$USERR5
 40
0.0
  9
$WORLDVIEW
 70
     1
  9
$SHADEDGE
 70
     3
  9
$SHADEDIF
 70
    70
  9
$TILEMODE
 70
     1
  9
$MAXACTVP
 70
    16
  9
$PINSBASE
 10
1.526408800739053
 20
50.00000000000001
 30
1.545731716382688
  9
$PLIMCHECK
 70
     0
  9
$PEXTMIN
 10
1.000000000000000E+20
 20
1.000000000000000E+20
 30
1.000000000000000E+20
  9
$PEXTMAX
 10
-1.000000000000000E+20
 20
-1.000000000000000E+20
 30
-1.000000000000000E+20
  9
$PLIMMIN
 10
0.0
 20
0.0
  9
$PLIMMAX
 10
12.0
 20
9.0
  9
$UNITMODE
 70
     0
  9
$VISRETAIN
 70
     0
  9
$PLINEGEN
 70
     1
  9
$PSLTSCALE
 70
     0
  9
$TREEDEPTH
 70
  3020
  9
$PICKSTYLE
 70
     1
  9
$CMLSTYLE
  2
STANDARD
  9
$CMLJUST
 70
     0
  9
$CMLSCALE
 40
1.0
  9
$PROXYGRAPHICS
 70
     1
  9
$MEASUREMENT
 70
     0
  0
ENDSEC
  0
SECTION
  2
CLASSES
  0
CLASS
  1
LWPOLYLINE
  2
AcDbPolyline
  3
AutoCAD 2000
 90
        0
280
     0
281
     1
  0
CLASS
  1
ACDBDICTIONARYWDFLT
  2
AcDbDictionaryWithDefault
  3
AutoCAD 2000
 90
        0
280
     0
281
     0
  0
CLASS
  1
ACDBPLACEHOLDER
  2
AcDbPlaceHolder
  3
AutoCAD 2000
 90
        0
280
     0
281
     0
  0
CLASS
  1
LAYOUT
  2
AcDbLayout
  3
AutoCAD 2000
 90
        0
280
     0
281
     0
  0
CLASS
  1
DICTIONARYVAR
  2
AcDbDictionaryVar
  3
AutoCAD 2000
 90
        0
280
     0
281
     0
  0
CLASS
  1
LONG_TRANSACTION
  2
AcDbLongTransaction
  3
AutoCAD 2000
 90
        0
280
     0
281
     0
  0
CLASS
  1
LWPOLYLINE
  2
AcDbPolyline
  3
AutoCAD 2000
 90
        0
280
     0
281
     1
  0
CLASS
  1
HATCH
  2
AcDbHatch
  3
AutoCAD 2000
 90
        0
280
     0
281
     1
  0
CLASS
  1
XRECORD
  2
AcDbXrecord
  3
AutoCAD 2000
 90
        0
280
     0
281
     0
  0
ENDSEC
  0
SECTION
  2
TABLES
  0
TABLE
  2
VPORT
  5
29F426F8C4
330
0
100
AcDbSymbolTable
 70
     2
  0
VPORT
  5
29F426F8F8
330
29F426F8C4
100
AcDbSymbolTableRecord
100
AcDbViewportTableRecord
  2
*ACTIVE
 70
     0
 10
0.0
 20
0.0
 11
1.0
 21
1.0
 12
5.721682393002684
 22
1.535888694617767
 13
0.0
 23
0.0
 14
0.015625
 24
0.015625
 15
0.0
 25
0.0
 16
0.0
 26
0.0
 36
1.0
 17
0.0
 27
0.0
 37
0.0
 40
2.282647215150728
 41
4.320930232558139
 42
50.0
 43
0.0
 44
0.0
 50
0.0
 51
0.0
 71
     0
 72
  2000
 73
     1
 74
     0
 75
     1
 76
     0
 77
     0
 78
     0
  0
ENDTAB
  0
TABLE
  2
LTYPE
  5
29F426F8C1
330
0
100
AcDbSymbolTable
 70
     1
  0
LTYPE
  5
29F426F8CE
330
29F426F8C1
100
AcDbSymbolTableRecord
100
AcDbLinetypeTableRecord
  2
BYBLOCK
 70
     0
  3

 72
    65
 73
     0
 40
0.0
  0
LTYPE
  5
29F426F8CF
330
29F426F8C1
100
AcDbSymbolTableRecord
100
AcDbLinetypeTableRecord
  2
BYLAYER
 70
     0
  3

 72
    65
 73
     0
 40
0.0
  0
LTYPE
  5
29F426F8D0
330
29F426F8C1
100
AcDbSymbolTableRecord
100
AcDbLinetypeTableRecord
  2
CONTINUOUS
 70
     0
  3
Solid line
 72
    65
 73
     0
 40
0.0
  0
ENDTAB
  0
TABLE
  2
LAYER
  5
29F426F8BE
330
0
100
AcDbSymbolTable
 70
     2
  0
LAYER
  5
29F426F8CB
330
29F426F8BE
100
AcDbSymbolTableRecord
100
AcDbLayerTableRecord
  2
0
 70
     0
 62
     7
  6
CONTINUOUS
  0
LAYER
  5
29F426F8DB
330
29F426F8BE
100
AcDbSymbolTableRecord
100
AcDbLayerTableRecord
  2
TEXT
 70
     0
 62
     3
  6
CONTINUOUS
  0
ENDTAB
  0
TABLE
  2
STYLE
  5
29F426F8BF
330
0
100
AcDbSymbolTable
 70
     3
  0
STYLE
  5
29F426F8CC
330
29F426F8BF
100
AcDbSymbolTableRecord
100
AcDbTextStyleTableRecord
  2
STANDARD
 70
     0
 40
0.0
 41
1.0
 50
0.0
 71
     0
 42
0.3125
  3
txt
  4

  0
STYLE
  5
29F426F8D8
330
29F426F8BF
100
AcDbSymbolTableRecord
100
AcDbTextStyleTableRecord
  2
ITALICC
 70
     0
 40
0.0
 41
1.0
 50
0.0
 71
     0
 42
0.125
  3
italicc
  4

  0
STYLE
  5
29F426F8E8
330
29F426F8BF
100
AcDbSymbolTableRecord
100
AcDbTextStyleTableRecord
  2
ROMANS
 70
     0
 40
0.0
 41
1.0
 50
0.0
 71
     0
 42
0.125
  3
romans.shx
  4

  0
ENDTAB
  0
TABLE
  2
VIEW
  5
29F426F8C2
330
0
100
AcDbSymbolTable
 70
     0
  0
ENDTAB
  0
TABLE
  2
UCS
  5
29F426F8C3
330
0
100
AcDbSymbolTable
 70
     0
  0
ENDTAB
  0
TABLE
  2
APPID
  5
29F426F8C5
330
0
100
AcDbSymbolTable
 70
     1
  0
APPID
  5
29F426F8CD
330
29F426F8C5
100
AcDbSymbolTableRecord
100
AcDbRegAppTableRecord
  2
ACAD
 70
     0
  0
ENDTAB
  0
TABLE
  2
DIMSTYLE
  5
29F426F8C6
330
0
100
AcDbSymbolTable
 70
     1
  0
DIMSTYLE
105
29F426F8E0
330
29F426F8C6
100
AcDbSymbolTableRecord
100
AcDbDimStyleTableRecord
  2
STANDARD
 70
     0
  3

  4

  5

  6

  7

 40
1.0
 41
0.125
 42
0.125
 43
0.375
 44
0.125
 45
0.0
 46
0.0
 47
0.0
 48
0.0
140
0.125
141
-0.125
142
0.0
143
25.4
144
1.0
145
0.0
146
1.0
147
0.09
 71
     0
 72
     0
 73
     1
 74
     1
 75
     0
 76
     0
 77
     0
 78
     4
170
     0
171
     2
172
     0
173
     0
174
     1
175
     0
176
     0
177
     0
178
     0
270
     2
271
     3
272
     3
273
     2
274
     2
340
29F426F8E8
275
     0
280
     0
281
     0
282
     0
283
     1
284
     4
285
     0
286
     0
287
     3
288
     0
  0
ENDTAB
  0
TABLE
  2
BLOCK_RECORD
  5
29F426F8BD
330
0
100
AcDbSymbolTable
 70
     0
  0
BLOCK_RECORD
  5
29F426F8D4
102
{ACAD_XDICTIONARY
360
29F426F91B
102
}
330
29F426F8BD
100
AcDbSymbolTableRecord
100
AcDbBlockTableRecord
  2
*MODEL_SPACE
  0
BLOCK_RECORD
  5
29F426F8D1
102
{ACAD_XDICTIONARY
360
29F426F919
102
}
330
29F426F8BD
100
AcDbSymbolTableRecord
100
AcDbBlockTableRecord
  2
*PAPER_SPACE
  0
ENDTAB
  0
ENDSEC
  0
SECTION
  2
BLOCKS
  0
BLOCK
  5
29F426F8DE
330
29F426F8D4
100
AcDbEntity
  8
0
100
AcDbBlockBegin
  2
*MODEL_SPACE
 70
     0
 10
0.0
 20
0.0
 30
0.0
  3
*MODEL_SPACE
  1

  0
ENDBLK
  5
29F426F8DF
330
29F426F8D4
100
AcDbEntity
  8
0
100
AcDbBlockEnd
  0
BLOCK
  5
29F426F8DC
330
29F426F8D1
100
AcDbEntity
 67
     1
  8
0
100
AcDbBlockBegin
  2
*PAPER_SPACE
 70
     0
 10
0.0
 20
0.0
 30
0.0
  3
*PAPER_SPACE
  1

  0
ENDBLK
  5
29F426F8DD
330
29F426F8D1
100
AcDbEntity
 67
     1
  8
0
100
AcDbBlockEnd
  0
ENDSEC
  0
SECTION
  2
ENTITIES
  0
LWPOLYLINE
  5
29F426E360
330
29F426F8D4
100
AcDbEntity
  8
0
100
AcDbPolyline
 90
        8
 70
     1
 43
0.0
 10
2.966187503065378
 20
2.04775036847709
 42
-1.0
 10
2.966187503065378
 20
1.99775036847709
 10
2.771187503065378
 20
1.99775036847709
 10
2.771187503065378
 20
1.77275036847709
 42
-1.0
 10
2.721187503065378
 20
1.77275036847709
 10
2.721187503065378
 20
1.99775036847709
 10
2.526187503065378
 20
1.99775036847709
 42
-1.0
 10
2.526187503065378
 20
2.04775036847709
  0
TEXT
  5
29F426F77F
330
29F426F8D4
100
AcDbEntity
  8
TEXT
100
AcDbText
 10
1.990235122112997
 20
1.48212536847709
 30
0.0
 40
0.125
  1
PART #110065
  7
ITALICC
 72
     1
 11
2.746187503065378
 21
1.48212536847709
 31
0.0
100
AcDbText
  0
TEXT
  5
29F426F780
330
29F426F8D4
100
AcDbEntity
  8
TEXT
100
AcDbText
 10
3.159492661315699
 20
1.035202725804715
 30
0.0
 40
0.0522247191011236
  1
Phone  1-800-328-2495
 41
1.272321428571429
 72
     5
 11
4.488425245585363
 21
1.035202725804715
 31
0.0
100
AcDbText
  0
TEXT
  5
29F426F781
330
29F426F8D4
100
AcDbEntity
  8
TEXT
100
AcDbText
 10
3.159492661315699
 20
1.314978006703592
 30
0.0
 40
0.0522247191011236
  1
Stylmark  Incorporated
 41
1.221428571428573
 72
     5
 11
4.488425245585363
 21
1.314978006703592
 31
0.0
100
AcDbText
  0
TEXT
  5
29F426F782
330
29F426F8D4
100
AcDbEntity
  8
TEXT
100
AcDbText
 10
3.159492661315699
 20
1.221719579737299
 30
0.0
 40
0.0522247191011236
  1
6536 Main St. N.E. * P.O. Box 32008
 41
0.8388932496075366
 72
     5
 11
4.488425245585363
 21
1.221719579737299
 31
0.0
100
AcDbText
  0
TEXT
  5
29F426F783
330
29F426F8D4
100
AcDbEntity
  8
TEXT
100
AcDbText
 10
3.159492661315699
 20
1.128461152771007
 30
0.0
 40
0.0522247191011236
  1
Minneapolis, MN 55432-0008
 41
1.11444212721585
 72
     5
 11
4.488425245585363
 21
1.128461152771007
 31
0.0
100
AcDbText
  0
LWPOLYLINE
  5
29F426F784
330
29F426F8D4
100
AcDbEntity
  8
TEXT
100
AcDbPolyline
 90
        3
 70
     0
 43
0.0006660908203125
 10
1.003538969248391
 20
1.14884748844215
 10
1.003538969248391
 20
1.035612048989022
 10
1.116774408701513
 20
1.035612048989022
  0
LWPOLYLINE
  5
29F426F789
330
29F426F8D4
100
AcDbEntity
  8
TEXT
100
AcDbPolyline
 90
        3
 70
     0
 43
0.0006660908203125
 10
1.030182602060889
 20
1.14884748844215
 10
1.030182602060889
 20
1.062255681801523
 10
1.116774408701513
 20
1.062255681801523
  0
LWPOLYLINE
  5
29F426F78E
330
29F426F8D4
100
AcDbEntity
  8
TEXT
100
AcDbPolyline
 90
        2
 70
     0
 43
0.0001332181640625
 10
1.076808959482765
 20
1.158838850746835
 10
1.003538969248391
 20
1.14884748844215
  0
LWPOLYLINE
  5
29F426F792
330
29F426F8D4
100
AcDbEntity
  8
TEXT
100
AcDbPolyline
 90
        2
 70
     0
 43
0.0001332181640625
 10
1.030182602060889
 20
1.14884748844215
 10
1.090130775889016
 20
1.158838850746835
  0
LWPOLYLINE
  5
29F426F796
330
29F426F8D4
100
AcDbEntity
  8
TEXT
100
AcDbPolyline
 90
        2
 70
     0
 43
0.0001332181640625
 10
1.030182602060889
 20
1.062255681801523
 10
1.090130775889016
 20
1.122203855629649
  0
LWPOLYLINE
  5
29F426F79A
330
29F426F8D4
100
AcDbEntity
  8
TEXT
100
AcDbPolyline
 90
        3
 70
     0
 43
0.0006660908203125
 10
1.116774408701513
 20
1.302048377114026
 10
1.003538969248391
 20
1.302048377114026
 10
1.003538969248391
 20
1.188812937660898
  0
LWPOLYLINE
  5
29F426F79F
330
29F426F8D4
100
AcDbEntity
  8
TEXT
100
AcDbPolyline
 90
        3
 70
     0
 43
0.0006660908203125
 10
1.116774408701513
 20
1.275404744301525
 10
1.030182602060889
 20
1.275404744301525
 10
1.030182602060889
 20
1.188812937660898
  0
LWPOLYLINE
  5
29F426F7A4
330
29F426F8D4
100
AcDbEntity
  8
TEXT
100
AcDbPolyline
 90
        2
 70
     0
 43
0.0001332181640625
 10
1.030182602060889
 20
1.275404744301525
 10
1.090130775889014
 20
1.215456570473399
  0
LWPOLYLINE
  5
29F426F7A8
330
29F426F8D4
100
AcDbEntity
  8
TEXT
100
AcDbPolyline
 90
        2
 70
     0
 43
0.0001332181640625
 10
1.030182602060889
 20
1.188812937660898
 10
1.090130775889014
 20
1.178821575356209
  0
LWPOLYLINE
  5
29F426F7AC
330
29F426F8D4
100
AcDbEntity
  8
TEXT
100
AcDbPolyline
 90
        2
 70
     0
 43
0.0001332181640625
 10
1.003538969248391
 20
1.188812937660898
 10
1.076808959482765
 20
1.178821575356209
  0
LWPOLYLINE
  5
29F426F7B0
330
29F426F8D4
100
AcDbEntity
  8
TEXT
100
AcDbPolyline
 90
        2
 70
     0
 43
0.0006660908203125
 10
1.030182602060889
 20
1.14884748844215
 10
1.003538969248391
 20
1.14884748844215
  0
LWPOLYLINE
  5
29F426F7B4
330
29F426F8D4
100
AcDbEntity
  8
TEXT
100
AcDbPolyline
 90
        2
 70
     0
 43
0.0006660908203125
 10
1.030182602060889
 20
1.188812937660898
 10
1.003538969248391
 20
1.188812937660898
  0
LINE
  5
29F426F7B8
330
29F426F8D4
100
AcDbEntity
  8
TEXT
100
AcDbLine
 10
2.518729398374889
 20
1.237771682457257
 30
0.0
 11
2.411523124987599
 21
1.237771682457257
 31
0.0
  0
LINE
  5
29F426F7B9
330
29F426F8D4
100
AcDbEntity
  8
TEXT
100
AcDbLine
 10
2.547760296719367
 20
1.302048377114022
 30
0.0
 11
2.412928387502308
 21
1.302048377114022
 31
0.0
  0
ARC
  5
29F426F7BA
330
29F426F8D4
100
AcDbEntity
  8
TEXT
100
AcDbCircle
 10
2.472242483895625
 20
1.132811127851006
 30
0.0
 40
0.0676855811441166
100
AcDbArc
 50
90.0
 51
153.7768192527749
  0
LWPOLYLINE
  5
29F426F7BB
330
29F426F8D4
100
AcDbEntity
  8
TEXT
100
AcDbPolyline
 90
        2
 70
     0
 43
0.0
 10
2.410490629532789
 20
1.079066289075949
 42
0.2901071551932823
 10
2.453566562400425
 20
1.035575344125511
 42
5.328517124445801
  0
ARC
  5
29F426F7BF
330
29F426F8D4
100
AcDbEntity
  8
TEXT
100
AcDbCircle
 10
1.767111106224139
 20
1.095367735463561
 30
0.0
 40
0.0601160179737537
100
AcDbArc
 50
180.0000000000003
 51
264.0521544866073
  0
LINE
  5
29F426F7C0
330
29F426F8D4
100
AcDbEntity
  8
TEXT
100
AcDbLine
 10
1.770626461849687
 20
1.33643629470816
 30
0.0
 11
1.71058385700568
 21
1.33643629470816
 31
0.0
  0
ARC
  5
29F426F7C1
330
29F426F8D4
100
AcDbEntity
  8
TEXT
100
AcDbCircle
 10
1.534852104107168
 20
1.21996091766752
 30
0.0
 40
0.0820874594465043
100
AcDbArc
 50
90.0
 51
270.0
  0
LWPOLYLINE
  5
29F426F7C2
330
29F426F8D4
100
AcDbEntity
  8
TEXT
100
AcDbPolyline
 90
        2
 70
     0
 43
0.0001332181640625
 10
1.126765771006204
 20
1.228778386879646
 10
1.116774408701513
 20
1.302048377114026
  0
LWPOLYLINE
  5
29F426F7C6
330
29F426F8D4
100
AcDbEntity
  8
TEXT
100
AcDbPolyline
 90
        2
 70
     0
 43
0.0001332181640625
 10
1.116774408701513
 20
1.275404744301525
 10
1.126765771006204
 20
1.215456570473399
  0
LWPOLYLINE
  5
29F426F7CA
330
29F426F8D4
100
AcDbEntity
  8
TEXT
100
AcDbPolyline
 90
        3
 70
     0
 43
0.0006660908203125
 10
1.269975297373391
 20
1.188812937660898
 10
1.269975297373391
 20
1.302048377114026
 10
1.156739857920265
 20
1.302048377114026
  0
LWPOLYLINE
  5
29F426F7CF
330
29F426F8D4
100
AcDbEntity
  8
TEXT
100
AcDbPolyline
 90
        3
 70
     0
 43
0.0006660908203125
 10
1.24333166456089
 20
1.188812937660898
 10
1.24333166456089
 20
1.275404744301525
 10
1.156739857920265
 20
1.275404744301525
  0
LWPOLYLINE
  5
29F426F7D4
330
29F426F8D4
100
AcDbEntity
  8
TEXT
100
AcDbPolyline
 90
        2
 70
     0
 43
0.0001332181640625
 10
1.24333166456089
 20
1.275404744301525
 10
1.183383490732766
 20
1.215456570473399
  0
LWPOLYLINE
  5
29F426F7D8
330
29F426F8D4
100
AcDbEntity
  8
TEXT
100
AcDbPolyline
 90
        2
 70
     0
 43
0.0001332181640625
 10
1.156739857920265
 20
1.275404744301525
 10
1.146748495615576
 20
1.215456570473399
  0
LWPOLYLINE
  5
29F426F7DC
330
29F426F8D4
100
AcDbEntity
  8
TEXT
100
AcDbPolyline
 90
        2
 70
     0
 43
0.0001332181640625
 10
1.156739857920265
 20
1.302048377114026
 10
1.146748495615576
 20
1.228778386879646
  0
LWPOLYLINE
  5
29F426F7E0
330
29F426F8D4
100
AcDbEntity
  8
TEXT
100
AcDbPolyline
 90
        2
 70
     0
 43
0.0001332181640625
 10
1.196705307139015
 20
1.178821575356209
 10
1.269975297373391
 20
1.188812937660898
  0
LWPOLYLINE
  5
29F426F7E4
330
29F426F8D4
100
AcDbEntity
  8
TEXT
100
AcDbPolyline
 90
        2
 70
     0
 43
0.0001332181640625
 10
1.24333166456089
 20
1.188812937660898
 10
1.183383490732766
 20
1.178821575356209
  0
LWPOLYLINE
  5
29F426F7E8
330
29F426F8D4
100
AcDbEntity
  8
TEXT
100
AcDbPolyline
 90
        2
 70
     0
 43
0.0001332181640625
 10
1.269975297373391
 20
1.14884748844215
 10
1.196705307139015
 20
1.158838850746835
  0
LWPOLYLINE
  5
29F426F7EC
330
29F426F8D4
100
AcDbEntity
  8
TEXT
100
AcDbPolyline
 90
        2
 70
     0
 43
0.0001332181640625
 10
1.24333166456089
 20
1.14884748844215
 10
1.183383490732766
 20
1.158838850746835
  0
LWPOLYLINE
  5
29F426F7F0
330
29F426F8D4
100
AcDbEntity
  8
TEXT
100
AcDbPolyline
 90
        2
 70
     0
 43
0.0001332181640625
 10
1.24333166456089
 20
1.062255681801523
 10
1.183383490732766
 20
1.122203855629649
  0
LWPOLYLINE
  5
29F426F7F4
330
29F426F8D4
100
AcDbEntity
  8
TEXT
100
AcDbPolyline
 90
        3
 70
     0
 43
0.0006660908203125
 10
1.156739857920265
 20
1.062255681801523
 10
1.24333166456089
 20
1.062255681801523
 10
1.24333166456089
 20
1.14884748844215
  0
LWPOLYLINE
  5
29F426F7F9
330
29F426F8D4
100
AcDbEntity
  8
TEXT
100
AcDbPolyline
 90
        3
 70
     0
 43
0.0006660908203125
 10
1.156739857920265
 20
1.035612048989022
 10
1.269975297373391
 20
1.035612048989022
 10
1.269975297373391
 20
1.14884748844215
  0
LWPOLYLINE
  5
29F426F7FE
330
29F426F8D4
100
AcDbEntity
  8
TEXT
100
AcDbPolyline
 90
        5
 70
     0
 43
0.0001332181640625
 10
1.126765771006204
 20
1.108882039223398
 10
1.126765771006204
 20
1.122203855629649
 10
1.090130775889016
 20
1.122203855629649
 10
1.090130775889016
 20
1.158838850746835
 10
1.076808959482765
 20
1.158838850746835
  0
LWPOLYLINE
  5
29F426F805
330
29F426F8D4
100
AcDbEntity
  8
TEXT
100
AcDbPolyline
 90
        2
 70
     0
 43
0.0006660908203125
 10
1.116774408701513
 20
1.062255681801523
 10
1.116774408701513
 20
1.035612048989022
  0
LWPOLYLINE
  5
29F426F809
330
29F426F8D4
100
AcDbEntity
  8
TEXT
100
AcDbPolyline
 90
        2
 70
     0
 43
0.0001332181640625
 10
1.116774408701513
 20
1.062255681801523
 10
1.126765771006204
 20
1.122203855629649
  0
LWPOLYLINE
  5
29F426F80D
330
29F426F8D4
100
AcDbEntity
  8
TEXT
100
AcDbPolyline
 90
        2
 70
     0
 43
0.0001332181640625
 10
1.116774408701513
 20
1.035612048989022
 10
1.126765771006204
 20
1.108882039223398
  0
LWPOLYLINE
  5
29F426F811
330
29F426F8D4
100
AcDbEntity
  8
TEXT
100
AcDbPolyline
 90
        5
 70
     0
 43
0.0001332181640625
 10
1.076808959482765
 20
1.178821575356209
 10
1.090130775889014
 20
1.178821575356209
 10
1.090130775889014
 20
1.215456570473399
 10
1.126765771006204
 20
1.215456570473399
 10
1.126765771006204
 20
1.228778386879646
  0
LWPOLYLINE
  5
29F426F818
330
29F426F8D4
100
AcDbEntity
  8
TEXT
100
AcDbPolyline
 90
        5
 70
     0
 43
0.0001332181640625
 10
1.146748495615576
 20
1.228778386879646
 10
1.146748495615576
 20
1.215456570473399
 10
1.183383490732766
 20
1.215456570473399
 10
1.183383490732766
 20
1.178821575356209
 10
1.196705307139015
 20
1.178821575356209
  0
LWPOLYLINE
  5
29F426F81F
330
29F426F8D4
100
AcDbEntity
  8
TEXT
100
AcDbPolyline
 90
        2
 70
     0
 43
0.0001332181640625
 10
1.156739857920265
 20
1.062255681801523
 10
1.146748495615576
 20
1.122203855629649
  0
LWPOLYLINE
  5
29F426F823
330
29F426F8D4
100
AcDbEntity
  8
TEXT
100
AcDbPolyline
 90
        2
 70
     0
 43
0.0001332181640625
 10
1.146748495615576
 20
1.108882039223398
 10
1.156739857920265
 20
1.035612048989022
  0
LWPOLYLINE
  5
29F426F827
330
29F426F8D4
100
AcDbEntity
  8
TEXT
100
AcDbPolyline
 90
        2
 70
     0
 43
0.0006660908203125
 10
1.156739857920265
 20
1.062255681801523
 10
1.156739857920265
 20
1.035612048989022
  0
LWPOLYLINE
  5
29F426F82B
330
29F426F8D4
100
AcDbEntity
  8
TEXT
100
AcDbPolyline
 90
        5
 70
     0
 43
0.0001332181640625
 10
1.196705307139015
 20
1.158838850746835
 10
1.183383490732766
 20
1.158838850746835
 10
1.183383490732766
 20
1.122203855629649
 10
1.146748495615576
 20
1.122203855629649
 10
1.146748495615576
 20
1.108882039223398
  0
LWPOLYLINE
  5
29F426F832
330
29F426F8D4
100
AcDbEntity
  8
TEXT
100
AcDbPolyline
 90
        2
 70
     0
 43
0.0006660908203125
 10
1.24333166456089
 20
1.188812937660898
 10
1.269975297373391
 20
1.188812937660898
  0
LWPOLYLINE
  5
29F426F836
330
29F426F8D4
100
AcDbEntity
  8
TEXT
100
AcDbPolyline
 90
        2
 70
     0
 43
0.0006660908203125
 10
1.24333166456089
 20
1.14884748844215
 10
1.269975297373391
 20
1.14884748844215
  0
LINE
  5
29F426F83A
330
29F426F8D4
100
AcDbEntity
  8
TEXT
100
AcDbLine
 10
1.540089434221416
 20
1.237771682457257
 30
0.0
 11
1.706995088250387
 21
1.237771682457257
 31
0.0
  0
LINE
  5
29F426F83B
330
29F426F8D4
100
AcDbEntity
  8
TEXT
100
AcDbLine
 10
1.605689570465717
 20
1.201966960846629
 30
0.0
 11
1.540089434221416
 21
1.201966960846629
 31
0.0
  0
LINE
  5
29F426F83C
330
29F426F8D4
100
AcDbEntity
  8
TEXT
100
AcDbLine
 10
1.452764644660664
 20
1.035575344125511
 30
0.0
 11
1.605689570465717
 21
1.035575344125511
 31
0.0
  0
LINE
  5
29F426F83D
330
29F426F8D4
100
AcDbEntity
  8
TEXT
100
AcDbLine
 10
1.610629944371996
 20
1.10393235045895
 30
0.0
 11
1.452764644660662
 21
1.10393235045895
 31
0.0
  0
LINE
  5
29F426F83E
330
29F426F8D4
100
AcDbEntity
  8
TEXT
100
AcDbLine
 10
1.534852104107168
 20
1.137873458221015
 30
0.0
 11
1.610629944371996
 21
1.137873458221015
 31
0.0
  0
ARC
  5
29F426F83F
330
29F426F8D4
100
AcDbEntity
  8
TEXT
100
AcDbCircle
 10
1.540089434221417
 20
1.219869321651944
 30
0.0
 40
0.017902360805315
100
AcDbArc
 50
90.0
 51
270.0
  0
LINE
  5
29F426F840
330
29F426F8D4
100
AcDbEntity
  8
TEXT
100
AcDbLine
 10
1.452764644660662
 20
1.10393235045895
 30
0.0
 11
1.452764644660664
 21
1.035575344125511
 31
0.0
  0
LINE
  5
29F426F841
330
29F426F8D4
100
AcDbEntity
  8
TEXT
100
AcDbLine
 10
1.706995088250387
 20
1.237771682457257
 30
0.0
 11
1.706995088250387
 21
1.095367735463561
 31
0.0
  0
ARC
  5
29F426F842
330
29F426F8D4
100
AcDbEntity
  8
TEXT
100
AcDbCircle
 10
1.605689570465718
 20
1.118771152486068
 30
0.0
 40
0.0831958083605586
100
AcDbArc
 50
270.0
 51
90.0
  0
ARC
  5
29F426F843
330
29F426F8D4
100
AcDbEntity
  8
TEXT
100
AcDbCircle
 10
1.610629944371997
 20
1.120902904339984
 30
0.0
 40
0.0169705538810321
100
AcDbArc
 50
270.0
 51
90.0
  0
LWPOLYLINE
  5
29F426F844
330
29F426F8D4
100
AcDbEntity
  8
TEXT
100
AcDbPolyline
 90
        2
 70
     0
 43
0.0006660908203125
 10
1.116774408701513
 20
1.275404744301525
 10
1.116774408701513
 20
1.302048377114026
  0
LWPOLYLINE
  5
29F426F848
330
29F426F8D4
100
AcDbEntity
  8
TEXT
100
AcDbPolyline
 90
        2
 70
     0
 43
0.0006660908203125
 10
1.156739857920265
 20
1.275404744301525
 10
1.156739857920265
 20
1.302048377114026
  0
LINE
  5
29F426F84C
330
29F426F8D4
100
AcDbEntity
  8
TEXT
100
AcDbLine
 10
1.71058385700568
 20
1.302048377114022
 30
0.0
 11
1.534852104107168
 21
1.302048377114022
 31
0.0
  0
LINE
  5
29F426F84D
330
29F426F8D4
100
AcDbEntity
  8
TEXT
100
AcDbLine
 10
1.71058385700568
 20
1.33643629470816
 30
0.0
 11
1.71058385700568
 21
1.302048377114022
 31
0.0
  0
LINE
  5
29F426F84E
330
29F426F8D4
100
AcDbEntity
  8
TEXT
100
AcDbLine
 10
1.901055749025532
 20
1.201176381000901
 30
0.0
 11
1.842425427993594
 21
1.302048377114022
 31
0.0
  0
LINE
  5
29F426F84F
330
29F426F8D4
100
AcDbEntity
  8
TEXT
100
AcDbLine
 10
1.959804311831398
 20
1.302048377114022
 30
0.0
 11
1.901055749025532
 21
1.201176381000901
 31
0.0
  0
LINE
  5
29F426F850
330
29F426F8D4
100
AcDbEntity
  8
TEXT
100
AcDbLine
 10
2.056734937191139
 20
1.11796318222851
 30
0.0
 11
2.056734937191139
 21
1.370059854852833
 31
0.0
  0
LINE
  5
29F426F851
330
29F426F8D4
100
AcDbEntity
  8
TEXT
100
AcDbLine
 10
2.089046791328799
 20
1.302048377114022
 30
0.0
 11
2.089046791328799
 21
1.101184170381614
 31
0.0
  0
LINE
  5
29F426F852
330
29F426F8D4
100
AcDbEntity
  8
TEXT
100
AcDbLine
 10
2.089046791328799
 20
1.101184170381614
 30
0.0
 11
2.072053154444198
 21
1.101184170381614
 31
0.0
  0
LINE
  5
29F426F853
330
29F426F8D4
100
AcDbEntity
  8
TEXT
100
AcDbLine
 10
2.057874510687334
 20
1.035575344125511
 30
0.0
 11
2.155877844386768
 21
1.035575344125511
 31
0.0
  0
LINE
  5
29F426F854
330
29F426F8D4
100
AcDbEntity
  8
TEXT
100
AcDbLine
 10
1.891455512028578
 20
1.055533850230524
 30
0.0
 11
1.988755218122022
 21
1.219884061165792
 31
0.0
  0
ARC
  5
29F426F855
330
29F426F8D4
100
AcDbEntity
  8
TEXT
100
AcDbCircle
 10
1.857411952116364
 20
1.075123066399207
 30
0.0
 40
0.0392772371940762
100
AcDbArc
 50
270.1604552698595
 51
330.0831797321295
  0
LINE
  5
29F426F856
330
29F426F8D4
100
AcDbEntity
  8
TEXT
100
AcDbLine
 10
1.760881695730493
 20
1.035575344125511
 30
0.0
 11
1.857521946805487
 21
1.035845983223793
 31
0.0
  0
LWPOLYLINE
  5
29F426F857
330
29F426F8D4
100
AcDbEntity
  8
TEXT
100
AcDbPolyline
 90
        6
 70
     1
 43
0.0
 10
1.803405499305642
 20
1.237771682457257
 10
1.773088905085434
 20
1.237771682457257
 10
1.773088905085434
 20
1.114660684402362
 42
0.407328721240804
 10
1.78463255624691
 20
1.102841769725976
 10
1.845254255291641
 20
1.102841769725976
 10
1.862719595698959
 20
1.135653998769455
  0
LINE
  5
29F426F85F
330
29F426F8D4
100
AcDbEntity
  8
TEXT
100
AcDbLine
 10
1.988755218122022
 20
1.219884061165792
 30
0.0
 11
1.988755218122022
 21
1.087126686340436
 31
0.0
  0
ARC
  5
29F426F860
330
29F426F8D4
100
AcDbEntity
  8
TEXT
100
AcDbCircle
 10
2.072053154444196
 20
1.116565976625039
 30
0.0
 40
0.0153818062434269
100
AcDbArc
 50
174.7883570302258
 51
270.0
  0
LWPOLYLINE
  5
29F426F861
330
29F426F8D4
100
AcDbEntity
  8
TEXT
100
AcDbPolyline
 90
        2
 70
     0
 43
0.0
 10
1.988755218122021
 20
1.087126686340439
 42
0.3318488747599744
 10
2.057874510687334
 20
1.035575344125511
 42
-6.868794160588311
  0
LINE
  5
29F426F865
330
29F426F8D4
100
AcDbEntity
  8
TEXT
100
AcDbLine
 10
2.213266913376029
 20
1.035575344125511
 30
0.0
 11
2.280324960157869
 21
1.035575344125511
 31
0.0
  0
LINE
  5
29F426F866
330
29F426F8D4
100
AcDbEntity
  8
TEXT
100
AcDbLine
 10
2.213266913376029
 20
1.230217893291147
 30
0.0
 11
2.213266913376029
 21
1.035575344125511
 31
0.0
  0
LINE
  5
29F426F867
330
29F426F8D4
100
AcDbEntity
  8
TEXT
100
AcDbLine
 10
2.155877844386768
 20
1.237771682457257
 30
0.0
 11
2.205713124209916
 21
1.237771682457257
 31
0.0
  0
LINE
  5
29F426F868
330
29F426F8D4
100
AcDbEntity
  8
TEXT
100
AcDbLine
 10
2.155877844386768
 20
1.035575344125511
 30
0.0
 11
2.155877844386768
 21
1.237771682457257
 31
0.0
  0
LWPOLYLINE
  5
29F426F869
330
29F426F8D4
100
AcDbEntity
  8
TEXT
100
AcDbPolyline
 90
        2
 70
     0
 43
0.0
 10
2.205713124209914
 20
1.237771682457257
 42
-0.4142135623731017
 10
2.213266913376028
 20
1.230217893291147
 42
-0.9999999999999998
  0
LINE
  5
29F426F86D
330
29F426F8D4
100
AcDbEntity
  8
TEXT
100
AcDbLine
 10
2.411523124987599
 20
1.237771682457257
 30
0.0
 11
2.411523124987599
 21
1.16271927638305
 31
0.0
  0
LINE
  5
29F426F86E
330
29F426F8D4
100
AcDbEntity
  8
TEXT
100
AcDbLine
 10
2.280324960157869
 20
1.237771682457257
 30
0.0
 11
2.33445855707882
 21
1.237771682457257
 31
0.0
  0
LINE
  5
29F426F86F
330
29F426F8D4
100
AcDbEntity
  8
TEXT
100
AcDbLine
 10
2.280324960157869
 20
1.035575344125511
 30
0.0
 11
2.280324960157869
 21
1.237771682457257
 31
0.0
  0
LWPOLYLINE
  5
29F426F870
330
29F426F8D4
100
AcDbEntity
  8
TEXT
100
AcDbPolyline
 90
        2
 70
     0
 43
0.0
 10
2.334458557078818
 20
1.237771682457257
 42
-0.4142135623731017
 10
2.342012346244931
 20
1.230217893291147
 42
-0.9999999999999998
  0
LWPOLYLINE
  5
29F426F874
330
29F426F8D4
100
AcDbEntity
  8
TEXT
100
AcDbPolyline
 90
        4
 70
     0
 43
0.0
 10
2.342012346244931
 20
1.230217893291147
 10
2.342012346244931
 20
1.035575344125511
 10
2.410490629532789
 20
1.035575344125511
 10
2.410490629532789
 20
1.079066289075949
 42
-1.714843617202739
  0
LINE
  5
29F426F87A
330
29F426F8D4
100
AcDbEntity
  8
TEXT
100
AcDbLine
 10
1.770626461849687
 20
1.302048377114022
 30
0.0
 11
1.770626461849687
 21
1.33643629470816
 31
0.0
  0
LINE
  5
29F426F87B
330
29F426F8D4
100
AcDbEntity
  8
TEXT
100
AcDbLine
 10
1.842425427993594
 20
1.302048377114022
 30
0.0
 11
1.770626461849687
 21
1.302048377114022
 31
0.0
  0
LINE
  5
29F426F87C
330
29F426F8D4
100
AcDbEntity
  8
TEXT
100
AcDbLine
 10
1.989926224624774
 20
1.302048377114022
 30
0.0
 11
1.959804311831398
 21
1.302048377114022
 31
0.0
  0
LINE
  5
29F426F87D
330
29F426F8D4
100
AcDbEntity
  8
TEXT
100
AcDbLine
 10
1.989926224624774
 20
1.370059854852833
 30
0.0
 11
1.989926224624774
 21
1.302048377114022
 31
0.0
  0
LINE
  5
29F426F87E
330
29F426F8D4
100
AcDbEntity
  8
TEXT
100
AcDbLine
 10
2.056734937191139
 20
1.370059854852833
 30
0.0
 11
1.989926224624774
 21
1.370059854852833
 31
0.0
  0
LWPOLYLINE
  5
29F426F87F
330
29F426F8D4
100
AcDbEntity
  8
TEXT
100
AcDbPolyline
 90
        3
 70
     0
 43
0.0
 10
2.377146696789141
 20
1.302048377114026
 10
2.258846537973097
 20
1.302048377114026
 10
2.258846537973097
 20
1.27488088035313
 42
-1.960274751411753
  0
LINE
  5
29F426F884
330
29F426F8D4
100
AcDbEntity
  8
TEXT
100
AcDbLine
 10
2.223064847259935
 20
1.302048377114022
 30
0.0
 11
2.089046791328799
 21
1.302048377114022
 31
0.0
  0
LWPOLYLINE
  5
29F426F885
330
29F426F8D4
100
AcDbEntity
  8
TEXT
100
AcDbPolyline
 90
        2
 70
     0
 43
0.0
 10
2.223064847259935
 20
1.302048377114026
 42
-0.3328679258950098
 10
2.258846537973097
 20
1.27488088035313
 42
6.772930709997214
  0
LINE
  5
29F426F889
330
29F426F8D4
100
AcDbEntity
  8
TEXT
100
AcDbLine
 10
2.412928387502308
 20
1.302048377114022
 30
0.0
 11
2.412928387502308
 21
1.273725831344378
 31
0.0
  0
LWPOLYLINE
  5
29F426F88A
330
29F426F8D4
100
AcDbEntity
  8
TEXT
100
AcDbPolyline
 90
        2
 70
     0
 43
0.0
 10
2.377146696789141
 20
1.302048377114026
 42
-0.3277054968067132
 10
2.412928387502306
 20
1.273725831344382
 42
6.667889725900311
  0
LINE
  5
29F426F88E
330
29F426F8D4
100
AcDbEntity
  8
TEXT
100
AcDbLine
 10
2.626720235594408
 20
1.196836398560595
 30
0.0
 11
2.582969464412506
 21
1.27908667455674
 31
0.0
  0
LINE
  5
29F426F88F
330
29F426F8D4
100
AcDbEntity
  8
TEXT
100
AcDbLine
 10
2.626720235594408
 20
1.302048377114022
 30
0.0
 11
2.626720235594408
 21
1.196836398560595
 31
0.0
  0
LINE
  5
29F426F890
330
29F426F8D4
100
AcDbEntity
  8
TEXT
100
AcDbLine
 10
2.854403974532777
 20
1.226183050702484
 30
0.0
 11
2.854403974532777
 21
1.367512582881623
 31
0.0
  0
LINE
  5
29F426F891
330
29F426F8D4
100
AcDbEntity
  8
TEXT
100
AcDbLine
 10
2.901502133088762
 20
1.302048377114022
 30
0.0
 11
2.854403974532777
 21
1.226183050702484
 31
0.0
  0
LINE
  5
29F426F892
330
29F426F8D4
100
AcDbEntity
  8
TEXT
100
AcDbLine
 10
2.911936849852684
 20
1.192155134173048
 30
0.0
 11
2.97649396581839
 21
1.302048377114022
 31
0.0
  0
LINE
  5
29F426F893
330
29F426F8D4
100
AcDbEntity
  8
TEXT
100
AcDbLine
 10
2.790568983310004
 20
1.035575344125511
 30
0.0
 11
2.854947167628624
 21
1.035575344125511
 31
0.0
  0
LWPOLYLINE
  5
29F426F894
330
29F426F8D4
100
AcDbEntity
  8
TEXT
100
AcDbPolyline
 90
        2
 70
     0
 43
0.0
 10
2.630659912899446
 20
1.079066289075949
 42
-0.2901071551932486
 10
2.587583980031801
 20
1.035575344125511
 42
-5.328517124445184
  0
ARC
  5
29F426F898
330
29F426F8D4
100
AcDbEntity
  8
TEXT
100
AcDbCircle
 10
2.518729398374887
 20
1.209412307457259
 30
0.0
 40
0.028359375
100
AcDbArc
 50
25.78218179591245
 51
90.0
  0
LINE
  5
29F426F899
330
29F426F8D4
100
AcDbEntity
  8
TEXT
100
AcDbLine
 10
2.55453047367901
 20
1.200496708995124
 30
0.0
 11
2.544265713265446
 21
1.221747248567819
 31
0.0
  0
LINE
  5
29F426F89A
330
29F426F8D4
100
AcDbEntity
  8
TEXT
100
AcDbLine
 10
2.472242483895627
 20
1.200496708995124
 30
0.0
 11
2.55453047367901
 21
1.200496708995124
 31
0.0
  0
LWPOLYLINE
  5
29F426F89B
330
29F426F8D4
100
AcDbEntity
  8
TEXT
100
AcDbPolyline
 90
        4
 70
     1
 43
0.0
 10
2.567461514961909
 20
1.138539322109536
 10
2.47880119630205
 20
1.138539322109536
 42
0.9999999999999998
 10
2.47880119630205
 20
1.096140781605676
 10
2.567461514961909
 20
1.096140781605676
 42
1.0
  0
LWPOLYLINE
  5
29F426F8A1
330
29F426F8D4
100
AcDbEntity
  8
TEXT
100
AcDbPolyline
 90
        2
 70
     0
 43
0.0
 10
2.453566562400425
 20
1.035575344125511
 10
2.587583980031801
 20
1.035575344125511
 42
0.9999999999999998
  0
LINE
  5
29F426F8A5
330
29F426F8D4
100
AcDbEntity
  8
TEXT
100
AcDbLine
 10
2.713921002017441
 20
1.237771682457257
 30
0.0
 11
2.790568983309999
 21
1.237771682457257
 31
0.0
  0
LINE
  5
29F426F8A6
330
29F426F8D4
100
AcDbEntity
  8
TEXT
100
AcDbLine
 10
2.790568983309999
 20
1.237771682457257
 30
0.0
 11
2.790568983310004
 21
1.035575344125511
 31
0.0
  0
ARC
  5
29F426F8A7
330
29F426F8D4
100
AcDbEntity
  8
TEXT
100
AcDbCircle
 10
2.713921002017439
 20
1.212865807174594
 30
0.0
 40
0.0249058752826653
100
AcDbArc
 50
89.99971217465335
 51
179.9999999999985
  0
LINE
  5
29F426F8A8
330
29F426F8D4
100
AcDbEntity
  8
TEXT
100
AcDbLine
 10
2.689015126734782
 20
1.035575344125511
 30
0.0
 11
2.689015126734776
 21
1.212865849556979
 31
0.0
  0
LWPOLYLINE
  5
29F426F8A9
330
29F426F8D4
100
AcDbEntity
  8
TEXT
100
AcDbPolyline
 90
        2
 70
     0
 43
0.0
 10
2.630659912899446
 20
1.035575344125511
 10
2.68901512673478
 20
1.035575344125511
  0
LWPOLYLINE
  5
29F426F8AD
330
29F426F8D4
100
AcDbEntity
  8
TEXT
100
AcDbPolyline
 90
        2
 70
     0
 43
0.0
 10
2.630659912899446
 20
1.079066289075949
 10
2.630659912899446
 20
1.035575344125511
  0
LINE
  5
29F426F8B1
330
29F426F8D4
100
AcDbEntity
  8
TEXT
100
AcDbLine
 10
3.007429073216295
 20
1.035575344125511
 30
0.0
 11
2.911936849852684
 21
1.192155134173048
 31
0.0
  0
LINE
  5
29F426F8B2
330
29F426F8D4
100
AcDbEntity
  8
TEXT
100
AcDbLine
 10
2.930850700840089
 20
1.035575344125511
 30
0.0
 11
3.007429073216295
 21
1.035575344125511
 31
0.0
  0
LINE
  5
29F426F8B3
330
29F426F8D4
100
AcDbEntity
  8
TEXT
100
AcDbLine
 10
2.854947167628624
 20
1.167154912601691
 30
0.0
 11
2.930850700840089
 21
1.035575344125511
 31
0.0
  0
LINE
  5
29F426F8B4
330
29F426F8D4
100
AcDbEntity
  8
TEXT
100
AcDbLine
 10
2.854947167628624
 20
1.035575344125511
 30
0.0
 11
2.854947167628624
 21
1.167154912601691
 31
0.0
  0
LINE
  5
29F426F8B5
330
29F426F8D4
100
AcDbEntity
  8
TEXT
100
AcDbLine
 10
2.854403974532777
 20
1.367512582881623
 30
0.0
 11
2.786089095983504
 21
1.367512582881623
 31
0.0
  0
ARC
  5
29F426F8B6
330
29F426F8D4
100
AcDbEntity
  8
TEXT
100
AcDbCircle
 10
2.545733356942298
 20
1.26046480999312
 30
0.0
 40
0.0416329381542859
100
AcDbArc
 50
26.56974201007528
 51
87.20939649401342
  0
LINE
  5
29F426F8B7
330
29F426F8D4
100
AcDbEntity
  8
TEXT
100
AcDbLine
 10
2.690617141893909
 20
1.302048377114022
 30
0.0
 11
2.626720235594408
 21
1.302048377114022
 31
0.0
  0
LINE
  5
29F426F8B8
330
29F426F8D4
100
AcDbEntity
  8
TEXT
100
AcDbLine
 10
2.690617141893909
 20
1.274500727253147
 30
0.0
 11
2.690617141893909
 21
1.302048377114022
 31
0.0
  0
ARC
  5
29F426F8B9
330
29F426F8D4
100
AcDbEntity
  8
TEXT
100
AcDbCircle
 10
2.721809958957017
 20
1.270802649831757
 30
0.0
 40
0.0314112657011332
100
AcDbArc
 50
95.88484768694724
 51
173.2388340632136
  0
LINE
  5
29F426F8BA
330
29F426F8D4
100
AcDbEntity
  8
TEXT
100
AcDbLine
 10
2.786089095983498
 20
1.302048377114022
 30
0.0
 11
2.718589378333982
 21
1.302048377114022
 31
0.0
  0
LINE
  5
29F426F8BB
330
29F426F8D4
100
AcDbEntity
  8
TEXT
100
AcDbLine
 10
2.786089095983504
 20
1.367512582881623
 30
0.0
 11
2.786089095983498
 21
1.302048377114022
 31
0.0
  0
LINE
  5
29F426F8BC
330
29F426F8D4
100
AcDbEntity
  8
TEXT
100
AcDbLine
 10
2.97649396581839
 20
1.302048377114022
 30
0.0
 11
2.901502133088763
 21
1.302048377114022
 31
0.0
  0
ENDSEC
  0
SECTION
  2
OBJECTS
  0
DICTIONARY
  5
29F426F8C8
330
0
100
AcDbDictionary
  3
ACAD_GROUP
350
29F426F8C9
  3
ACAD_LAYOUT
350
29F426F8EE
  3
ACAD_MLINESTYLE
350
29F426F8CA
  3
ACAD_PLOTSETTINGS
350
29F426F8EF
  3
ACAD_PLOTSTYLENAME
350
29F426F8EC
  3
ACDBHEADERROUNDTRIPXREC
350
29F426F8F9
  3
ACDBVARIABLEDICTIONARY
350
29F426F8F6
  0
DICTIONARY
  5
29F426F91B
330
29F426F8D4
100
AcDbDictionary
280
     1
  3
ACAD_LAYOUTSELFREF
360
29F426F91C
  0
DICTIONARY
  5
29F426F919
330
29F426F8D1
100
AcDbDictionary
280
     1
  3
ACAD_LAYOUTSELFREF
360
29F426F91A
  0
DICTIONARY
  5
29F426F8C9
102
{ACAD_REACTORS
330
29F426F8C8
102
}
330
29F426F8C8
100
AcDbDictionary
  0
DICTIONARY
  5
29F426F8EE
102
{ACAD_REACTORS
330
29F426F8C8
102
}
330
29F426F8C8
100
AcDbDictionary
  0
DICTIONARY
  5
29F426F8CA
102
{ACAD_REACTORS
330
29F426F8C8
102
}
330
29F426F8C8
100
AcDbDictionary
  3
STANDARD
350
29F426F8D7
  0
DICTIONARY
  5
29F426F8EF
102
{ACAD_REACTORS
330
29F426F8C8
102
}
330
29F426F8C8
100
AcDbDictionary
  0
ACDBDICTIONARYWDFLT
  5
29F426F8EC
102
{ACAD_REACTORS
330
29F426F8C8
102
}
330
29F426F8C8
100
AcDbDictionary
281
     1
  3
Normal
350
29F426F8ED
100
AcDbDictionaryWithDefault
340
29F426F8ED
  0
DICTIONARY
  5
29F426F8F9
102
{ACAD_REACTORS
330
29F426F8C8
102
}
330
29F426F8C8
100
AcDbDictionary
  3
CEPSNTYPE
350
29F426F903
  3
FINGERPRINTGUID
350
29F426F904
  3
HYPERLINKBASE
350
29F426F8FC
  3
INSUNITS
350
29F426F902
  3
LAYOUTDICT
350
29F426F8FE
  3
LWETCUNION
350
29F426F901
  3
PLOTSETDICT
350
29F426F8FF
  3
PLOTSTYLNAMDICT
350
29F426F900
  3
PSVPSCALE
350
29F426F906
  3
PUCSBASE
350
29F426F909
  3
PUCSORGBACK
350
29F426F90F
  3
PUCSORGBOTTOM
350
29F426F90B
  3
PUCSORGFRONT
350
29F426F90E
  3
PUCSORGLEFT
350
29F426F90C
  3
PUCSORGRIGHT
350
29F426F90D
  3
PUCSORGTOP
350
29F426F90A
  3
PUCSORTHOREF
350
29F426F907
  3
PUCSORTHOVIEW
350
29F426F908
  3
STYLESHEET
350
29F426F8FD
  3
TSTACKALIGN
350
29F426F8FA
  3
TSTACKSIZE
350
29F426F8FB
  3
UCSBASE
350
29F426F912
  3
UCSORGBACK
350
29F426F918
  3
UCSORGBOTTOM
350
29F426F914
  3
UCSORGFRONT
350
29F426F917
  3
UCSORGLEFT
350
29F426F915
  3
UCSORGRIGHT
350
29F426F916
  3
UCSORGTOP
350
29F426F913
  3
UCSORTHOREF
350
29F426F910
  3
UCSORTHOVIEW
350
29F426F911
  3
VERSIONGUID
350
29F426F905
  0
DICTIONARY
  5
29F426F8F6
102
{ACAD_REACTORS
330
29F426F8C8
102
}
330
29F426F8C8
100
AcDbDictionary
  3
DIMASSOC
350
29F426F8F7
  0
XRECORD
  5
29F426F91C
102
{ACAD_REACTORS
330
29F426F91B
102
}
330
29F426F91B
100
AcDbXrecord
340
29F426F8D4
  0
XRECORD
  5
29F426F91A
102
{ACAD_REACTORS
330
29F426F919
102
}
330
29F426F919
100
AcDbXrecord
340
29F426F8D1
  0
MLINESTYLE
  5
29F426F8D7
102
{ACAD_REACTORS
330
29F426F8CA
102
}
330
29F426F8CA
100
AcDbMlineStyle
  2
STANDARD
 70
     0
  3

 62
     0
 51
90.0
 52
90.0
 71
     2
 49
0.5
 62
   256
  6
BYLAYER
 49
-0.5
 62
   256
  6
BYLAYER
  0
ACDBPLACEHOLDER
  5
29F426F8ED
102
{ACAD_REACTORS
330
29F426F8EC
102
}
330
29F426F8EC
100
AcDbPlaceHolder
280
     0
  0
XRECORD
  5
29F426F903
102
{ACAD_REACTORS
330
29F426F8F9
102
}
330
29F426F8F9
100
AcDbXrecord
 90
        0
  0
XRECORD
  5
29F426F904
102
{ACAD_REACTORS
330
29F426F8F9
102
}
330
29F426F8F9
100
AcDbXrecord
  1
{AE1B7410-8DB3-11D6-88E6-0090279574E7}
  0
XRECORD
  5
29F426F8FC
102
{ACAD_REACTORS
330
29F426F8F9
102
}
330
29F426F8F9
100
AcDbXrecord
  1

  0
XRECORD
  5
29F426F902
102
{ACAD_REACTORS
330
29F426F8F9
102
}
330
29F426F8F9
100
AcDbXrecord
 90
        0
  0
XRECORD
  5
29F426F8FE
102
{ACAD_REACTORS
330
29F426F8F9
102
}
330
29F426F8F9
100
AcDbXrecord
340
29F426F8EE
  0
XRECORD
  5
29F426F901
102
{ACAD_REACTORS
330
29F426F8F9
102
}
330
29F426F8F9
100
AcDbXrecord
 90
    14877
  0
XRECORD
  5
29F426F8FF
102
{ACAD_REACTORS
330
29F426F8F9
102
}
330
29F426F8F9
100
AcDbXrecord
340
29F426F8EF
  0
XRECORD
  5
29F426F900
102
{ACAD_REACTORS
330
29F426F8F9
102
}
330
29F426F8F9
100
AcDbXrecord
340
29F426F8EC
  0
XRECORD
  5
29F426F906
102
{ACAD_REACTORS
330
29F426F8F9
102
}
330
29F426F8F9
100
AcDbXrecord
 40
0.0
  0
XRECORD
  5
29F426F909
102
{ACAD_REACTORS
330
29F426F8F9
102
}
330
29F426F8F9
100
AcDbXrecord
340
0
  0
XRECORD
  5
29F426F90F
102
{ACAD_REACTORS
330
29F426F8F9
102
}
330
29F426F8F9
100
AcDbXrecord
 10
0.0
 20
0.0
 30
0.0
  0
XRECORD
  5
29F426F90B
102
{ACAD_REACTORS
330
29F426F8F9
102
}
330
29F426F8F9
100
AcDbXrecord
 10
0.0
 20
0.0
 30
0.0
  0
XRECORD
  5
29F426F90E
102
{ACAD_REACTORS
330
29F426F8F9
102
}
330
29F426F8F9
100
AcDbXrecord
 10
0.0
 20
0.0
 30
0.0
  0
XRECORD
  5
29F426F90C
102
{ACAD_REACTORS
330
29F426F8F9
102
}
330
29F426F8F9
100
AcDbXrecord
 10
0.0
 20
0.0
 30
0.0
  0
XRECORD
  5
29F426F90D
102
{ACAD_REACTORS
330
29F426F8F9
102
}
330
29F426F8F9
100
AcDbXrecord
 10
0.0
 20
0.0
 30
0.0
  0
XRECORD
  5
29F426F90A
102
{ACAD_REACTORS
330
29F426F8F9
102
}
330
29F426F8F9
100
AcDbXrecord
 10
0.0
 20
0.0
 30
0.0
  0
XRECORD
  5
29F426F907
102
{ACAD_REACTORS
330
29F426F8F9
102
}
330
29F426F8F9
100
AcDbXrecord
340
0
  0
XRECORD
  5
29F426F908
102
{ACAD_REACTORS
330
29F426F8F9
102
}
330
29F426F8F9
100
AcDbXrecord
 70
     0
  0
XRECORD
  5
29F426F8FD
102
{ACAD_REACTORS
330
29F426F8F9
102
}
330
29F426F8F9
100
AcDbXrecord
  1

  0
XRECORD
  5
29F426F8FA
102
{ACAD_REACTORS
330
29F426F8F9
102
}
330
29F426F8F9
100
AcDbXrecord
 90
        1
  0
XRECORD
  5
29F426F8FB
102
{ACAD_REACTORS
330
29F426F8F9
102
}
330
29F426F8F9
100
AcDbXrecord
 90
       70
  0
XRECORD
  5
29F426F912
102
{ACAD_REACTORS
330
29F426F8F9
102
}
330
29F426F8F9
100
AcDbXrecord
340
0
  0
XRECORD
  5
29F426F918
102
{ACAD_REACTORS
330
29F426F8F9
102
}
330
29F426F8F9
100
AcDbXrecord
 10
0.0
 20
0.0
 30
0.0
  0
XRECORD
  5
29F426F914
102
{ACAD_REACTORS
330
29F426F8F9
102
}
330
29F426F8F9
100
AcDbXrecord
 10
0.0
 20
0.0
 30
0.0
  0
XRECORD
  5
29F426F917
102
{ACAD_REACTORS
330
29F426F8F9
102
}
330
29F426F8F9
100
AcDbXrecord
 10
0.0
 20
0.0
 30
0.0
  0
XRECORD
  5
29F426F915
102
{ACAD_REACTORS
330
29F426F8F9
102
}
330
29F426F8F9
100
AcDbXrecord
 10
0.0
 20
0.0
 30
0.0
  0
XRECORD
  5
29F426F916
102
{ACAD_REACTORS
330
29F426F8F9
102
}
330
29F426F8F9
100
AcDbXrecord
 10
0.0
 20
0.0
 30
0.0
  0
XRECORD
  5
29F426F913
102
{ACAD_REACTORS
330
29F426F8F9
102
}
330
29F426F8F9
100
AcDbXrecord
 10
0.0
 20
0.0
 30
0.0
  0
XRECORD
  5
29F426F910
102
{ACAD_REACTORS
330
29F426F8F9
102
}
330
29F426F8F9
100
AcDbXrecord
340
0
  0
XRECORD
  5
29F426F911
102
{ACAD_REACTORS
330
29F426F8F9
102
}
330
29F426F8F9
100
AcDbXrecord
 70
     0
  0
XRECORD
  5
29F426F905
102
{ACAD_REACTORS
330
29F426F8F9
102
}
330
29F426F8F9
100
AcDbXrecord
  1
{AE1B7412-8DB3-11D6-88E6-0090279574E7}
  0
DICTIONARYVAR
  5
29F426F8F7
102
{ACAD_REACTORS
330
29F426F8F6
102
}
330
29F426F8F6
100
DictionaryVariables
280
     0
  1
1
  0
ENDSEC
  0
EOF
