  0
SECTION
  2
HEADER
  9
$ACADVER
  1
AC1014
  9
$ACADMAINTVER
 70
     9
  9
$DWGCODEPAGE
  3
ANSI_1252
  9
$INSBASE
 10
2.421875
 20
1.494374999999999
 30
0.0
  9
$EXTMIN
 10
0.6788934207728568
 20
0.7863563959174183
 30
0.0
  9
$EXTMAX
 10
4.164112742519985
 20
1.765625
 30
0.0
  9
$LIMMIN
 10
0.0
 20
0.0
  9
$LIMMAX
 10
18.0
 20
12.0
  9
$ORTHOMODE
 70
     1
  9
$REGENMODE
 70
     1
  9
$FILLMODE
 70
     1
  9
$QTEXTMODE
 70
     0
  9
$MIRRTEXT
 70
     0
  9
$DRAGMODE
 70
     2
  9
$LTSCALE
 40
1.0
  9
$OSMODE
 70
    39
  9
$ATTMODE
 70
     1
  9
$TEXTSIZE
 40
0.125
  9
$TRACEWID
 40
0.05
  9
$TEXTSTYLE
  7
ROMANS
  9
$CLAYER
  8
0
  9
$CELTYPE
  6
BYLAYER
  9
$CECOLOR
 62
   256
  9
$CELTSCALE
 40
1.0
  9
$DELOBJ
 70
     1
  9
$DISPSILH
 70
     1
  9
$DIMSCALE
 40
1.0
  9
$DIMASZ
 40
0.125
  9
$DIMEXO
 40
0.125
  9
$DIMDLI
 40
0.375
  9
$DIMRND
 40
0.0
  9
$DIMDLE
 40
0.0
  9
$DIMEXE
 40
0.125
  9
$DIMTP
 40
0.0
  9
$DIMTM
 40
0.0
  9
$DIMTXT
 40
0.125
  9
$DIMCEN
 40
-0.125
  9
$DIMTSZ
 40
0.0
  9
$DIMTOL
 70
     0
  9
$DIMLIM
 70
     0
  9
$DIMTIH
 70
     1
  9
$DIMTOH
 70
     1
  9
$DIMSE1
 70
     0
  9
$DIMSE2
 70
     0
  9
$DIMTAD
 70
     0
  9
$DIMZIN
 70
     4
  9
$DIMBLK
  1

  9
$DIMASO
 70
     1
  9
$DIMSHO
 70
     1
  9
$DIMPOST
  1

  9
$DIMAPOST
  1

  9
$DIMALT
 70
     0
  9
$DIMALTD
 70
     2
  9
$DIMALTF
 40
25.4
  9
$DIMLFAC
 40
1.0
  9
$DIMTOFL
 70
     0
  9
$DIMTVP
 40
0.0
  9
$DIMTIX
 70
     1
  9
$DIMSOXD
 70
     0
  9
$DIMSAH
 70
     0
  9
$DIMBLK1
  1

  9
$DIMBLK2
  1

  9
$DIMSTYLE
  2
STANDARD
  9
$DIMCLRD
 70
     0
  9
$DIMCLRE
 70
     0
  9
$DIMCLRT
 70
     0
  9
$DIMTFAC
 40
1.0
  9
$DIMGAP
 40
0.09
  9
$DIMJUST
 70
     0
  9
$DIMSD1
 70
     0
  9
$DIMSD2
 70
     0
  9
$DIMTOLJ
 70
     1
  9
$DIMTZIN
 70
     4
  9
$DIMALTZ
 70
     0
  9
$DIMALTTZ
 70
     0
  9
$DIMFIT
 70
     3
  9
$DIMUPT
 70
     0
  9
$DIMUNIT
 70
     2
  9
$DIMDEC
 70
     3
  9
$DIMTDEC
 70
     3
  9
$DIMALTU
 70
     2
  9
$DIMALTTD
 70
     2
  9
$DIMTXSTY
  7
ROMANS
  9
$DIMAUNIT
 70
     0
  9
$LUNITS
 70
     2
  9
$LUPREC
 70
     3
  9
$SKETCHINC
 40
0.1
  9
$FILLETRAD
 40
0.03125
  9
$AUNITS
 70
     0
  9
$AUPREC
 70
     0
  9
$MENU
  1
ACAD
  9
$ELEVATION
 40
0.0
  9
$PELEVATION
 40
0.0
  9
$THICKNESS
 40
0.0
  9
$LIMCHECK
 70
     0
  9
$BLIPMODE
 70
     0
  9
$CHAMFERA
 40
0.0
  9
$CHAMFERB
 40
0.0
  9
$CHAMFERC
 40
0.0
  9
$CHAMFERD
 40
0.0
  9
$SKPOLY
 70
     0
  9
$TDCREATE
 40
2448993.456029629
  9
$TDUPDATE
 40
2452458.293755937
  9
$TDINDWG
 40
0.0006551505
  9
$TDUSRTIMER
 40
0.0006551505
  9
$USRTIMER
 70
     1
  9
$ANGBASE
 50
0.0
  9
$ANGDIR
 70
     0
  9
$PDMODE
 70
     0
  9
$PDSIZE
 40
0.0
  9
$PLINEWID
 40
0.0
  9
$COORDS
 70
     2
  9
$SPLFRAME
 70
     0
  9
$SPLINETYPE
 70
     6
  9
$SPLINESEGS
 70
     8
  9
$ATTDIA
 70
     0
  9
$ATTREQ
 70
     1
  9
$HANDLING
 70
 22529
  9
$HANDSEED
  5
A7D09C9D1
  9
$SURFTAB1
 70
     6
  9
$SURFTAB2
 70
     6
  9
$SURFTYPE
 70
     6
  9
$SURFU
 70
     6
  9
$SURFV
 70
     6
  9
$UCSNAME
  2

  9
$UCSORG
 10
0.0
 20
0.0
 30
0.0
  9
$UCSXDIR
 10
1.0
 20
0.0
 30
0.0
  9
$UCSYDIR
 10
0.0
 20
1.0
 30
0.0
  9
$PUCSNAME
  2

  9
$PUCSORG
 10
0.0
 20
0.0
 30
0.0
  9
$PUCSXDIR
 10
1.0
 20
0.0
 30
0.0
  9
$PUCSYDIR
 10
0.0
 20
1.0
 30
0.0
  9
$USERI1
 70
     0
  9
$USERI2
 70
     0
  9
$USERI3
 70
     0
  9
$USERI4
 70
     0
  9
$USERI5
 70
     0
  9
$USERR1
 40
0.0
  9
$USERR2
 40
0.0
  9
$USERR3
 40
0.0
  9
$USERR4
 40
0.0
  9
$USERR5
 40
0.0
  9
$WORLDVIEW
 70
     1
  9
$SHADEDGE
 70
     3
  9
$SHADEDIF
 70
    70
  9
$TILEMODE
 70
     1
  9
$MAXACTVP
 70
    16
  9
$PINSBASE
 10
1.252203626401225
 20
50.00000000000001
 30
1.027439009705432
  9
$PLIMCHECK
 70
     0
  9
$PEXTMIN
 10
1.000000000000000E+20
 20
1.000000000000000E+20
 30
1.000000000000000E+20
  9
$PEXTMAX
 10
-1.000000000000000E+20
 20
-1.000000000000000E+20
 30
-1.000000000000000E+20
  9
$PLIMMIN
 10
0.0
 20
0.0
  9
$PLIMMAX
 10
12.0
 20
9.0
  9
$UNITMODE
 70
     0
  9
$VISRETAIN
 70
     0
  9
$PLINEGEN
 70
     1
  9
$PSLTSCALE
 70
     0
  9
$TREEDEPTH
 70
  3020
  9
$PICKSTYLE
 70
     1
  9
$CMLSTYLE
  2
STANDARD
  9
$CMLJUST
 70
     0
  9
$CMLSCALE
 40
1.0
  9
$PROXYGRAPHICS
 70
     1
  9
$MEASUREMENT
 70
     0
  0
ENDSEC
  0
SECTION
  2
CLASSES
  0
CLASS
  1
LWPOLYLINE
  2
AcDbPolyline
  3
AutoCAD 2000
 90
        0
280
     0
281
     1
  0
CLASS
  1
ACDBDICTIONARYWDFLT
  2
AcDbDictionaryWithDefault
  3
AutoCAD 2000
 90
        0
280
     0
281
     0
  0
CLASS
  1
ACDBPLACEHOLDER
  2
AcDbPlaceHolder
  3
AutoCAD 2000
 90
        0
280
     0
281
     0
  0
CLASS
  1
LAYOUT
  2
AcDbLayout
  3
AutoCAD 2000
 90
        0
280
     0
281
     0
  0
CLASS
  1
DICTIONARYVAR
  2
AcDbDictionaryVar
  3
AutoCAD 2000
 90
        0
280
     0
281
     0
  0
CLASS
  1
LONG_TRANSACTION
  2
AcDbLongTransaction
  3
AutoCAD 2000
 90
        0
280
     0
281
     0
  0
CLASS
  1
LWPOLYLINE
  2
AcDbPolyline
  3
AutoCAD 2000
 90
        0
280
     0
281
     1
  0
CLASS
  1
HATCH
  2
AcDbHatch
  3
AutoCAD 2000
 90
        0
280
     0
281
     1
  0
CLASS
  1
XRECORD
  2
AcDbXrecord
  3
AutoCAD 2000
 90
        0
280
     0
281
     0
  0
ENDSEC
  0
SECTION
  2
TABLES
  0
TABLE
  2
VPORT
  5
A7D09C978
330
0
100
AcDbSymbolTable
 70
     2
  0
VPORT
  5
A7D09C9AC
330
A7D09C978
100
AcDbSymbolTableRecord
100
AcDbViewportTableRecord
  2
*ACTIVE
 70
     0
 10
0.0
 20
0.0
 11
1.0
 21
1.0
 12
5.397585712937886
 22
1.275878928690076
 13
0.0
 23
0.0
 14
0.015625
 24
0.015625
 15
0.0
 25
0.0
 16
0.0
 26
0.0
 36
1.0
 17
0.0
 27
0.0
 37
0.0
 40
2.282647215150728
 41
4.320930232558139
 42
50.0
 43
0.0
 44
0.0
 50
0.0
 51
0.0
 71
     0
 72
  2000
 73
     1
 74
     0
 75
     1
 76
     0
 77
     0
 78
     0
  0
ENDTAB
  0
TABLE
  2
LTYPE
  5
A7D09C975
330
0
100
AcDbSymbolTable
 70
     1
  0
LTYPE
  5
A7D09C982
330
A7D09C975
100
AcDbSymbolTableRecord
100
AcDbLinetypeTableRecord
  2
BYBLOCK
 70
     0
  3

 72
    65
 73
     0
 40
0.0
  0
LTYPE
  5
A7D09C983
330
A7D09C975
100
AcDbSymbolTableRecord
100
AcDbLinetypeTableRecord
  2
BYLAYER
 70
     0
  3

 72
    65
 73
     0
 40
0.0
  0
LTYPE
  5
A7D09C984
330
A7D09C975
100
AcDbSymbolTableRecord
100
AcDbLinetypeTableRecord
  2
CONTINUOUS
 70
     0
  3
Solid line
 72
    65
 73
     0
 40
0.0
  0
ENDTAB
  0
TABLE
  2
LAYER
  5
A7D09C972
330
0
100
AcDbSymbolTable
 70
     2
  0
LAYER
  5
A7D09C97F
330
A7D09C972
100
AcDbSymbolTableRecord
100
AcDbLayerTableRecord
  2
0
 70
     0
 62
     7
  6
CONTINUOUS
  0
LAYER
  5
A7D09C98F
330
A7D09C972
100
AcDbSymbolTableRecord
100
AcDbLayerTableRecord
  2
TEXT
 70
     0
 62
     3
  6
CONTINUOUS
  0
ENDTAB
  0
TABLE
  2
STYLE
  5
A7D09C973
330
0
100
AcDbSymbolTable
 70
     3
  0
STYLE
  5
A7D09C980
330
A7D09C973
100
AcDbSymbolTableRecord
100
AcDbTextStyleTableRecord
  2
STANDARD
 70
     0
 40
0.0
 41
1.0
 50
0.0
 71
     0
 42
0.3125
  3
txt
  4

  0
STYLE
  5
A7D09C98C
330
A7D09C973
100
AcDbSymbolTableRecord
100
AcDbTextStyleTableRecord
  2
ITALICC
 70
     0
 40
0.0
 41
1.0
 50
0.0
 71
     0
 42
0.125
  3
italicc
  4

  0
STYLE
  5
A7D09C99C
330
A7D09C973
100
AcDbSymbolTableRecord
100
AcDbTextStyleTableRecord
  2
ROMANS
 70
     0
 40
0.0
 41
1.0
 50
0.0
 71
     0
 42
0.125
  3
romans.shx
  4

  0
ENDTAB
  0
TABLE
  2
VIEW
  5
A7D09C976
330
0
100
AcDbSymbolTable
 70
     0
  0
ENDTAB
  0
TABLE
  2
UCS
  5
A7D09C977
330
0
100
AcDbSymbolTable
 70
     0
  0
ENDTAB
  0
TABLE
  2
APPID
  5
A7D09C979
330
0
100
AcDbSymbolTable
 70
     1
  0
APPID
  5
A7D09C981
330
A7D09C979
100
AcDbSymbolTableRecord
100
AcDbRegAppTableRecord
  2
ACAD
 70
     0
  0
ENDTAB
  0
TABLE
  2
DIMSTYLE
  5
A7D09C97A
330
0
100
AcDbSymbolTable
 70
     1
  0
DIMSTYLE
105
A7D09C994
330
A7D09C97A
100
AcDbSymbolTableRecord
100
AcDbDimStyleTableRecord
  2
STANDARD
 70
     0
  3

  4

  5

  6

  7

 40
1.0
 41
0.125
 42
0.125
 43
0.375
 44
0.125
 45
0.0
 46
0.0
 47
0.0
 48
0.0
140
0.125
141
-0.125
142
0.0
143
25.4
144
1.0
145
0.0
146
1.0
147
0.09
 71
     0
 72
     0
 73
     1
 74
     1
 75
     0
 76
     0
 77
     0
 78
     4
170
     0
171
     2
172
     0
173
     0
174
     1
175
     0
176
     0
177
     0
178
     0
270
     2
271
     3
272
     3
273
     2
274
     2
340
A7D09C99C
275
     0
280
     0
281
     0
282
     0
283
     1
284
     4
285
     0
286
     0
287
     3
288
     0
  0
ENDTAB
  0
TABLE
  2
BLOCK_RECORD
  5
A7D09C971
330
0
100
AcDbSymbolTable
 70
     0
  0
BLOCK_RECORD
  5
A7D09C988
102
{ACAD_XDICTIONARY
360
A7D09C9CF
102
}
330
A7D09C971
100
AcDbSymbolTableRecord
100
AcDbBlockTableRecord
  2
*MODEL_SPACE
  0
BLOCK_RECORD
  5
A7D09C985
102
{ACAD_XDICTIONARY
360
A7D09C9CD
102
}
330
A7D09C971
100
AcDbSymbolTableRecord
100
AcDbBlockTableRecord
  2
*PAPER_SPACE
  0
ENDTAB
  0
ENDSEC
  0
SECTION
  2
BLOCKS
  0
BLOCK
  5
A7D09C992
330
A7D09C988
100
AcDbEntity
  8
0
100
AcDbBlockBegin
  2
*MODEL_SPACE
 70
     0
 10
0.0
 20
0.0
 30
0.0
  3
*MODEL_SPACE
  1

  0
ENDBLK
  5
A7D09C993
330
A7D09C988
100
AcDbEntity
  8
0
100
AcDbBlockEnd
  0
BLOCK
  5
A7D09C990
330
A7D09C985
100
AcDbEntity
 67
     1
  8
0
100
AcDbBlockBegin
  2
*PAPER_SPACE
 70
     0
 10
0.0
 20
0.0
 30
0.0
  3
*PAPER_SPACE
  1

  0
ENDBLK
  5
A7D09C991
330
A7D09C985
100
AcDbEntity
 67
     1
  8
0
100
AcDbBlockEnd
  0
ENDSEC
  0
SECTION
  2
ENTITIES
  0
LWPOLYLINE
  5
A7D09B3CB
330
A7D09C988
100
AcDbEntity
  8
0
100
AcDbPolyline
 90
       23
 70
     1
 43
0.0
 10
2.955625
 20
1.735624999999999
 42
-1.0
 10
3.015625
 20
1.735624999999999
 10
3.015625
 20
1.484374999999999
 10
2.431874999999999
 20
1.484374999999999
 10
2.421875
 20
1.494374999999999
 10
2.411875
 20
1.484374999999999
 10
1.828125
 20
1.484375
 10
1.828125
 20
1.735624999999999
 42
-1.0
 10
1.888125
 20
1.735624999999999
 10
1.888125
 20
1.544375
 10
2.110624999999999
 20
1.544375
 10
2.110624999999999
 20
1.614375000000001
 10
2.065624999999999
 20
1.659375
 42
-0.9999999999999966
 10
2.215624999999998
 20
1.659375
 10
2.170624999999999
 20
1.614375000000001
 10
2.170625
 20
1.544375
 10
2.673125
 20
1.544375
 10
2.673124999999999
 20
1.614375000000001
 10
2.628125000000001
 20
1.659375
 42
-0.9999999999999966
 10
2.778125
 20
1.659375
 10
2.733125
 20
1.614375000000001
 10
2.733125
 20
1.544375
 10
2.955624999999999
 20
1.544375
  0
TEXT
  5
A7D09C833
330
A7D09C988
100
AcDbEntity
  8
TEXT
100
AcDbText
 10
1.668898809523809
 20
1.244374999999999
 30
0.0
 40
0.125
  1
PART #110063
  7
ITALICC
 72
     1
 11
2.421875
 21
1.244374999999999
 31
0.0
100
AcDbText
  0
TEXT
  5
A7D09C834
330
A7D09C988
100
AcDbEntity
  8
TEXT
100
AcDbText
 10
2.83518015825032
 20
0.7974523573276247
 30
0.0
 40
0.0522247191011236
  1
Phone  1-800-328-2495
 41
1.272321428571429
 72
     5
 11
4.164112742519984
 21
0.7974523573276247
 31
0.0
100
AcDbText
  0
TEXT
  5
A7D09C835
330
A7D09C988
100
AcDbEntity
  8
TEXT
100
AcDbText
 10
2.83518015825032
 20
1.077227638226501
 30
0.0
 40
0.0522247191011236
  1
Stylmark  Incorporated
 41
1.221428571428573
 72
     5
 11
4.164112742519984
 21
1.077227638226501
 31
0.0
100
AcDbText
  0
TEXT
  5
A7D09C836
330
A7D09C988
100
AcDbEntity
  8
TEXT
100
AcDbText
 10
2.83518015825032
 20
0.983969211260209
 30
0.0
 40
0.0522247191011236
  1
6536 Main St. N.E. * P.O. Box 32008
 41
0.8388932496075366
 72
     5
 11
4.164112742519984
 21
0.983969211260209
 31
0.0
100
AcDbText
  0
TEXT
  5
A7D09C837
330
A7D09C988
100
AcDbEntity
  8
TEXT
100
AcDbText
 10
2.83518015825032
 20
0.8907107842939169
 30
0.0
 40
0.0522247191011236
  1
Minneapolis, MN 55432-0008
 41
1.11444212721585
 72
     5
 11
4.164112742519984
 21
0.8907107842939169
 31
0.0
100
AcDbText
  0
LWPOLYLINE
  5
A7D09C838
330
A7D09C988
100
AcDbEntity
  8
TEXT
100
AcDbPolyline
 90
        3
 70
     0
 43
0.0006660908203125
 10
0.679226466183013
 20
0.9110971199650595
 10
0.679226466183013
 20
0.7978616805119319
 10
0.7924619056361353
 20
0.7978616805119319
  0
LWPOLYLINE
  5
A7D09C83D
330
A7D09C988
100
AcDbEntity
  8
TEXT
100
AcDbPolyline
 90
        3
 70
     0
 43
0.0006660908203125
 10
0.7058700989955105
 20
0.9110971199650595
 10
0.7058700989955105
 20
0.8245053133244329
 10
0.7924619056361353
 20
0.8245053133244329
  0
LWPOLYLINE
  5
A7D09C842
330
A7D09C988
100
AcDbEntity
  8
TEXT
100
AcDbPolyline
 90
        2
 70
     0
 43
0.0001332181640625
 10
0.7524964564173873
 20
0.9210884822697448
 10
0.679226466183013
 20
0.9110971199650595
  0
LWPOLYLINE
  5
A7D09C846
330
A7D09C988
100
AcDbEntity
  8
TEXT
100
AcDbPolyline
 90
        2
 70
     0
 43
0.0001332181640625
 10
0.7058700989955105
 20
0.9110971199650595
 10
0.7658182728236378
 20
0.9210884822697448
  0
LWPOLYLINE
  5
A7D09C84A
330
A7D09C988
100
AcDbEntity
  8
TEXT
100
AcDbPolyline
 90
        2
 70
     0
 43
0.0001332181640625
 10
0.7058700989955105
 20
0.8245053133244329
 10
0.7658182728236378
 20
0.8844534871525585
  0
LWPOLYLINE
  5
A7D09C84E
330
A7D09C988
100
AcDbEntity
  8
TEXT
100
AcDbPolyline
 90
        3
 70
     0
 43
0.0006660908203125
 10
0.7924619056361353
 20
1.064298008636935
 10
0.679226466183013
 20
1.064298008636935
 10
0.679226466183013
 20
0.9510625691838075
  0
LWPOLYLINE
  5
A7D09C853
330
A7D09C988
100
AcDbEntity
  8
TEXT
100
AcDbPolyline
 90
        3
 70
     0
 43
0.0006660908203125
 10
0.7924619056361353
 20
1.037654375824434
 10
0.7058700989955105
 20
1.037654375824434
 10
0.7058700989955105
 20
0.9510625691838075
  0
LWPOLYLINE
  5
A7D09C858
330
A7D09C988
100
AcDbEntity
  8
TEXT
100
AcDbPolyline
 90
        2
 70
     0
 43
0.0001332181640625
 10
0.7058700989955105
 20
1.037654375824434
 10
0.7658182728236361
 20
0.9777062019963086
  0
LWPOLYLINE
  5
A7D09C85C
330
A7D09C988
100
AcDbEntity
  8
TEXT
100
AcDbPolyline
 90
        2
 70
     0
 43
0.0001332181640625
 10
0.7058700989955105
 20
0.9510625691838075
 10
0.7658182728236361
 20
0.9410712068791188
  0
LWPOLYLINE
  5
A7D09C860
330
A7D09C988
100
AcDbEntity
  8
TEXT
100
AcDbPolyline
 90
        2
 70
     0
 43
0.0001332181640625
 10
0.679226466183013
 20
0.9510625691838075
 10
0.7524964564173873
 20
0.9410712068791188
  0
LWPOLYLINE
  5
A7D09C864
330
A7D09C988
100
AcDbEntity
  8
TEXT
100
AcDbPolyline
 90
        2
 70
     0
 43
0.0006660908203125
 10
0.7058700989955105
 20
0.9110971199650595
 10
0.679226466183013
 20
0.9110971199650595
  0
LWPOLYLINE
  5
A7D09C868
330
A7D09C988
100
AcDbEntity
  8
TEXT
100
AcDbPolyline
 90
        2
 70
     0
 43
0.0006660908203125
 10
0.7058700989955105
 20
0.9510625691838075
 10
0.679226466183013
 20
0.9510625691838075
  0
LINE
  5
A7D09C86C
330
A7D09C988
100
AcDbEntity
  8
TEXT
100
AcDbLine
 10
2.19441689530951
 20
1.000021313980166
 30
0.0
 11
2.087210621922221
 21
1.000021313980166
 31
0.0
  0
LINE
  5
A7D09C86D
330
A7D09C988
100
AcDbEntity
  8
TEXT
100
AcDbLine
 10
2.223447793653988
 20
1.064298008636931
 30
0.0
 11
2.088615884436929
 21
1.064298008636931
 31
0.0
  0
ARC
  5
A7D09C86E
330
A7D09C988
100
AcDbEntity
  8
TEXT
100
AcDbCircle
 10
2.147929980830246
 20
0.8950607593739153
 30
0.0
 40
0.0676855811441166
100
AcDbArc
 50
90.0
 51
153.7768192527749
  0
LWPOLYLINE
  5
A7D09C86F
330
A7D09C988
100
AcDbEntity
  8
TEXT
100
AcDbPolyline
 90
        2
 70
     0
 43
0.0
 10
2.086178126467411
 20
0.8413159205988588
 42
0.2901071551932823
 10
2.129254059335046
 20
0.7978249756484206
 42
5.328517124445801
  0
ARC
  5
A7D09C873
330
A7D09C988
100
AcDbEntity
  8
TEXT
100
AcDbCircle
 10
1.44279860315876
 20
0.8576173669864704
 30
0.0
 40
0.0601160179737537
100
AcDbArc
 50
180.0000000000003
 51
264.0521544866073
  0
LINE
  5
A7D09C874
330
A7D09C988
100
AcDbEntity
  8
TEXT
100
AcDbLine
 10
1.446313958784308
 20
1.098685926231069
 30
0.0
 11
1.386271353940301
 21
1.098685926231069
 31
0.0
  0
ARC
  5
A7D09C875
330
A7D09C988
100
AcDbEntity
  8
TEXT
100
AcDbCircle
 10
1.21053960104179
 20
0.9822105491904299
 30
0.0
 40
0.0820874594465043
100
AcDbArc
 50
90.0
 51
270.0
  0
LWPOLYLINE
  5
A7D09C876
330
A7D09C988
100
AcDbEntity
  8
TEXT
100
AcDbPolyline
 90
        2
 70
     0
 43
0.0001332181640625
 10
0.8024532679408258
 20
0.9910280184025555
 10
0.7924619056361353
 20
1.064298008636935
  0
LWPOLYLINE
  5
A7D09C87A
330
A7D09C988
100
AcDbEntity
  8
TEXT
100
AcDbPolyline
 90
        2
 70
     0
 43
0.0001332181640625
 10
0.7924619056361353
 20
1.037654375824434
 10
0.8024532679408258
 20
0.9777062019963086
  0
LWPOLYLINE
  5
A7D09C87E
330
A7D09C988
100
AcDbEntity
  8
TEXT
100
AcDbPolyline
 90
        3
 70
     0
 43
0.0006660908203125
 10
0.9456627943080126
 20
0.9510625691838075
 10
0.9456627943080126
 20
1.064298008636935
 10
0.8324273548548868
 20
1.064298008636935
  0
LWPOLYLINE
  5
A7D09C883
330
A7D09C988
100
AcDbEntity
  8
TEXT
100
AcDbPolyline
 90
        3
 70
     0
 43
0.0006660908203125
 10
0.9190191614955116
 20
0.9510625691838075
 10
0.9190191614955116
 20
1.037654375824434
 10
0.8324273548548868
 20
1.037654375824434
  0
LWPOLYLINE
  5
A7D09C888
330
A7D09C988
100
AcDbEntity
  8
TEXT
100
AcDbPolyline
 90
        2
 70
     0
 43
0.0001332181640625
 10
0.9190191614955116
 20
1.037654375824434
 10
0.8590709876673878
 20
0.9777062019963086
  0
LWPOLYLINE
  5
A7D09C88C
330
A7D09C988
100
AcDbEntity
  8
TEXT
100
AcDbPolyline
 90
        2
 70
     0
 43
0.0001332181640625
 10
0.8324273548548868
 20
1.037654375824434
 10
0.822435992550198
 20
0.9777062019963086
  0
LWPOLYLINE
  5
A7D09C890
330
A7D09C988
100
AcDbEntity
  8
TEXT
100
AcDbPolyline
 90
        2
 70
     0
 43
0.0001332181640625
 10
0.8324273548548868
 20
1.064298008636935
 10
0.822435992550198
 20
0.9910280184025555
  0
LWPOLYLINE
  5
A7D09C894
330
A7D09C988
100
AcDbEntity
  8
TEXT
100
AcDbPolyline
 90
        2
 70
     0
 43
0.0001332181640625
 10
0.8723928040736366
 20
0.9410712068791188
 10
0.9456627943080126
 20
0.9510625691838075
  0
LWPOLYLINE
  5
A7D09C898
330
A7D09C988
100
AcDbEntity
  8
TEXT
100
AcDbPolyline
 90
        2
 70
     0
 43
0.0001332181640625
 10
0.9190191614955116
 20
0.9510625691838075
 10
0.8590709876673878
 20
0.9410712068791188
  0
LWPOLYLINE
  5
A7D09C89C
330
A7D09C988
100
AcDbEntity
  8
TEXT
100
AcDbPolyline
 90
        2
 70
     0
 43
0.0001332181640625
 10
0.9456627943080126
 20
0.9110971199650595
 10
0.8723928040736366
 20
0.9210884822697448
  0
LWPOLYLINE
  5
A7D09C8A0
330
A7D09C988
100
AcDbEntity
  8
TEXT
100
AcDbPolyline
 90
        2
 70
     0
 43
0.0001332181640625
 10
0.9190191614955116
 20
0.9110971199650595
 10
0.8590709876673878
 20
0.9210884822697448
  0
LWPOLYLINE
  5
A7D09C8A4
330
A7D09C988
100
AcDbEntity
  8
TEXT
100
AcDbPolyline
 90
        2
 70
     0
 43
0.0001332181640625
 10
0.9190191614955116
 20
0.8245053133244329
 10
0.8590709876673878
 20
0.8844534871525585
  0
LWPOLYLINE
  5
A7D09C8A8
330
A7D09C988
100
AcDbEntity
  8
TEXT
100
AcDbPolyline
 90
        3
 70
     0
 43
0.0006660908203125
 10
0.8324273548548868
 20
0.8245053133244329
 10
0.9190191614955116
 20
0.8245053133244329
 10
0.9190191614955116
 20
0.9110971199650595
  0
LWPOLYLINE
  5
A7D09C8AD
330
A7D09C988
100
AcDbEntity
  8
TEXT
100
AcDbPolyline
 90
        3
 70
     0
 43
0.0006660908203125
 10
0.8324273548548868
 20
0.7978616805119319
 10
0.9456627943080126
 20
0.7978616805119319
 10
0.9456627943080126
 20
0.9110971199650595
  0
LWPOLYLINE
  5
A7D09C8B2
330
A7D09C988
100
AcDbEntity
  8
TEXT
100
AcDbPolyline
 90
        5
 70
     0
 43
0.0001332181640625
 10
0.8024532679408258
 20
0.871131670746308
 10
0.8024532679408258
 20
0.8844534871525585
 10
0.7658182728236378
 20
0.8844534871525585
 10
0.7658182728236378
 20
0.9210884822697448
 10
0.7524964564173873
 20
0.9210884822697448
  0
LWPOLYLINE
  5
A7D09C8B9
330
A7D09C988
100
AcDbEntity
  8
TEXT
100
AcDbPolyline
 90
        2
 70
     0
 43
0.0006660908203125
 10
0.7924619056361353
 20
0.8245053133244329
 10
0.7924619056361353
 20
0.7978616805119319
  0
LWPOLYLINE
  5
A7D09C8BD
330
A7D09C988
100
AcDbEntity
  8
TEXT
100
AcDbPolyline
 90
        2
 70
     0
 43
0.0001332181640625
 10
0.7924619056361353
 20
0.8245053133244329
 10
0.8024532679408258
 20
0.8844534871525585
  0
LWPOLYLINE
  5
A7D09C8C1
330
A7D09C988
100
AcDbEntity
  8
TEXT
100
AcDbPolyline
 90
        2
 70
     0
 43
0.0001332181640625
 10
0.7924619056361353
 20
0.7978616805119319
 10
0.8024532679408258
 20
0.871131670746308
  0
LWPOLYLINE
  5
A7D09C8C5
330
A7D09C988
100
AcDbEntity
  8
TEXT
100
AcDbPolyline
 90
        5
 70
     0
 43
0.0001332181640625
 10
0.7524964564173873
 20
0.9410712068791188
 10
0.7658182728236361
 20
0.9410712068791188
 10
0.7658182728236361
 20
0.9777062019963086
 10
0.8024532679408258
 20
0.9777062019963086
 10
0.8024532679408258
 20
0.9910280184025555
  0
LWPOLYLINE
  5
A7D09C8CC
330
A7D09C988
100
AcDbEntity
  8
TEXT
100
AcDbPolyline
 90
        5
 70
     0
 43
0.0001332181640625
 10
0.822435992550198
 20
0.9910280184025555
 10
0.822435992550198
 20
0.9777062019963086
 10
0.8590709876673878
 20
0.9777062019963086
 10
0.8590709876673878
 20
0.9410712068791188
 10
0.8723928040736366
 20
0.9410712068791188
  0
LWPOLYLINE
  5
A7D09C8D3
330
A7D09C988
100
AcDbEntity
  8
TEXT
100
AcDbPolyline
 90
        2
 70
     0
 43
0.0001332181640625
 10
0.8324273548548868
 20
0.8245053133244329
 10
0.822435992550198
 20
0.8844534871525585
  0
LWPOLYLINE
  5
A7D09C8D7
330
A7D09C988
100
AcDbEntity
  8
TEXT
100
AcDbPolyline
 90
        2
 70
     0
 43
0.0001332181640625
 10
0.822435992550198
 20
0.871131670746308
 10
0.8324273548548868
 20
0.7978616805119319
  0
LWPOLYLINE
  5
A7D09C8DB
330
A7D09C988
100
AcDbEntity
  8
TEXT
100
AcDbPolyline
 90
        2
 70
     0
 43
0.0006660908203125
 10
0.8324273548548868
 20
0.8245053133244329
 10
0.8324273548548868
 20
0.7978616805119319
  0
LWPOLYLINE
  5
A7D09C8DF
330
A7D09C988
100
AcDbEntity
  8
TEXT
100
AcDbPolyline
 90
        5
 70
     0
 43
0.0001332181640625
 10
0.8723928040736366
 20
0.9210884822697448
 10
0.8590709876673878
 20
0.9210884822697448
 10
0.8590709876673878
 20
0.8844534871525585
 10
0.822435992550198
 20
0.8844534871525585
 10
0.822435992550198
 20
0.871131670746308
  0
LWPOLYLINE
  5
A7D09C8E6
330
A7D09C988
100
AcDbEntity
  8
TEXT
100
AcDbPolyline
 90
        2
 70
     0
 43
0.0006660908203125
 10
0.9190191614955116
 20
0.9510625691838075
 10
0.9456627943080126
 20
0.9510625691838075
  0
LWPOLYLINE
  5
A7D09C8EA
330
A7D09C988
100
AcDbEntity
  8
TEXT
100
AcDbPolyline
 90
        2
 70
     0
 43
0.0006660908203125
 10
0.9190191614955116
 20
0.9110971199650595
 10
0.9456627943080126
 20
0.9110971199650595
  0
LINE
  5
A7D09C8EE
330
A7D09C988
100
AcDbEntity
  8
TEXT
100
AcDbLine
 10
1.215776931156037
 20
1.000021313980166
 30
0.0
 11
1.382682585185008
 21
1.000021313980166
 31
0.0
  0
LINE
  5
A7D09C8EF
330
A7D09C988
100
AcDbEntity
  8
TEXT
100
AcDbLine
 10
1.281377067400338
 20
0.9642165923695383
 30
0.0
 11
1.215776931156037
 21
0.9642165923695383
 31
0.0
  0
LINE
  5
A7D09C8F0
330
A7D09C988
100
AcDbEntity
  8
TEXT
100
AcDbLine
 10
1.128452141595285
 20
0.7978249756484206
 30
0.0
 11
1.281377067400338
 21
0.7978249756484206
 31
0.0
  0
LINE
  5
A7D09C8F1
330
A7D09C988
100
AcDbEntity
  8
TEXT
100
AcDbLine
 10
1.286317441306618
 20
0.86618198198186
 30
0.0
 11
1.128452141595284
 21
0.86618198198186
 31
0.0
  0
LINE
  5
A7D09C8F2
330
A7D09C988
100
AcDbEntity
  8
TEXT
100
AcDbLine
 10
1.210539601041789
 20
0.9001230897439246
 30
0.0
 11
1.286317441306618
 21
0.9001230897439246
 31
0.0
  0
ARC
  5
A7D09C8F3
330
A7D09C988
100
AcDbEntity
  8
TEXT
100
AcDbCircle
 10
1.215776931156038
 20
0.982118953174854
 30
0.0
 40
0.017902360805315
100
AcDbArc
 50
90.0
 51
270.0
  0
LINE
  5
A7D09C8F4
330
A7D09C988
100
AcDbEntity
  8
TEXT
100
AcDbLine
 10
1.128452141595284
 20
0.86618198198186
 30
0.0
 11
1.128452141595285
 21
0.7978249756484206
 31
0.0
  0
LINE
  5
A7D09C8F5
330
A7D09C988
100
AcDbEntity
  8
TEXT
100
AcDbLine
 10
1.382682585185008
 20
1.000021313980166
 30
0.0
 11
1.382682585185008
 21
0.8576173669864704
 31
0.0
  0
ARC
  5
A7D09C8F6
330
A7D09C988
100
AcDbEntity
  8
TEXT
100
AcDbCircle
 10
1.281377067400339
 20
0.8810207840089777
 30
0.0
 40
0.0831958083605586
100
AcDbArc
 50
270.0
 51
90.0
  0
ARC
  5
A7D09C8F7
330
A7D09C988
100
AcDbEntity
  8
TEXT
100
AcDbCircle
 10
1.286317441306619
 20
0.883152535862894
 30
0.0
 40
0.0169705538810321
100
AcDbArc
 50
270.0
 51
90.0
  0
LWPOLYLINE
  5
A7D09C8F8
330
A7D09C988
100
AcDbEntity
  8
TEXT
100
AcDbPolyline
 90
        2
 70
     0
 43
0.0006660908203125
 10
0.7924619056361353
 20
1.037654375824434
 10
0.7924619056361353
 20
1.064298008636935
  0
LWPOLYLINE
  5
A7D09C8FC
330
A7D09C988
100
AcDbEntity
  8
TEXT
100
AcDbPolyline
 90
        2
 70
     0
 43
0.0006660908203125
 10
0.8324273548548868
 20
1.037654375824434
 10
0.8324273548548868
 20
1.064298008636935
  0
LINE
  5
A7D09C900
330
A7D09C988
100
AcDbEntity
  8
TEXT
100
AcDbLine
 10
1.386271353940301
 20
1.064298008636931
 30
0.0
 11
1.210539601041789
 21
1.064298008636931
 31
0.0
  0
LINE
  5
A7D09C901
330
A7D09C988
100
AcDbEntity
  8
TEXT
100
AcDbLine
 10
1.386271353940301
 20
1.098685926231069
 30
0.0
 11
1.386271353940301
 21
1.064298008636931
 31
0.0
  0
LINE
  5
A7D09C902
330
A7D09C988
100
AcDbEntity
  8
TEXT
100
AcDbLine
 10
1.576743245960154
 20
0.963426012523811
 30
0.0
 11
1.518112924928216
 21
1.064298008636931
 31
0.0
  0
LINE
  5
A7D09C903
330
A7D09C988
100
AcDbEntity
  8
TEXT
100
AcDbLine
 10
1.635491808766019
 20
1.064298008636931
 30
0.0
 11
1.576743245960154
 21
0.963426012523811
 31
0.0
  0
LINE
  5
A7D09C904
330
A7D09C988
100
AcDbEntity
  8
TEXT
100
AcDbLine
 10
1.73242243412576
 20
0.8802128137514198
 30
0.0
 11
1.73242243412576
 21
1.132309486375742
 31
0.0
  0
LINE
  5
A7D09C905
330
A7D09C988
100
AcDbEntity
  8
TEXT
100
AcDbLine
 10
1.76473428826342
 20
1.064298008636931
 30
0.0
 11
1.76473428826342
 21
0.8634338019045234
 31
0.0
  0
LINE
  5
A7D09C906
330
A7D09C988
100
AcDbEntity
  8
TEXT
100
AcDbLine
 10
1.76473428826342
 20
0.8634338019045234
 30
0.0
 11
1.747740651378819
 21
0.8634338019045234
 31
0.0
  0
LINE
  5
A7D09C907
330
A7D09C988
100
AcDbEntity
  8
TEXT
100
AcDbLine
 10
1.733562007621955
 20
0.7978249756484206
 30
0.0
 11
1.83156534132139
 21
0.7978249756484206
 31
0.0
  0
LINE
  5
A7D09C908
330
A7D09C988
100
AcDbEntity
  8
TEXT
100
AcDbLine
 10
1.567143008963199
 20
0.8177834817534336
 30
0.0
 11
1.664442715056644
 21
0.9821336926887017
 31
0.0
  0
ARC
  5
A7D09C909
330
A7D09C988
100
AcDbEntity
  8
TEXT
100
AcDbCircle
 10
1.533099449050985
 20
0.8373726979221164
 30
0.0
 40
0.0392772371940762
100
AcDbArc
 50
270.1604552698595
 51
330.0831797321295
  0
LINE
  5
A7D09C90A
330
A7D09C988
100
AcDbEntity
  8
TEXT
100
AcDbLine
 10
1.436569192665114
 20
0.7978249756484206
 30
0.0
 11
1.533209443740108
 21
0.7980956147467029
 31
0.0
  0
LWPOLYLINE
  5
A7D09C90B
330
A7D09C988
100
AcDbEntity
  8
TEXT
100
AcDbPolyline
 90
        6
 70
     1
 43
0.0
 10
1.479092996240264
 20
1.000021313980166
 10
1.448776402020055
 20
1.000021313980166
 10
1.448776402020055
 20
0.8769103159252718
 42
0.407328721240804
 10
1.460320053181532
 20
0.8650914012488858
 10
1.520941752226263
 20
0.8650914012488858
 10
1.538407092633581
 20
0.8979036302923649
  0
LINE
  5
A7D09C913
330
A7D09C988
100
AcDbEntity
  8
TEXT
100
AcDbLine
 10
1.664442715056644
 20
0.9821336926887017
 30
0.0
 11
1.664442715056644
 21
0.8493763178633454
 31
0.0
  0
ARC
  5
A7D09C914
330
A7D09C988
100
AcDbEntity
  8
TEXT
100
AcDbCircle
 10
1.747740651378817
 20
0.8788156081479488
 30
0.0
 40
0.0153818062434269
100
AcDbArc
 50
174.7883570302258
 51
270.0
  0
LWPOLYLINE
  5
A7D09C915
330
A7D09C988
100
AcDbEntity
  8
TEXT
100
AcDbPolyline
 90
        2
 70
     0
 43
0.0
 10
1.664442715056642
 20
0.8493763178633489
 42
0.3318488747599744
 10
1.733562007621955
 20
0.7978249756484206
 42
-6.868794160588311
  0
LINE
  5
A7D09C919
330
A7D09C988
100
AcDbEntity
  8
TEXT
100
AcDbLine
 10
1.888954410310651
 20
0.7978249756484206
 30
0.0
 11
1.956012457092491
 21
0.7978249756484206
 31
0.0
  0
LINE
  5
A7D09C91A
330
A7D09C988
100
AcDbEntity
  8
TEXT
100
AcDbLine
 10
1.888954410310651
 20
0.9924675248140562
 30
0.0
 11
1.888954410310651
 21
0.7978249756484206
 31
0.0
  0
LINE
  5
A7D09C91B
330
A7D09C988
100
AcDbEntity
  8
TEXT
100
AcDbLine
 10
1.83156534132139
 20
1.000021313980166
 30
0.0
 11
1.881400621144537
 21
1.000021313980166
 31
0.0
  0
LINE
  5
A7D09C91C
330
A7D09C988
100
AcDbEntity
  8
TEXT
100
AcDbLine
 10
1.83156534132139
 20
0.7978249756484206
 30
0.0
 11
1.83156534132139
 21
1.000021313980166
 31
0.0
  0
LWPOLYLINE
  5
A7D09C91D
330
A7D09C988
100
AcDbEntity
  8
TEXT
100
AcDbPolyline
 90
        2
 70
     0
 43
0.0
 10
1.881400621144535
 20
1.000021313980166
 42
-0.4142135623731017
 10
1.888954410310649
 20
0.9924675248140562
 42
-0.9999999999999998
  0
LINE
  5
A7D09C921
330
A7D09C988
100
AcDbEntity
  8
TEXT
100
AcDbLine
 10
2.087210621922221
 20
1.000021313980166
 30
0.0
 11
2.087210621922221
 21
0.9249689079059596
 31
0.0
  0
LINE
  5
A7D09C922
330
A7D09C988
100
AcDbEntity
  8
TEXT
100
AcDbLine
 10
1.956012457092491
 20
1.000021313980166
 30
0.0
 11
2.010146054013441
 21
1.000021313980166
 31
0.0
  0
LINE
  5
A7D09C923
330
A7D09C988
100
AcDbEntity
  8
TEXT
100
AcDbLine
 10
1.956012457092491
 20
0.7978249756484206
 30
0.0
 11
1.956012457092491
 21
1.000021313980166
 31
0.0
  0
LWPOLYLINE
  5
A7D09C924
330
A7D09C988
100
AcDbEntity
  8
TEXT
100
AcDbPolyline
 90
        2
 70
     0
 43
0.0
 10
2.010146054013439
 20
1.000021313980166
 42
-0.4142135623731017
 10
2.017699843179553
 20
0.9924675248140562
 42
-0.9999999999999998
  0
LWPOLYLINE
  5
A7D09C928
330
A7D09C988
100
AcDbEntity
  8
TEXT
100
AcDbPolyline
 90
        4
 70
     0
 43
0.0
 10
2.017699843179553
 20
0.9924675248140562
 10
2.017699843179553
 20
0.7978249756484206
 10
2.086178126467411
 20
0.7978249756484206
 10
2.086178126467411
 20
0.8413159205988588
 42
-1.714843617202739
  0
LINE
  5
A7D09C92E
330
A7D09C988
100
AcDbEntity
  8
TEXT
100
AcDbLine
 10
1.446313958784308
 20
1.064298008636931
 30
0.0
 11
1.446313958784308
 21
1.098685926231069
 31
0.0
  0
LINE
  5
A7D09C92F
330
A7D09C988
100
AcDbEntity
  8
TEXT
100
AcDbLine
 10
1.518112924928216
 20
1.064298008636931
 30
0.0
 11
1.446313958784308
 21
1.064298008636931
 31
0.0
  0
LINE
  5
A7D09C930
330
A7D09C988
100
AcDbEntity
  8
TEXT
100
AcDbLine
 10
1.665613721559395
 20
1.064298008636931
 30
0.0
 11
1.635491808766019
 21
1.064298008636931
 31
0.0
  0
LINE
  5
A7D09C931
330
A7D09C988
100
AcDbEntity
  8
TEXT
100
AcDbLine
 10
1.665613721559395
 20
1.132309486375742
 30
0.0
 11
1.665613721559395
 21
1.064298008636931
 31
0.0
  0
LINE
  5
A7D09C932
330
A7D09C988
100
AcDbEntity
  8
TEXT
100
AcDbLine
 10
1.73242243412576
 20
1.132309486375742
 30
0.0
 11
1.665613721559395
 21
1.132309486375742
 31
0.0
  0
LWPOLYLINE
  5
A7D09C933
330
A7D09C988
100
AcDbEntity
  8
TEXT
100
AcDbPolyline
 90
        3
 70
     0
 43
0.0
 10
2.052834193723763
 20
1.064298008636935
 10
1.934534034907718
 20
1.064298008636935
 10
1.934534034907718
 20
1.037130511876039
 42
-1.960274751411753
  0
LINE
  5
A7D09C938
330
A7D09C988
100
AcDbEntity
  8
TEXT
100
AcDbLine
 10
1.898752344194557
 20
1.064298008636931
 30
0.0
 11
1.76473428826342
 21
1.064298008636931
 31
0.0
  0
LWPOLYLINE
  5
A7D09C939
330
A7D09C988
100
AcDbEntity
  8
TEXT
100
AcDbPolyline
 90
        2
 70
     0
 43
0.0
 10
1.898752344194557
 20
1.064298008636935
 42
-0.3328679258950098
 10
1.934534034907718
 20
1.037130511876039
 42
6.772930709997214
  0
LINE
  5
A7D09C93D
330
A7D09C988
100
AcDbEntity
  8
TEXT
100
AcDbLine
 10
2.088615884436929
 20
1.064298008636931
 30
0.0
 11
2.088615884436929
 21
1.035975462867287
 31
0.0
  0
LWPOLYLINE
  5
A7D09C93E
330
A7D09C988
100
AcDbEntity
  8
TEXT
100
AcDbPolyline
 90
        2
 70
     0
 43
0.0
 10
2.052834193723763
 20
1.064298008636935
 42
-0.3277054968067132
 10
2.088615884436928
 20
1.035975462867291
 42
6.667889725900311
  0
LINE
  5
A7D09C942
330
A7D09C988
100
AcDbEntity
  8
TEXT
100
AcDbLine
 10
2.302407732529029
 20
0.9590860300835043
 30
0.0
 11
2.258656961347128
 21
1.041336306079649
 31
0.0
  0
LINE
  5
A7D09C943
330
A7D09C988
100
AcDbEntity
  8
TEXT
100
AcDbLine
 10
2.302407732529029
 20
1.064298008636931
 30
0.0
 11
2.302407732529029
 21
0.9590860300835043
 31
0.0
  0
LINE
  5
A7D09C944
330
A7D09C988
100
AcDbEntity
  8
TEXT
100
AcDbLine
 10
2.530091471467398
 20
0.9884326822253935
 30
0.0
 11
2.530091471467398
 21
1.129762214404532
 31
0.0
  0
LINE
  5
A7D09C945
330
A7D09C988
100
AcDbEntity
  8
TEXT
100
AcDbLine
 10
2.577189630023383
 20
1.064298008636931
 30
0.0
 11
2.530091471467398
 21
0.9884326822253935
 31
0.0
  0
LINE
  5
A7D09C946
330
A7D09C988
100
AcDbEntity
  8
TEXT
100
AcDbLine
 10
2.587624346787306
 20
0.954404765695958
 30
0.0
 11
2.652181462753011
 21
1.064298008636931
 31
0.0
  0
LINE
  5
A7D09C947
330
A7D09C988
100
AcDbEntity
  8
TEXT
100
AcDbLine
 10
2.466256480244625
 20
0.7978249756484206
 30
0.0
 11
2.530634664563246
 21
0.7978249756484206
 31
0.0
  0
LWPOLYLINE
  5
A7D09C948
330
A7D09C988
100
AcDbEntity
  8
TEXT
100
AcDbPolyline
 90
        2
 70
     0
 43
0.0
 10
2.306347409834067
 20
0.8413159205988588
 42
-0.2901071551932486
 10
2.263271476966423
 20
0.7978249756484206
 42
-5.328517124445184
  0
ARC
  5
A7D09C94C
330
A7D09C988
100
AcDbEntity
  8
TEXT
100
AcDbCircle
 10
2.194416895309508
 20
0.9716619389801689
 30
0.0
 40
0.028359375
100
AcDbArc
 50
25.78218179591245
 51
90.0
  0
LINE
  5
A7D09C94D
330
A7D09C988
100
AcDbEntity
  8
TEXT
100
AcDbLine
 10
2.230217970613631
 20
0.9627463405180339
 30
0.0
 11
2.219953210200067
 21
0.9839968800907282
 31
0.0
  0
LINE
  5
A7D09C94E
330
A7D09C988
100
AcDbEntity
  8
TEXT
100
AcDbLine
 10
2.147929980830248
 20
0.9627463405180339
 30
0.0
 11
2.230217970613631
 21
0.9627463405180339
 31
0.0
  0
LWPOLYLINE
  5
A7D09C94F
330
A7D09C988
100
AcDbEntity
  8
TEXT
100
AcDbPolyline
 90
        4
 70
     1
 43
0.0
 10
2.24314901189653
 20
0.9007889536324459
 10
2.154488693236672
 20
0.9007889536324459
 42
0.9999999999999998
 10
2.154488693236672
 20
0.8583904131285851
 10
2.24314901189653
 20
0.8583904131285851
 42
1.0
  0
LWPOLYLINE
  5
A7D09C955
330
A7D09C988
100
AcDbEntity
  8
TEXT
100
AcDbPolyline
 90
        2
 70
     0
 43
0.0
 10
2.129254059335046
 20
0.7978249756484206
 10
2.263271476966423
 20
0.7978249756484206
 42
0.9999999999999998
  0
LINE
  5
A7D09C959
330
A7D09C988
100
AcDbEntity
  8
TEXT
100
AcDbLine
 10
2.389608498952062
 20
1.000021313980166
 30
0.0
 11
2.46625648024462
 21
1.000021313980166
 31
0.0
  0
LINE
  5
A7D09C95A
330
A7D09C988
100
AcDbEntity
  8
TEXT
100
AcDbLine
 10
2.46625648024462
 20
1.000021313980166
 30
0.0
 11
2.466256480244625
 21
0.7978249756484206
 31
0.0
  0
ARC
  5
A7D09C95B
330
A7D09C988
100
AcDbEntity
  8
TEXT
100
AcDbCircle
 10
2.38960849895206
 20
0.9751154386975034
 30
0.0
 40
0.0249058752826653
100
AcDbArc
 50
89.99971217465335
 51
179.9999999999985
  0
LINE
  5
A7D09C95C
330
A7D09C988
100
AcDbEntity
  8
TEXT
100
AcDbLine
 10
2.364702623669403
 20
0.7978249756484206
 30
0.0
 11
2.364702623669398
 21
0.975115481079889
 31
0.0
  0
LWPOLYLINE
  5
A7D09C95D
330
A7D09C988
100
AcDbEntity
  8
TEXT
100
AcDbPolyline
 90
        2
 70
     0
 43
0.0
 10
2.306347409834067
 20
0.7978249756484206
 10
2.364702623669401
 20
0.7978249756484206
  0
LWPOLYLINE
  5
A7D09C961
330
A7D09C988
100
AcDbEntity
  8
TEXT
100
AcDbPolyline
 90
        2
 70
     0
 43
0.0
 10
2.306347409834067
 20
0.8413159205988588
 10
2.306347409834067
 20
0.7978249756484206
  0
LINE
  5
A7D09C965
330
A7D09C988
100
AcDbEntity
  8
TEXT
100
AcDbLine
 10
2.683116570150916
 20
0.7978249756484206
 30
0.0
 11
2.587624346787306
 21
0.954404765695958
 31
0.0
  0
LINE
  5
A7D09C966
330
A7D09C988
100
AcDbEntity
  8
TEXT
100
AcDbLine
 10
2.60653819777471
 20
0.7978249756484206
 30
0.0
 11
2.683116570150916
 21
0.7978249756484206
 31
0.0
  0
LINE
  5
A7D09C967
330
A7D09C988
100
AcDbEntity
  8
TEXT
100
AcDbLine
 10
2.530634664563246
 20
0.9294045441246009
 30
0.0
 11
2.60653819777471
 21
0.7978249756484206
 31
0.0
  0
LINE
  5
A7D09C968
330
A7D09C988
100
AcDbEntity
  8
TEXT
100
AcDbLine
 10
2.530634664563246
 20
0.7978249756484206
 30
0.0
 11
2.530634664563246
 21
0.9294045441246009
 31
0.0
  0
LINE
  5
A7D09C969
330
A7D09C988
100
AcDbEntity
  8
TEXT
100
AcDbLine
 10
2.530091471467398
 20
1.129762214404532
 30
0.0
 11
2.461776592918125
 21
1.129762214404532
 31
0.0
  0
ARC
  5
A7D09C96A
330
A7D09C988
100
AcDbEntity
  8
TEXT
100
AcDbCircle
 10
2.221420853876919
 20
1.022714441516029
 30
0.0
 40
0.0416329381542859
100
AcDbArc
 50
26.56974201007528
 51
87.20939649401342
  0
LINE
  5
A7D09C96B
330
A7D09C988
100
AcDbEntity
  8
TEXT
100
AcDbLine
 10
2.36630463882853
 20
1.064298008636931
 30
0.0
 11
2.302407732529029
 21
1.064298008636931
 31
0.0
  0
LINE
  5
A7D09C96C
330
A7D09C988
100
AcDbEntity
  8
TEXT
100
AcDbLine
 10
2.36630463882853
 20
1.036750358776056
 30
0.0
 11
2.36630463882853
 21
1.064298008636931
 31
0.0
  0
ARC
  5
A7D09C96D
330
A7D09C988
100
AcDbEntity
  8
TEXT
100
AcDbCircle
 10
2.397497455891638
 20
1.033052281354666
 30
0.0
 40
0.0314112657011332
100
AcDbArc
 50
95.88484768694724
 51
173.2388340632136
  0
LINE
  5
A7D09C96E
330
A7D09C988
100
AcDbEntity
  8
TEXT
100
AcDbLine
 10
2.46177659291812
 20
1.064298008636931
 30
0.0
 11
2.394276875268603
 21
1.064298008636931
 31
0.0
  0
LINE
  5
A7D09C96F
330
A7D09C988
100
AcDbEntity
  8
TEXT
100
AcDbLine
 10
2.461776592918125
 20
1.129762214404532
 30
0.0
 11
2.46177659291812
 21
1.064298008636931
 31
0.0
  0
LINE
  5
A7D09C970
330
A7D09C988
100
AcDbEntity
  8
TEXT
100
AcDbLine
 10
2.652181462753011
 20
1.064298008636931
 30
0.0
 11
2.577189630023385
 21
1.064298008636931
 31
0.0
  0
ENDSEC
  0
SECTION
  2
OBJECTS
  0
DICTIONARY
  5
A7D09C97C
330
0
100
AcDbDictionary
  3
ACAD_GROUP
350
A7D09C97D
  3
ACAD_LAYOUT
350
A7D09C9A2
  3
ACAD_MLINESTYLE
350
A7D09C97E
  3
ACAD_PLOTSETTINGS
350
A7D09C9A3
  3
ACAD_PLOTSTYLENAME
350
A7D09C9A0
  3
ACDBHEADERROUNDTRIPXREC
350
A7D09C9AD
  3
ACDBVARIABLEDICTIONARY
350
A7D09C9AA
  0
DICTIONARY
  5
A7D09C9CF
330
A7D09C988
100
AcDbDictionary
280
     1
  3
ACAD_LAYOUTSELFREF
360
A7D09C9D0
  0
DICTIONARY
  5
A7D09C9CD
330
A7D09C985
100
AcDbDictionary
280
     1
  3
ACAD_LAYOUTSELFREF
360
A7D09C9CE
  0
DICTIONARY
  5
A7D09C97D
102
{ACAD_REACTORS
330
A7D09C97C
102
}
330
A7D09C97C
100
AcDbDictionary
  0
DICTIONARY
  5
A7D09C9A2
102
{ACAD_REACTORS
330
A7D09C97C
102
}
330
A7D09C97C
100
AcDbDictionary
  0
DICTIONARY
  5
A7D09C97E
102
{ACAD_REACTORS
330
A7D09C97C
102
}
330
A7D09C97C
100
AcDbDictionary
  3
STANDARD
350
A7D09C98B
  0
DICTIONARY
  5
A7D09C9A3
102
{ACAD_REACTORS
330
A7D09C97C
102
}
330
A7D09C97C
100
AcDbDictionary
  0
ACDBDICTIONARYWDFLT
  5
A7D09C9A0
102
{ACAD_REACTORS
330
A7D09C97C
102
}
330
A7D09C97C
100
AcDbDictionary
281
     1
  3
Normal
350
A7D09C9A1
100
AcDbDictionaryWithDefault
340
A7D09C9A1
  0
DICTIONARY
  5
A7D09C9AD
102
{ACAD_REACTORS
330
A7D09C97C
102
}
330
A7D09C97C
100
AcDbDictionary
  3
CEPSNTYPE
350
A7D09C9B7
  3
FINGERPRINTGUID
350
A7D09C9B8
  3
HYPERLINKBASE
350
A7D09C9B0
  3
INSUNITS
350
A7D09C9B6
  3
LAYOUTDICT
350
A7D09C9B2
  3
LWETCUNION
350
A7D09C9B5
  3
PLOTSETDICT
350
A7D09C9B3
  3
PLOTSTYLNAMDICT
350
A7D09C9B4
  3
PSVPSCALE
350
A7D09C9BA
  3
PUCSBASE
350
A7D09C9BD
  3
PUCSORGBACK
350
A7D09C9C3
  3
PUCSORGBOTTOM
350
A7D09C9BF
  3
PUCSORGFRONT
350
A7D09C9C2
  3
PUCSORGLEFT
350
A7D09C9C0
  3
PUCSORGRIGHT
350
A7D09C9C1
  3
PUCSORGTOP
350
A7D09C9BE
  3
PUCSORTHOREF
350
A7D09C9BB
  3
PUCSORTHOVIEW
350
A7D09C9BC
  3
STYLESHEET
350
A7D09C9B1
  3
TSTACKALIGN
350
A7D09C9AE
  3
TSTACKSIZE
350
A7D09C9AF
  3
UCSBASE
350
A7D09C9C6
  3
UCSORGBACK
350
A7D09C9CC
  3
UCSORGBOTTOM
350
A7D09C9C8
  3
UCSORGFRONT
350
A7D09C9CB
  3
UCSORGLEFT
350
A7D09C9C9
  3
UCSORGRIGHT
350
A7D09C9CA
  3
UCSORGTOP
350
A7D09C9C7
  3
UCSORTHOREF
350
A7D09C9C4
  3
UCSORTHOVIEW
350
A7D09C9C5
  3
VERSIONGUID
350
A7D09C9B9
  0
DICTIONARY
  5
A7D09C9AA
102
{ACAD_REACTORS
330
A7D09C97C
102
}
330
A7D09C97C
100
AcDbDictionary
  3
DIMASSOC
350
A7D09C9AB
  0
XRECORD
  5
A7D09C9D0
102
{ACAD_REACTORS
330
A7D09C9CF
102
}
330
A7D09C9CF
100
AcDbXrecord
340
A7D09C988
  0
XRECORD
  5
A7D09C9CE
102
{ACAD_REACTORS
330
A7D09C9CD
102
}
330
A7D09C9CD
100
AcDbXrecord
340
A7D09C985
  0
MLINESTYLE
  5
A7D09C98B
102
{ACAD_REACTORS
330
A7D09C97E
102
}
330
A7D09C97E
100
AcDbMlineStyle
  2
STANDARD
 70
     0
  3

 62
     0
 51
90.0
 52
90.0
 71
     2
 49
0.5
 62
   256
  6
BYLAYER
 49
-0.5
 62
   256
  6
BYLAYER
  0
ACDBPLACEHOLDER
  5
A7D09C9A1
102
{ACAD_REACTORS
330
A7D09C9A0
102
}
330
A7D09C9A0
100
AcDbPlaceHolder
280
     0
  0
XRECORD
  5
A7D09C9B7
102
{ACAD_REACTORS
330
A7D09C9AD
102
}
330
A7D09C9AD
100
AcDbXrecord
 90
        0
  0
XRECORD
  5
A7D09C9B8
102
{ACAD_REACTORS
330
A7D09C9AD
102
}
330
A7D09C9AD
100
AcDbXrecord
  1
{A61D5C00-8DB3-11D6-88E6-0090279574E7}
  0
XRECORD
  5
A7D09C9B0
102
{ACAD_REACTORS
330
A7D09C9AD
102
}
330
A7D09C9AD
100
AcDbXrecord
  1

  0
XRECORD
  5
A7D09C9B6
102
{ACAD_REACTORS
330
A7D09C9AD
102
}
330
A7D09C9AD
100
AcDbXrecord
 90
        0
  0
XRECORD
  5
A7D09C9B2
102
{ACAD_REACTORS
330
A7D09C9AD
102
}
330
A7D09C9AD
100
AcDbXrecord
340
A7D09C9A2
  0
XRECORD
  5
A7D09C9B5
102
{ACAD_REACTORS
330
A7D09C9AD
102
}
330
A7D09C9AD
100
AcDbXrecord
 90
    14877
  0
XRECORD
  5
A7D09C9B3
102
{ACAD_REACTORS
330
A7D09C9AD
102
}
330
A7D09C9AD
100
AcDbXrecord
340
A7D09C9A3
  0
XRECORD
  5
A7D09C9B4
102
{ACAD_REACTORS
330
A7D09C9AD
102
}
330
A7D09C9AD
100
AcDbXrecord
340
A7D09C9A0
  0
XRECORD
  5
A7D09C9BA
102
{ACAD_REACTORS
330
A7D09C9AD
102
}
330
A7D09C9AD
100
AcDbXrecord
 40
0.0
  0
XRECORD
  5
A7D09C9BD
102
{ACAD_REACTORS
330
A7D09C9AD
102
}
330
A7D09C9AD
100
AcDbXrecord
340
0
  0
XRECORD
  5
A7D09C9C3
102
{ACAD_REACTORS
330
A7D09C9AD
102
}
330
A7D09C9AD
100
AcDbXrecord
 10
0.0
 20
0.0
 30
0.0
  0
XRECORD
  5
A7D09C9BF
102
{ACAD_REACTORS
330
A7D09C9AD
102
}
330
A7D09C9AD
100
AcDbXrecord
 10
0.0
 20
0.0
 30
0.0
  0
XRECORD
  5
A7D09C9C2
102
{ACAD_REACTORS
330
A7D09C9AD
102
}
330
A7D09C9AD
100
AcDbXrecord
 10
0.0
 20
0.0
 30
0.0
  0
XRECORD
  5
A7D09C9C0
102
{ACAD_REACTORS
330
A7D09C9AD
102
}
330
A7D09C9AD
100
AcDbXrecord
 10
0.0
 20
0.0
 30
0.0
  0
XRECORD
  5
A7D09C9C1
102
{ACAD_REACTORS
330
A7D09C9AD
102
}
330
A7D09C9AD
100
AcDbXrecord
 10
0.0
 20
0.0
 30
0.0
  0
XRECORD
  5
A7D09C9BE
102
{ACAD_REACTORS
330
A7D09C9AD
102
}
330
A7D09C9AD
100
AcDbXrecord
 10
0.0
 20
0.0
 30
0.0
  0
XRECORD
  5
A7D09C9BB
102
{ACAD_REACTORS
330
A7D09C9AD
102
}
330
A7D09C9AD
100
AcDbXrecord
340
0
  0
XRECORD
  5
A7D09C9BC
102
{ACAD_REACTORS
330
A7D09C9AD
102
}
330
A7D09C9AD
100
AcDbXrecord
 70
     0
  0
XRECORD
  5
A7D09C9B1
102
{ACAD_REACTORS
330
A7D09C9AD
102
}
330
A7D09C9AD
100
AcDbXrecord
  1

  0
XRECORD
  5
A7D09C9AE
102
{ACAD_REACTORS
330
A7D09C9AD
102
}
330
A7D09C9AD
100
AcDbXrecord
 90
        1
  0
XRECORD
  5
A7D09C9AF
102
{ACAD_REACTORS
330
A7D09C9AD
102
}
330
A7D09C9AD
100
AcDbXrecord
 90
       70
  0
XRECORD
  5
A7D09C9C6
102
{ACAD_REACTORS
330
A7D09C9AD
102
}
330
A7D09C9AD
100
AcDbXrecord
340
0
  0
XRECORD
  5
A7D09C9CC
102
{ACAD_REACTORS
330
A7D09C9AD
102
}
330
A7D09C9AD
100
AcDbXrecord
 10
0.0
 20
0.0
 30
0.0
  0
XRECORD
  5
A7D09C9C8
102
{ACAD_REACTORS
330
A7D09C9AD
102
}
330
A7D09C9AD
100
AcDbXrecord
 10
0.0
 20
0.0
 30
0.0
  0
XRECORD
  5
A7D09C9CB
102
{ACAD_REACTORS
330
A7D09C9AD
102
}
330
A7D09C9AD
100
AcDbXrecord
 10
0.0
 20
0.0
 30
0.0
  0
XRECORD
  5
A7D09C9C9
102
{ACAD_REACTORS
330
A7D09C9AD
102
}
330
A7D09C9AD
100
AcDbXrecord
 10
0.0
 20
0.0
 30
0.0
  0
XRECORD
  5
A7D09C9CA
102
{ACAD_REACTORS
330
A7D09C9AD
102
}
330
A7D09C9AD
100
AcDbXrecord
 10
0.0
 20
0.0
 30
0.0
  0
XRECORD
  5
A7D09C9C7
102
{ACAD_REACTORS
330
A7D09C9AD
102
}
330
A7D09C9AD
100
AcDbXrecord
 10
0.0
 20
0.0
 30
0.0
  0
XRECORD
  5
A7D09C9C4
102
{ACAD_REACTORS
330
A7D09C9AD
102
}
330
A7D09C9AD
100
AcDbXrecord
340
0
  0
XRECORD
  5
A7D09C9C5
102
{ACAD_REACTORS
330
A7D09C9AD
102
}
330
A7D09C9AD
100
AcDbXrecord
 70
     0
  0
XRECORD
  5
A7D09C9B9
102
{ACAD_REACTORS
330
A7D09C9AD
102
}
330
A7D09C9AD
100
AcDbXrecord
  1
{A61D5C02-8DB3-11D6-88E6-0090279574E7}
  0
DICTIONARYVAR
  5
A7D09C9AB
102
{ACAD_REACTORS
330
A7D09C9AA
102
}
330
A7D09C9AA
100
DictionaryVariables
280
     0
  1
1
  0
ENDSEC
  0
EOF
