  0
SECTION
  2
HEADER
  9
$ACADVER
  1
AC1014
  9
$ACADMAINTVER
 70
     9
  9
$DWGCODEPAGE
  3
ANSI_1252
  9
$INSBASE
 10
1.622125
 20
1.2025
 30
0.0
  9
$EXTMIN
 10
-0.1208565792271432
 20
0.353856395917419
 30
0.0
  9
$EXTMAX
 10
3.364362742519984
 20
1.5625
 30
0.0
  9
$LIMMIN
 10
0.0
 20
0.0
  9
$LIMMAX
 10
18.0
 20
12.0
  9
$ORTHOMODE
 70
     1
  9
$REGENMODE
 70
     1
  9
$FILLMODE
 70
     1
  9
$QTEXTMODE
 70
     0
  9
$MIRRTEXT
 70
     0
  9
$DRAGMODE
 70
     2
  9
$LTSCALE
 40
1.0
  9
$OSMODE
 70
    39
  9
$ATTMODE
 70
     1
  9
$TEXTSIZE
 40
0.125
  9
$TRACEWID
 40
0.05
  9
$TEXTSTYLE
  7
ROMANS
  9
$CLAYER
  8
0
  9
$CELTYPE
  6
BYLAYER
  9
$CECOLOR
 62
   256
  9
$CELTSCALE
 40
1.0
  9
$DELOBJ
 70
     1
  9
$DISPSILH
 70
     1
  9
$DIMSCALE
 40
1.0
  9
$DIMASZ
 40
0.125
  9
$DIMEXO
 40
0.125
  9
$DIMDLI
 40
0.375
  9
$DIMRND
 40
0.0
  9
$DIMDLE
 40
0.0
  9
$DIMEXE
 40
0.125
  9
$DIMTP
 40
0.0
  9
$DIMTM
 40
0.0
  9
$DIMTXT
 40
0.125
  9
$DIMCEN
 40
-0.125
  9
$DIMTSZ
 40
0.0
  9
$DIMTOL
 70
     0
  9
$DIMLIM
 70
     0
  9
$DIMTIH
 70
     1
  9
$DIMTOH
 70
     1
  9
$DIMSE1
 70
     0
  9
$DIMSE2
 70
     0
  9
$DIMTAD
 70
     0
  9
$DIMZIN
 70
     4
  9
$DIMBLK
  1

  9
$DIMASO
 70
     1
  9
$DIMSHO
 70
     1
  9
$DIMPOST
  1

  9
$DIMAPOST
  1

  9
$DIMALT
 70
     0
  9
$DIMALTD
 70
     2
  9
$DIMALTF
 40
25.4
  9
$DIMLFAC
 40
1.0
  9
$DIMTOFL
 70
     0
  9
$DIMTVP
 40
0.0
  9
$DIMTIX
 70
     1
  9
$DIMSOXD
 70
     0
  9
$DIMSAH
 70
     0
  9
$DIMBLK1
  1

  9
$DIMBLK2
  1

  9
$DIMSTYLE
  2
STANDARD
  9
$DIMCLRD
 70
     0
  9
$DIMCLRE
 70
     0
  9
$DIMCLRT
 70
     0
  9
$DIMTFAC
 40
1.0
  9
$DIMGAP
 40
0.09
  9
$DIMJUST
 70
     0
  9
$DIMSD1
 70
     0
  9
$DIMSD2
 70
     0
  9
$DIMTOLJ
 70
     1
  9
$DIMTZIN
 70
     4
  9
$DIMALTZ
 70
     0
  9
$DIMALTTZ
 70
     0
  9
$DIMFIT
 70
     3
  9
$DIMUPT
 70
     0
  9
$DIMUNIT
 70
     2
  9
$DIMDEC
 70
     3
  9
$DIMTDEC
 70
     3
  9
$DIMALTU
 70
     2
  9
$DIMALTTD
 70
     2
  9
$DIMTXSTY
  7
ROMANS
  9
$DIMAUNIT
 70
     0
  9
$LUNITS
 70
     2
  9
$LUPREC
 70
     3
  9
$SKETCHINC
 40
0.1
  9
$FILLETRAD
 40
0.03125
  9
$AUNITS
 70
     0
  9
$AUPREC
 70
     0
  9
$MENU
  1
ACAD
  9
$ELEVATION
 40
0.0
  9
$PELEVATION
 40
0.0
  9
$THICKNESS
 40
0.0
  9
$LIMCHECK
 70
     0
  9
$BLIPMODE
 70
     0
  9
$CHAMFERA
 40
0.0
  9
$CHAMFERB
 40
0.0
  9
$CHAMFERC
 40
0.0
  9
$CHAMFERD
 40
0.0
  9
$SKPOLY
 70
     0
  9
$TDCREATE
 40
2448993.455018287
  9
$TDUPDATE
 40
2452458.293676770
  9
$TDINDWG
 40
0.0006799421
  9
$TDUSRTIMER
 40
0.0006799421
  9
$USRTIMER
 70
     1
  9
$ANGBASE
 50
0.0
  9
$ANGDIR
 70
     0
  9
$PDMODE
 70
     0
  9
$PDSIZE
 40
0.0
  9
$PLINEWID
 40
0.0
  9
$COORDS
 70
     2
  9
$SPLFRAME
 70
     0
  9
$SPLINETYPE
 70
     6
  9
$SPLINESEGS
 70
     8
  9
$ATTDIA
 70
     0
  9
$ATTREQ
 70
     1
  9
$HANDLING
 70
 22529
  9
$HANDSEED
  5
53E84EC11
  9
$SURFTAB1
 70
     6
  9
$SURFTAB2
 70
     6
  9
$SURFTYPE
 70
     6
  9
$SURFU
 70
     6
  9
$SURFV
 70
     6
  9
$UCSNAME
  2

  9
$UCSORG
 10
0.0
 20
0.0
 30
0.0
  9
$UCSXDIR
 10
1.0
 20
0.0
 30
0.0
  9
$UCSYDIR
 10
0.0
 20
1.0
 30
0.0
  9
$PUCSNAME
  2

  9
$PUCSORG
 10
0.0
 20
0.0
 30
0.0
  9
$PUCSXDIR
 10
1.0
 20
0.0
 30
0.0
  9
$PUCSYDIR
 10
0.0
 20
1.0
 30
0.0
  9
$USERI1
 70
     0
  9
$USERI2
 70
     0
  9
$USERI3
 70
     0
  9
$USERI4
 70
     0
  9
$USERI5
 70
     0
  9
$USERR1
 40
0.0
  9
$USERR2
 40
0.0
  9
$USERR3
 40
0.0
  9
$USERR4
 40
0.0
  9
$USERR5
 40
0.0
  9
$WORLDVIEW
 70
     1
  9
$SHADEDGE
 70
     3
  9
$SHADEDIF
 70
    70
  9
$TILEMODE
 70
     1
  9
$MAXACTVP
 70
    16
  9
$PINSBASE
 10
1.22173639959574
 20
50.00000000000001
 30
1.637195123428941
  9
$PLIMCHECK
 70
     0
  9
$PEXTMIN
 10
1.000000000000000E+20
 20
1.000000000000000E+20
 30
1.000000000000000E+20
  9
$PEXTMAX
 10
-1.000000000000000E+20
 20
-1.000000000000000E+20
 30
-1.000000000000000E+20
  9
$PLIMMIN
 10
0.0
 20
0.0
  9
$PLIMMAX
 10
12.0
 20
9.0
  9
$UNITMODE
 70
     0
  9
$VISRETAIN
 70
     0
  9
$PLINEGEN
 70
     1
  9
$PSLTSCALE
 70
     0
  9
$TREEDEPTH
 70
  3020
  9
$PICKSTYLE
 70
     1
  9
$CMLSTYLE
  2
STANDARD
  9
$CMLJUST
 70
     0
  9
$CMLSCALE
 40
1.0
  9
$PROXYGRAPHICS
 70
     1
  9
$MEASUREMENT
 70
     0
  0
ENDSEC
  0
SECTION
  2
CLASSES
  0
CLASS
  1
LWPOLYLINE
  2
AcDbPolyline
  3
AutoCAD 2000
 90
        0
280
     0
281
     1
  0
CLASS
  1
ACDBDICTIONARYWDFLT
  2
AcDbDictionaryWithDefault
  3
AutoCAD 2000
 90
        0
280
     0
281
     0
  0
CLASS
  1
ACDBPLACEHOLDER
  2
AcDbPlaceHolder
  3
AutoCAD 2000
 90
        0
280
     0
281
     0
  0
CLASS
  1
LAYOUT
  2
AcDbLayout
  3
AutoCAD 2000
 90
        0
280
     0
281
     0
  0
CLASS
  1
DICTIONARYVAR
  2
AcDbDictionaryVar
  3
AutoCAD 2000
 90
        0
280
     0
281
     0
  0
CLASS
  1
LONG_TRANSACTION
  2
AcDbLongTransaction
  3
AutoCAD 2000
 90
        0
280
     0
281
     0
  0
CLASS
  1
LWPOLYLINE
  2
AcDbPolyline
  3
AutoCAD 2000
 90
        0
280
     0
281
     1
  0
CLASS
  1
HATCH
  2
AcDbHatch
  3
AutoCAD 2000
 90
        0
280
     0
281
     1
  0
CLASS
  1
XRECORD
  2
AcDbXrecord
  3
AutoCAD 2000
 90
        0
280
     0
281
     0
  0
ENDSEC
  0
SECTION
  2
TABLES
  0
TABLE
  2
VPORT
  5
53E84EBB8
330
0
100
AcDbSymbolTable
 70
     2
  0
VPORT
  5
53E84EBEC
330
53E84EBB8
100
AcDbSymbolTableRecord
100
AcDbViewportTableRecord
  2
*ACTIVE
 70
     0
 10
0.0
 20
0.0
 11
1.0
 21
1.0
 12
4.598195787084107
 22
0.9581909400389889
 13
0.0
 23
0.0
 14
0.015625
 24
0.015625
 15
0.0
 25
0.0
 16
0.0
 26
0.0
 36
1.0
 17
0.0
 27
0.0
 37
0.0
 40
2.282587294085997
 41
4.320930232558139
 42
50.0
 43
0.0
 44
0.0
 50
0.0
 51
0.0
 71
     0
 72
  2000
 73
     1
 74
     0
 75
     1
 76
     0
 77
     0
 78
     0
  0
ENDTAB
  0
TABLE
  2
LTYPE
  5
53E84EBB5
330
0
100
AcDbSymbolTable
 70
     1
  0
LTYPE
  5
53E84EBC2
330
53E84EBB5
100
AcDbSymbolTableRecord
100
AcDbLinetypeTableRecord
  2
BYBLOCK
 70
     0
  3

 72
    65
 73
     0
 40
0.0
  0
LTYPE
  5
53E84EBC3
330
53E84EBB5
100
AcDbSymbolTableRecord
100
AcDbLinetypeTableRecord
  2
BYLAYER
 70
     0
  3

 72
    65
 73
     0
 40
0.0
  0
LTYPE
  5
53E84EBC4
330
53E84EBB5
100
AcDbSymbolTableRecord
100
AcDbLinetypeTableRecord
  2
CONTINUOUS
 70
     0
  3
Solid line
 72
    65
 73
     0
 40
0.0
  0
ENDTAB
  0
TABLE
  2
LAYER
  5
53E84EBB2
330
0
100
AcDbSymbolTable
 70
     2
  0
LAYER
  5
53E84EBBF
330
53E84EBB2
100
AcDbSymbolTableRecord
100
AcDbLayerTableRecord
  2
0
 70
     0
 62
     7
  6
CONTINUOUS
  0
LAYER
  5
53E84EBCF
330
53E84EBB2
100
AcDbSymbolTableRecord
100
AcDbLayerTableRecord
  2
TEXT
 70
     0
 62
     3
  6
CONTINUOUS
  0
ENDTAB
  0
TABLE
  2
STYLE
  5
53E84EBB3
330
0
100
AcDbSymbolTable
 70
     3
  0
STYLE
  5
53E84EBC0
330
53E84EBB3
100
AcDbSymbolTableRecord
100
AcDbTextStyleTableRecord
  2
STANDARD
 70
     0
 40
0.0
 41
1.0
 50
0.0
 71
     0
 42
0.3125
  3
txt
  4

  0
STYLE
  5
53E84EBCC
330
53E84EBB3
100
AcDbSymbolTableRecord
100
AcDbTextStyleTableRecord
  2
ITALICC
 70
     0
 40
0.0
 41
1.0
 50
0.0
 71
     0
 42
0.125
  3
italicc
  4

  0
STYLE
  5
53E84EBDC
330
53E84EBB3
100
AcDbSymbolTableRecord
100
AcDbTextStyleTableRecord
  2
ROMANS
 70
     0
 40
0.0
 41
1.0
 50
0.0
 71
     0
 42
0.125
  3
romans.shx
  4

  0
ENDTAB
  0
TABLE
  2
VIEW
  5
53E84EBB6
330
0
100
AcDbSymbolTable
 70
     0
  0
ENDTAB
  0
TABLE
  2
UCS
  5
53E84EBB7
330
0
100
AcDbSymbolTable
 70
     0
  0
ENDTAB
  0
TABLE
  2
APPID
  5
53E84EBB9
330
0
100
AcDbSymbolTable
 70
     1
  0
APPID
  5
53E84EBC1
330
53E84EBB9
100
AcDbSymbolTableRecord
100
AcDbRegAppTableRecord
  2
ACAD
 70
     0
  0
ENDTAB
  0
TABLE
  2
DIMSTYLE
  5
53E84EBBA
330
0
100
AcDbSymbolTable
 70
     1
  0
DIMSTYLE
105
53E84EBD4
330
53E84EBBA
100
AcDbSymbolTableRecord
100
AcDbDimStyleTableRecord
  2
STANDARD
 70
     0
  3

  4

  5

  6

  7

 40
1.0
 41
0.125
 42
0.125
 43
0.375
 44
0.125
 45
0.0
 46
0.0
 47
0.0
 48
0.0
140
0.125
141
-0.125
142
0.0
143
25.4
144
1.0
145
0.0
146
1.0
147
0.09
 71
     0
 72
     0
 73
     1
 74
     1
 75
     0
 76
     0
 77
     0
 78
     4
170
     0
171
     2
172
     0
173
     0
174
     1
175
     0
176
     0
177
     0
178
     0
270
     2
271
     3
272
     3
273
     2
274
     2
340
53E84EBDC
275
     0
280
     0
281
     0
282
     0
283
     1
284
     4
285
     0
286
     0
287
     3
288
     0
  0
ENDTAB
  0
TABLE
  2
BLOCK_RECORD
  5
53E84EBB1
330
0
100
AcDbSymbolTable
 70
     0
  0
BLOCK_RECORD
  5
53E84EBC8
102
{ACAD_XDICTIONARY
360
53E84EC0F
102
}
330
53E84EBB1
100
AcDbSymbolTableRecord
100
AcDbBlockTableRecord
  2
*MODEL_SPACE
  0
BLOCK_RECORD
  5
53E84EBC5
102
{ACAD_XDICTIONARY
360
53E84EC0D
102
}
330
53E84EBB1
100
AcDbSymbolTableRecord
100
AcDbBlockTableRecord
  2
*PAPER_SPACE
  0
ENDTAB
  0
ENDSEC
  0
SECTION
  2
BLOCKS
  0
BLOCK
  5
53E84EBD2
330
53E84EBC8
100
AcDbEntity
  8
0
100
AcDbBlockBegin
  2
*MODEL_SPACE
 70
     0
 10
0.0
 20
0.0
 30
0.0
  3
*MODEL_SPACE
  1

  0
ENDBLK
  5
53E84EBD3
330
53E84EBC8
100
AcDbEntity
  8
0
100
AcDbBlockEnd
  0
BLOCK
  5
53E84EBD0
330
53E84EBC5
100
AcDbEntity
 67
     1
  8
0
100
AcDbBlockBegin
  2
*PAPER_SPACE
 70
     0
 10
0.0
 20
0.0
 30
0.0
  3
*PAPER_SPACE
  1

  0
ENDBLK
  5
53E84EBD1
330
53E84EBC5
100
AcDbEntity
 67
     1
  8
0
100
AcDbBlockEnd
  0
ENDSEC
  0
SECTION
  2
ENTITIES
  0
LWPOLYLINE
  5
53E84D80D
330
53E84EBC8
100
AcDbEntity
  8
0
100
AcDbPolyline
 90
       12
 70
     1
 43
0.0
 10
2.291125
 20
1.5625
 10
2.217124999999999
 20
1.5625
 10
2.217124999999999
 20
1.2625
 10
1.027125
 20
1.2625
 10
1.027125
 20
1.5625
 10
0.953125
 20
1.5625
 10
0.953125
 20
1.0625
 10
1.013125
 20
1.0625
 10
1.013125
 20
1.2025
 10
2.231125
 20
1.2025
 10
2.231125
 20
1.0625
 10
2.291124999999999
 20
1.0625
  0
TEXT
  5
53E84EA73
330
53E84EBC8
100
AcDbEntity
  8
TEXT
100
AcDbText
 10
0.8810535714285713
 20
0.8118750000000005
 30
0.0
 40
0.125
  1
PART #110061
  7
ITALICC
 72
     1
 11
1.622125
 21
0.8118750000000005
 31
0.0
100
AcDbText
  0
TEXT
  5
53E84EA74
330
53E84EBC8
100
AcDbEntity
  8
TEXT
100
AcDbText
 10
2.03543015825032
 20
0.3649523573276254
 30
0.0
 40
0.0522247191011236
  1
Phone  1-800-328-2495
 41
1.272321428571429
 72
     5
 11
3.364362742519984
 21
0.3649523573276254
 31
0.0
100
AcDbText
  0
TEXT
  5
53E84EA75
330
53E84EBC8
100
AcDbEntity
  8
TEXT
100
AcDbText
 10
2.03543015825032
 20
0.644727638226502
 30
0.0
 40
0.0522247191011236
  1
Stylmark  Incorporated
 41
1.221428571428573
 72
     5
 11
3.364362742519984
 21
0.644727638226502
 31
0.0
100
AcDbText
  0
TEXT
  5
53E84EA76
330
53E84EBC8
100
AcDbEntity
  8
TEXT
100
AcDbText
 10
2.03543015825032
 20
0.5514692112602098
 30
0.0
 40
0.0522247191011236
  1
6536 Main St. N.E. * P.O. Box 32008
 41
0.8388932496075366
 72
     5
 11
3.364362742519984
 21
0.5514692112602098
 31
0.0
100
AcDbText
  0
TEXT
  5
53E84EA77
330
53E84EBC8
100
AcDbEntity
  8
TEXT
100
AcDbText
 10
2.03543015825032
 20
0.4582107842939176
 30
0.0
 40
0.0522247191011236
  1
Minneapolis, MN 55432-0008
 41
1.11444212721585
 72
     5
 11
3.364362742519984
 21
0.4582107842939176
 31
0.0
100
AcDbText
  0
LWPOLYLINE
  5
53E84EA78
330
53E84EBC8
100
AcDbEntity
  8
TEXT
100
AcDbPolyline
 90
        3
 70
     0
 43
0.0006660908203125
 10
-0.120523533816987
 20
0.4785971199650603
 10
-0.120523533816987
 20
0.3653616805119326
 10
-0.0072880943638647
 20
0.3653616805119326
  0
LWPOLYLINE
  5
53E84EA7D
330
53E84EBC8
100
AcDbEntity
  8
TEXT
100
AcDbPolyline
 90
        3
 70
     0
 43
0.0006660908203125
 10
-0.0938799010044895
 20
0.4785971199650603
 10
-0.0938799010044895
 20
0.3920053133244337
 10
-0.0072880943638647
 20
0.3920053133244337
  0
LWPOLYLINE
  5
53E84EA82
330
53E84EBC8
100
AcDbEntity
  8
TEXT
100
AcDbPolyline
 90
        2
 70
     0
 43
0.0001332181640625
 10
-0.0472535435826127
 20
0.4885884822697455
 10
-0.120523533816987
 20
0.4785971199650603
  0
LWPOLYLINE
  5
53E84EA86
330
53E84EBC8
100
AcDbEntity
  8
TEXT
100
AcDbPolyline
 90
        2
 70
     0
 43
0.0001332181640625
 10
-0.0938799010044895
 20
0.4785971199650603
 10
-0.0339317271763622
 20
0.4885884822697455
  0
LWPOLYLINE
  5
53E84EA8A
330
53E84EBC8
100
AcDbEntity
  8
TEXT
100
AcDbPolyline
 90
        2
 70
     0
 43
0.0001332181640625
 10
-0.0938799010044895
 20
0.3920053133244337
 10
-0.0339317271763622
 20
0.4519534871525593
  0
LWPOLYLINE
  5
53E84EA8E
330
53E84EBC8
100
AcDbEntity
  8
TEXT
100
AcDbPolyline
 90
        3
 70
     0
 43
0.0006660908203125
 10
-0.0072880943638647
 20
0.631798008636936
 10
-0.120523533816987
 20
0.631798008636936
 10
-0.120523533816987
 20
0.5185625691838083
  0
LWPOLYLINE
  5
53E84EA93
330
53E84EBC8
100
AcDbEntity
  8
TEXT
100
AcDbPolyline
 90
        3
 70
     0
 43
0.0006660908203125
 10
-0.0072880943638647
 20
0.6051543758244349
 10
-0.0938799010044895
 20
0.6051543758244349
 10
-0.0938799010044895
 20
0.5185625691838083
  0
LWPOLYLINE
  5
53E84EA98
330
53E84EBC8
100
AcDbEntity
  8
TEXT
100
AcDbPolyline
 90
        2
 70
     0
 43
0.0001332181640625
 10
-0.0938799010044895
 20
0.6051543758244349
 10
-0.033931727176364
 20
0.5452062019963094
  0
LWPOLYLINE
  5
53E84EA9C
330
53E84EBC8
100
AcDbEntity
  8
TEXT
100
AcDbPolyline
 90
        2
 70
     0
 43
0.0001332181640625
 10
-0.0938799010044895
 20
0.5185625691838083
 10
-0.033931727176364
 20
0.5085712068791195
  0
LWPOLYLINE
  5
53E84EAA0
330
53E84EBC8
100
AcDbEntity
  8
TEXT
100
AcDbPolyline
 90
        2
 70
     0
 43
0.0001332181640625
 10
-0.120523533816987
 20
0.5185625691838083
 10
-0.0472535435826127
 20
0.5085712068791195
  0
LWPOLYLINE
  5
53E84EAA4
330
53E84EBC8
100
AcDbEntity
  8
TEXT
100
AcDbPolyline
 90
        2
 70
     0
 43
0.0006660908203125
 10
-0.0938799010044895
 20
0.4785971199650603
 10
-0.120523533816987
 20
0.4785971199650603
  0
LWPOLYLINE
  5
53E84EAA8
330
53E84EBC8
100
AcDbEntity
  8
TEXT
100
AcDbPolyline
 90
        2
 70
     0
 43
0.0006660908203125
 10
-0.0938799010044895
 20
0.5185625691838083
 10
-0.120523533816987
 20
0.5185625691838083
  0
LINE
  5
53E84EAAC
330
53E84EBC8
100
AcDbEntity
  8
TEXT
100
AcDbLine
 10
1.39466689530951
 20
0.567521313980167
 30
0.0
 11
1.287460621922221
 21
0.567521313980167
 31
0.0
  0
LINE
  5
53E84EAAD
330
53E84EBC8
100
AcDbEntity
  8
TEXT
100
AcDbLine
 10
1.423697793653988
 20
0.6317980086369324
 30
0.0
 11
1.288865884436929
 21
0.6317980086369324
 31
0.0
  0
ARC
  5
53E84EAAE
330
53E84EBC8
100
AcDbEntity
  8
TEXT
100
AcDbCircle
 10
1.348179980830246
 20
0.4625607593739161
 30
0.0
 40
0.0676855811441166
100
AcDbArc
 50
90.0
 51
153.7768192527749
  0
LWPOLYLINE
  5
53E84EAAF
330
53E84EBC8
100
AcDbEntity
  8
TEXT
100
AcDbPolyline
 90
        2
 70
     0
 43
0.0
 10
1.286428126467411
 20
0.4088159205988596
 42
0.2901071551932823
 10
1.329504059335046
 20
0.3653249756484214
 42
5.328517124445801
  0
ARC
  5
53E84EAB3
330
53E84EBC8
100
AcDbEntity
  8
TEXT
100
AcDbCircle
 10
0.643048603158761
 20
0.4251173669864712
 30
0.0
 40
0.0601160179737537
100
AcDbArc
 50
180.0000000000003
 51
264.0521544866073
  0
LINE
  5
53E84EAB4
330
53E84EBC8
100
AcDbEntity
  8
TEXT
100
AcDbLine
 10
0.6465639587843089
 20
0.6661859262310706
 30
0.0
 11
0.5865213539403018
 21
0.6661859262310706
 31
0.0
  0
ARC
  5
53E84EAB5
330
53E84EBC8
100
AcDbEntity
  8
TEXT
100
AcDbCircle
 10
0.4107896010417904
 20
0.5497105491904306
 30
0.0
 40
0.0820874594465043
100
AcDbArc
 50
90.0
 51
270.0
  0
LWPOLYLINE
  5
53E84EAB6
330
53E84EBC8
100
AcDbEntity
  8
TEXT
100
AcDbPolyline
 90
        2
 70
     0
 43
0.0001332181640625
 10
0.0027032679408259
 20
0.5585280184025563
 10
-0.0072880943638647
 20
0.631798008636936
  0
LWPOLYLINE
  5
53E84EABA
330
53E84EBC8
100
AcDbEntity
  8
TEXT
100
AcDbPolyline
 90
        2
 70
     0
 43
0.0001332181640625
 10
-0.0072880943638647
 20
0.6051543758244349
 10
0.0027032679408259
 20
0.5452062019963094
  0
LWPOLYLINE
  5
53E84EABE
330
53E84EBC8
100
AcDbEntity
  8
TEXT
100
AcDbPolyline
 90
        3
 70
     0
 43
0.0006660908203125
 10
0.1459127943080127
 20
0.5185625691838083
 10
0.1459127943080127
 20
0.631798008636936
 10
0.0326773548548869
 20
0.631798008636936
  0
LWPOLYLINE
  5
53E84EAC3
330
53E84EBC8
100
AcDbEntity
  8
TEXT
100
AcDbPolyline
 90
        3
 70
     0
 43
0.0006660908203125
 10
0.1192691614955117
 20
0.5185625691838083
 10
0.1192691614955117
 20
0.6051543758244349
 10
0.0326773548548869
 20
0.6051543758244349
  0
LWPOLYLINE
  5
53E84EAC8
330
53E84EBC8
100
AcDbEntity
  8
TEXT
100
AcDbPolyline
 90
        2
 70
     0
 43
0.0001332181640625
 10
0.1192691614955117
 20
0.6051543758244349
 10
0.0593209876673879
 20
0.5452062019963094
  0
LWPOLYLINE
  5
53E84EACC
330
53E84EBC8
100
AcDbEntity
  8
TEXT
100
AcDbPolyline
 90
        2
 70
     0
 43
0.0001332181640625
 10
0.0326773548548869
 20
0.6051543758244349
 10
0.0226859925501981
 20
0.5452062019963094
  0
LWPOLYLINE
  5
53E84EAD0
330
53E84EBC8
100
AcDbEntity
  8
TEXT
100
AcDbPolyline
 90
        2
 70
     0
 43
0.0001332181640625
 10
0.0326773548548869
 20
0.631798008636936
 10
0.0226859925501981
 20
0.5585280184025563
  0
LWPOLYLINE
  5
53E84EAD4
330
53E84EBC8
100
AcDbEntity
  8
TEXT
100
AcDbPolyline
 90
        2
 70
     0
 43
0.0001332181640625
 10
0.0726428040736367
 20
0.5085712068791195
 10
0.1459127943080127
 20
0.5185625691838083
  0
LWPOLYLINE
  5
53E84EAD8
330
53E84EBC8
100
AcDbEntity
  8
TEXT
100
AcDbPolyline
 90
        2
 70
     0
 43
0.0001332181640625
 10
0.1192691614955117
 20
0.5185625691838083
 10
0.0593209876673879
 20
0.5085712068791195
  0
LWPOLYLINE
  5
53E84EADC
330
53E84EBC8
100
AcDbEntity
  8
TEXT
100
AcDbPolyline
 90
        2
 70
     0
 43
0.0001332181640625
 10
0.1459127943080127
 20
0.4785971199650603
 10
0.0726428040736367
 20
0.4885884822697455
  0
LWPOLYLINE
  5
53E84EAE0
330
53E84EBC8
100
AcDbEntity
  8
TEXT
100
AcDbPolyline
 90
        2
 70
     0
 43
0.0001332181640625
 10
0.1192691614955117
 20
0.4785971199650603
 10
0.0593209876673879
 20
0.4885884822697455
  0
LWPOLYLINE
  5
53E84EAE4
330
53E84EBC8
100
AcDbEntity
  8
TEXT
100
AcDbPolyline
 90
        2
 70
     0
 43
0.0001332181640625
 10
0.1192691614955117
 20
0.3920053133244337
 10
0.0593209876673879
 20
0.4519534871525593
  0
LWPOLYLINE
  5
53E84EAE8
330
53E84EBC8
100
AcDbEntity
  8
TEXT
100
AcDbPolyline
 90
        3
 70
     0
 43
0.0006660908203125
 10
0.0326773548548869
 20
0.3920053133244337
 10
0.1192691614955117
 20
0.3920053133244337
 10
0.1192691614955117
 20
0.4785971199650603
  0
LWPOLYLINE
  5
53E84EAED
330
53E84EBC8
100
AcDbEntity
  8
TEXT
100
AcDbPolyline
 90
        3
 70
     0
 43
0.0006660908203125
 10
0.0326773548548869
 20
0.3653616805119326
 10
0.1459127943080127
 20
0.3653616805119326
 10
0.1459127943080127
 20
0.4785971199650603
  0
LWPOLYLINE
  5
53E84EAF2
330
53E84EBC8
100
AcDbEntity
  8
TEXT
100
AcDbPolyline
 90
        5
 70
     0
 43
0.0001332181640625
 10
0.0027032679408259
 20
0.4386316707463087
 10
0.0027032679408259
 20
0.4519534871525593
 10
-0.0339317271763622
 20
0.4519534871525593
 10
-0.0339317271763622
 20
0.4885884822697455
 10
-0.0472535435826127
 20
0.4885884822697455
  0
LWPOLYLINE
  5
53E84EAF9
330
53E84EBC8
100
AcDbEntity
  8
TEXT
100
AcDbPolyline
 90
        2
 70
     0
 43
0.0006660908203125
 10
-0.0072880943638647
 20
0.3920053133244337
 10
-0.0072880943638647
 20
0.3653616805119326
  0
LWPOLYLINE
  5
53E84EAFD
330
53E84EBC8
100
AcDbEntity
  8
TEXT
100
AcDbPolyline
 90
        2
 70
     0
 43
0.0001332181640625
 10
-0.0072880943638647
 20
0.3920053133244337
 10
0.0027032679408259
 20
0.4519534871525593
  0
LWPOLYLINE
  5
53E84EB01
330
53E84EBC8
100
AcDbEntity
  8
TEXT
100
AcDbPolyline
 90
        2
 70
     0
 43
0.0001332181640625
 10
-0.0072880943638647
 20
0.3653616805119326
 10
0.0027032679408259
 20
0.4386316707463087
  0
LWPOLYLINE
  5
53E84EB05
330
53E84EBC8
100
AcDbEntity
  8
TEXT
100
AcDbPolyline
 90
        5
 70
     0
 43
0.0001332181640625
 10
-0.0472535435826127
 20
0.5085712068791195
 10
-0.033931727176364
 20
0.5085712068791195
 10
-0.033931727176364
 20
0.5452062019963094
 10
0.0027032679408259
 20
0.5452062019963094
 10
0.0027032679408259
 20
0.5585280184025563
  0
LWPOLYLINE
  5
53E84EB0C
330
53E84EBC8
100
AcDbEntity
  8
TEXT
100
AcDbPolyline
 90
        5
 70
     0
 43
0.0001332181640625
 10
0.0226859925501981
 20
0.5585280184025563
 10
0.0226859925501981
 20
0.5452062019963094
 10
0.0593209876673879
 20
0.5452062019963094
 10
0.0593209876673879
 20
0.5085712068791195
 10
0.0726428040736367
 20
0.5085712068791195
  0
LWPOLYLINE
  5
53E84EB13
330
53E84EBC8
100
AcDbEntity
  8
TEXT
100
AcDbPolyline
 90
        2
 70
     0
 43
0.0001332181640625
 10
0.0326773548548869
 20
0.3920053133244337
 10
0.0226859925501981
 20
0.4519534871525593
  0
LWPOLYLINE
  5
53E84EB17
330
53E84EBC8
100
AcDbEntity
  8
TEXT
100
AcDbPolyline
 90
        2
 70
     0
 43
0.0001332181640625
 10
0.0226859925501981
 20
0.4386316707463087
 10
0.0326773548548869
 20
0.3653616805119326
  0
LWPOLYLINE
  5
53E84EB1B
330
53E84EBC8
100
AcDbEntity
  8
TEXT
100
AcDbPolyline
 90
        2
 70
     0
 43
0.0006660908203125
 10
0.0326773548548869
 20
0.3920053133244337
 10
0.0326773548548869
 20
0.3653616805119326
  0
LWPOLYLINE
  5
53E84EB1F
330
53E84EBC8
100
AcDbEntity
  8
TEXT
100
AcDbPolyline
 90
        5
 70
     0
 43
0.0001332181640625
 10
0.0726428040736367
 20
0.4885884822697455
 10
0.0593209876673879
 20
0.4885884822697455
 10
0.0593209876673879
 20
0.4519534871525593
 10
0.0226859925501981
 20
0.4519534871525593
 10
0.0226859925501981
 20
0.4386316707463087
  0
LWPOLYLINE
  5
53E84EB26
330
53E84EBC8
100
AcDbEntity
  8
TEXT
100
AcDbPolyline
 90
        2
 70
     0
 43
0.0006660908203125
 10
0.1192691614955117
 20
0.5185625691838083
 10
0.1459127943080127
 20
0.5185625691838083
  0
LWPOLYLINE
  5
53E84EB2A
330
53E84EBC8
100
AcDbEntity
  8
TEXT
100
AcDbPolyline
 90
        2
 70
     0
 43
0.0006660908203125
 10
0.1192691614955117
 20
0.4785971199650603
 10
0.1459127943080127
 20
0.4785971199650603
  0
LINE
  5
53E84EB2E
330
53E84EBC8
100
AcDbEntity
  8
TEXT
100
AcDbLine
 10
0.4160269311560377
 20
0.567521313980167
 30
0.0
 11
0.5829325851850089
 21
0.567521313980167
 31
0.0
  0
LINE
  5
53E84EB2F
330
53E84EBC8
100
AcDbEntity
  8
TEXT
100
AcDbLine
 10
0.4816270674003387
 20
0.5317165923695391
 30
0.0
 11
0.4160269311560377
 21
0.5317165923695391
 31
0.0
  0
LINE
  5
53E84EB30
330
53E84EBC8
100
AcDbEntity
  8
TEXT
100
AcDbLine
 10
0.328702141595286
 20
0.3653249756484214
 30
0.0
 11
0.4816270674003387
 21
0.3653249756484214
 31
0.0
  0
LINE
  5
53E84EB31
330
53E84EBC8
100
AcDbEntity
  8
TEXT
100
AcDbLine
 10
0.4865674413066184
 20
0.4336819819818607
 30
0.0
 11
0.3287021415952842
 21
0.4336819819818607
 31
0.0
  0
LINE
  5
53E84EB32
330
53E84EBC8
100
AcDbEntity
  8
TEXT
100
AcDbLine
 10
0.4107896010417896
 20
0.4676230897439253
 30
0.0
 11
0.4865674413066184
 21
0.4676230897439253
 31
0.0
  0
ARC
  5
53E84EB33
330
53E84EBC8
100
AcDbEntity
  8
TEXT
100
AcDbCircle
 10
0.4160269311560385
 20
0.5496189531748548
 30
0.0
 40
0.017902360805315
100
AcDbArc
 50
90.0
 51
270.0
  0
LINE
  5
53E84EB34
330
53E84EBC8
100
AcDbEntity
  8
TEXT
100
AcDbLine
 10
0.3287021415952842
 20
0.4336819819818607
 30
0.0
 11
0.328702141595286
 21
0.3653249756484214
 31
0.0
  0
LINE
  5
53E84EB35
330
53E84EBC8
100
AcDbEntity
  8
TEXT
100
AcDbLine
 10
0.5829325851850089
 20
0.567521313980167
 30
0.0
 11
0.5829325851850089
 21
0.4251173669864712
 31
0.0
  0
ARC
  5
53E84EB36
330
53E84EBC8
100
AcDbEntity
  8
TEXT
100
AcDbCircle
 10
0.4816270674003396
 20
0.4485207840089785
 30
0.0
 40
0.0831958083605586
100
AcDbArc
 50
270.0
 51
90.0
  0
ARC
  5
53E84EB37
330
53E84EBC8
100
AcDbEntity
  8
TEXT
100
AcDbCircle
 10
0.4865674413066193
 20
0.4506525358628948
 30
0.0
 40
0.0169705538810321
100
AcDbArc
 50
270.0
 51
90.0
  0
LWPOLYLINE
  5
53E84EB38
330
53E84EBC8
100
AcDbEntity
  8
TEXT
100
AcDbPolyline
 90
        2
 70
     0
 43
0.0006660908203125
 10
-0.0072880943638647
 20
0.6051543758244349
 10
-0.0072880943638647
 20
0.631798008636936
  0
LWPOLYLINE
  5
53E84EB3C
330
53E84EBC8
100
AcDbEntity
  8
TEXT
100
AcDbPolyline
 90
        2
 70
     0
 43
0.0006660908203125
 10
0.0326773548548869
 20
0.6051543758244349
 10
0.0326773548548869
 20
0.631798008636936
  0
LINE
  5
53E84EB40
330
53E84EBC8
100
AcDbEntity
  8
TEXT
100
AcDbLine
 10
0.5865213539403018
 20
0.6317980086369324
 30
0.0
 11
0.4107896010417896
 21
0.6317980086369324
 31
0.0
  0
LINE
  5
53E84EB41
330
53E84EBC8
100
AcDbEntity
  8
TEXT
100
AcDbLine
 10
0.5865213539403018
 20
0.6661859262310706
 30
0.0
 11
0.5865213539403018
 21
0.6317980086369324
 31
0.0
  0
LINE
  5
53E84EB42
330
53E84EBC8
100
AcDbEntity
  8
TEXT
100
AcDbLine
 10
0.7769932459601541
 20
0.5309260125238118
 30
0.0
 11
0.7183629249282162
 21
0.6317980086369324
 31
0.0
  0
LINE
  5
53E84EB43
330
53E84EBC8
100
AcDbEntity
  8
TEXT
100
AcDbLine
 10
0.8357418087660196
 20
0.6317980086369324
 30
0.0
 11
0.7769932459601541
 21
0.5309260125238118
 31
0.0
  0
LINE
  5
53E84EB44
330
53E84EBC8
100
AcDbEntity
  8
TEXT
100
AcDbLine
 10
0.9326724341257609
 20
0.4477128137514206
 30
0.0
 11
0.9326724341257609
 21
0.699809486375743
 31
0.0
  0
LINE
  5
53E84EB45
330
53E84EBC8
100
AcDbEntity
  8
TEXT
100
AcDbLine
 10
0.964984288263421
 20
0.6317980086369324
 30
0.0
 11
0.964984288263421
 21
0.4309338019045242
 31
0.0
  0
LINE
  5
53E84EB46
330
53E84EBC8
100
AcDbEntity
  8
TEXT
100
AcDbLine
 10
0.964984288263421
 20
0.4309338019045242
 30
0.0
 11
0.9479906513788197
 21
0.4309338019045242
 31
0.0
  0
LINE
  5
53E84EB47
330
53E84EBC8
100
AcDbEntity
  8
TEXT
100
AcDbLine
 10
0.9338120076219556
 20
0.3653249756484214
 30
0.0
 11
1.03181534132139
 21
0.3653249756484214
 31
0.0
  0
LINE
  5
53E84EB48
330
53E84EBC8
100
AcDbEntity
  8
TEXT
100
AcDbLine
 10
0.7673930089631998
 20
0.3852834817534343
 30
0.0
 11
0.8646927150566444
 21
0.5496336926887025
 31
0.0
  0
ARC
  5
53E84EB49
330
53E84EBC8
100
AcDbEntity
  8
TEXT
100
AcDbCircle
 10
0.7333494490509858
 20
0.4048726979221171
 30
0.0
 40
0.0392772371940762
100
AcDbArc
 50
270.1604552698595
 51
330.0831797321295
  0
LINE
  5
53E84EB4A
330
53E84EBC8
100
AcDbEntity
  8
TEXT
100
AcDbLine
 10
0.6368191926651146
 20
0.3653249756484214
 30
0.0
 11
0.733459443740109
 21
0.3655956147467037
 31
0.0
  0
LWPOLYLINE
  5
53E84EB4B
330
53E84EBC8
100
AcDbEntity
  8
TEXT
100
AcDbPolyline
 90
        6
 70
     1
 43
0.0
 10
0.6793429962402642
 20
0.567521313980167
 10
0.6490264020200561
 20
0.567521313980167
 10
0.6490264020200561
 20
0.4444103159252726
 42
0.407328721240804
 10
0.6605700531815324
 20
0.4325914012488865
 10
0.7211917522262632
 20
0.4325914012488865
 10
0.7386570926335812
 20
0.4654036302923657
  0
LINE
  5
53E84EB53
330
53E84EBC8
100
AcDbEntity
  8
TEXT
100
AcDbLine
 10
0.8646927150566444
 20
0.5496336926887025
 30
0.0
 11
0.8646927150566444
 21
0.4168763178633462
 31
0.0
  0
ARC
  5
53E84EB54
330
53E84EBC8
100
AcDbEntity
  8
TEXT
100
AcDbCircle
 10
0.9479906513788179
 20
0.4463156081479496
 30
0.0
 40
0.0153818062434269
100
AcDbArc
 50
174.7883570302258
 51
270.0
  0
LWPOLYLINE
  5
53E84EB55
330
53E84EBC8
100
AcDbEntity
  8
TEXT
100
AcDbPolyline
 90
        2
 70
     0
 43
0.0
 10
0.8646927150566426
 20
0.4168763178633497
 42
0.3318488747599744
 10
0.9338120076219556
 20
0.3653249756484214
 42
-6.868794160588311
  0
LINE
  5
53E84EB59
330
53E84EBC8
100
AcDbEntity
  8
TEXT
100
AcDbLine
 10
1.089204410310651
 20
0.3653249756484214
 30
0.0
 11
1.156262457092491
 21
0.3653249756484214
 31
0.0
  0
LINE
  5
53E84EB5A
330
53E84EBC8
100
AcDbEntity
  8
TEXT
100
AcDbLine
 10
1.089204410310651
 20
0.559967524814057
 30
0.0
 11
1.089204410310651
 21
0.3653249756484214
 31
0.0
  0
LINE
  5
53E84EB5B
330
53E84EBC8
100
AcDbEntity
  8
TEXT
100
AcDbLine
 10
1.03181534132139
 20
0.567521313980167
 30
0.0
 11
1.081650621144537
 21
0.567521313980167
 31
0.0
  0
LINE
  5
53E84EB5C
330
53E84EBC8
100
AcDbEntity
  8
TEXT
100
AcDbLine
 10
1.03181534132139
 20
0.3653249756484214
 30
0.0
 11
1.03181534132139
 21
0.567521313980167
 31
0.0
  0
LWPOLYLINE
  5
53E84EB5D
330
53E84EBC8
100
AcDbEntity
  8
TEXT
100
AcDbPolyline
 90
        2
 70
     0
 43
0.0
 10
1.081650621144536
 20
0.567521313980167
 42
-0.4142135623731017
 10
1.089204410310649
 20
0.559967524814057
 42
-0.9999999999999998
  0
LINE
  5
53E84EB61
330
53E84EBC8
100
AcDbEntity
  8
TEXT
100
AcDbLine
 10
1.287460621922221
 20
0.567521313980167
 30
0.0
 11
1.287460621922221
 21
0.4924689079059604
 31
0.0
  0
LINE
  5
53E84EB62
330
53E84EBC8
100
AcDbEntity
  8
TEXT
100
AcDbLine
 10
1.156262457092491
 20
0.567521313980167
 30
0.0
 11
1.210396054013441
 21
0.567521313980167
 31
0.0
  0
LINE
  5
53E84EB63
330
53E84EBC8
100
AcDbEntity
  8
TEXT
100
AcDbLine
 10
1.156262457092491
 20
0.3653249756484214
 30
0.0
 11
1.156262457092491
 21
0.567521313980167
 31
0.0
  0
LWPOLYLINE
  5
53E84EB64
330
53E84EBC8
100
AcDbEntity
  8
TEXT
100
AcDbPolyline
 90
        2
 70
     0
 43
0.0
 10
1.210396054013439
 20
0.567521313980167
 42
-0.4142135623731017
 10
1.217949843179553
 20
0.559967524814057
 42
-0.9999999999999998
  0
LWPOLYLINE
  5
53E84EB68
330
53E84EBC8
100
AcDbEntity
  8
TEXT
100
AcDbPolyline
 90
        4
 70
     0
 43
0.0
 10
1.217949843179553
 20
0.559967524814057
 10
1.217949843179553
 20
0.3653249756484214
 10
1.286428126467411
 20
0.3653249756484214
 10
1.286428126467411
 20
0.4088159205988596
 42
-1.714843617202739
  0
LINE
  5
53E84EB6E
330
53E84EBC8
100
AcDbEntity
  8
TEXT
100
AcDbLine
 10
0.6465639587843089
 20
0.6317980086369324
 30
0.0
 11
0.6465639587843089
 21
0.6661859262310706
 31
0.0
  0
LINE
  5
53E84EB6F
330
53E84EBC8
100
AcDbEntity
  8
TEXT
100
AcDbLine
 10
0.7183629249282162
 20
0.6317980086369324
 30
0.0
 11
0.6465639587843089
 21
0.6317980086369324
 31
0.0
  0
LINE
  5
53E84EB70
330
53E84EBC8
100
AcDbEntity
  8
TEXT
100
AcDbLine
 10
0.8658637215593959
 20
0.6317980086369324
 30
0.0
 11
0.8357418087660196
 21
0.6317980086369324
 31
0.0
  0
LINE
  5
53E84EB71
330
53E84EBC8
100
AcDbEntity
  8
TEXT
100
AcDbLine
 10
0.8658637215593959
 20
0.699809486375743
 30
0.0
 11
0.8658637215593959
 21
0.6317980086369324
 31
0.0
  0
LINE
  5
53E84EB72
330
53E84EBC8
100
AcDbEntity
  8
TEXT
100
AcDbLine
 10
0.9326724341257609
 20
0.699809486375743
 30
0.0
 11
0.8658637215593959
 21
0.699809486375743
 31
0.0
  0
LWPOLYLINE
  5
53E84EB73
330
53E84EBC8
100
AcDbEntity
  8
TEXT
100
AcDbPolyline
 90
        3
 70
     0
 43
0.0
 10
1.253084193723763
 20
0.631798008636936
 10
1.134784034907718
 20
0.631798008636936
 10
1.134784034907718
 20
0.60463051187604
 42
-1.960274751411753
  0
LINE
  5
53E84EB78
330
53E84EBC8
100
AcDbEntity
  8
TEXT
100
AcDbLine
 10
1.099002344194557
 20
0.6317980086369324
 30
0.0
 11
0.964984288263421
 21
0.6317980086369324
 31
0.0
  0
LWPOLYLINE
  5
53E84EB79
330
53E84EBC8
100
AcDbEntity
  8
TEXT
100
AcDbPolyline
 90
        2
 70
     0
 43
0.0
 10
1.099002344194557
 20
0.631798008636936
 42
-0.3328679258950098
 10
1.134784034907718
 20
0.60463051187604
 42
6.772930709997214
  0
LINE
  5
53E84EB7D
330
53E84EBC8
100
AcDbEntity
  8
TEXT
100
AcDbLine
 10
1.288865884436929
 20
0.6317980086369324
 30
0.0
 11
1.288865884436929
 21
0.6034754628672885
 31
0.0
  0
LWPOLYLINE
  5
53E84EB7E
330
53E84EBC8
100
AcDbEntity
  8
TEXT
100
AcDbPolyline
 90
        2
 70
     0
 43
0.0
 10
1.253084193723763
 20
0.631798008636936
 42
-0.3277054968067132
 10
1.288865884436928
 20
0.6034754628672921
 42
6.667889725900311
  0
LINE
  5
53E84EB82
330
53E84EBC8
100
AcDbEntity
  8
TEXT
100
AcDbLine
 10
1.50265773252903
 20
0.5265860300835051
 30
0.0
 11
1.458906961347128
 21
0.6088363060796503
 31
0.0
  0
LINE
  5
53E84EB83
330
53E84EBC8
100
AcDbEntity
  8
TEXT
100
AcDbLine
 10
1.50265773252903
 20
0.6317980086369324
 30
0.0
 11
1.50265773252903
 21
0.5265860300835051
 31
0.0
  0
LINE
  5
53E84EB84
330
53E84EBC8
100
AcDbEntity
  8
TEXT
100
AcDbLine
 10
1.730341471467399
 20
0.5559326822253943
 30
0.0
 11
1.730341471467399
 21
0.6972622144045331
 31
0.0
  0
LINE
  5
53E84EB85
330
53E84EBC8
100
AcDbEntity
  8
TEXT
100
AcDbLine
 10
1.777439630023383
 20
0.6317980086369324
 30
0.0
 11
1.730341471467399
 21
0.5559326822253943
 31
0.0
  0
LINE
  5
53E84EB86
330
53E84EBC8
100
AcDbEntity
  8
TEXT
100
AcDbLine
 10
1.787874346787306
 20
0.5219047656959588
 30
0.0
 11
1.852431462753011
 21
0.6317980086369324
 31
0.0
  0
LINE
  5
53E84EB87
330
53E84EBC8
100
AcDbEntity
  8
TEXT
100
AcDbLine
 10
1.666506480244625
 20
0.3653249756484214
 30
0.0
 11
1.730884664563246
 21
0.3653249756484214
 31
0.0
  0
LWPOLYLINE
  5
53E84EB88
330
53E84EBC8
100
AcDbEntity
  8
TEXT
100
AcDbPolyline
 90
        2
 70
     0
 43
0.0
 10
1.506597409834067
 20
0.4088159205988596
 42
-0.2901071551932486
 10
1.463521476966423
 20
0.3653249756484214
 42
-5.328517124445184
  0
ARC
  5
53E84EB8C
330
53E84EBC8
100
AcDbEntity
  8
TEXT
100
AcDbCircle
 10
1.394666895309508
 20
0.5391619389801697
 30
0.0
 40
0.028359375
100
AcDbArc
 50
25.78218179591245
 51
90.0
  0
LINE
  5
53E84EB8D
330
53E84EBC8
100
AcDbEntity
  8
TEXT
100
AcDbLine
 10
1.430467970613631
 20
0.5302463405180347
 30
0.0
 11
1.420203210200067
 21
0.551496880090729
 31
0.0
  0
LINE
  5
53E84EB8E
330
53E84EBC8
100
AcDbEntity
  8
TEXT
100
AcDbLine
 10
1.348179980830248
 20
0.5302463405180347
 30
0.0
 11
1.430467970613631
 21
0.5302463405180347
 31
0.0
  0
LWPOLYLINE
  5
53E84EB8F
330
53E84EBC8
100
AcDbEntity
  8
TEXT
100
AcDbPolyline
 90
        4
 70
     1
 43
0.0
 10
1.44339901189653
 20
0.4682889536324466
 10
1.354738693236672
 20
0.4682889536324466
 42
0.9999999999999998
 10
1.354738693236672
 20
0.4258904131285859
 10
1.44339901189653
 20
0.4258904131285859
 42
1.0
  0
LWPOLYLINE
  5
53E84EB95
330
53E84EBC8
100
AcDbEntity
  8
TEXT
100
AcDbPolyline
 90
        2
 70
     0
 43
0.0
 10
1.329504059335046
 20
0.3653249756484214
 10
1.463521476966423
 20
0.3653249756484214
 42
0.9999999999999998
  0
LINE
  5
53E84EB99
330
53E84EBC8
100
AcDbEntity
  8
TEXT
100
AcDbLine
 10
1.589858498952062
 20
0.567521313980167
 30
0.0
 11
1.66650648024462
 21
0.567521313980167
 31
0.0
  0
LINE
  5
53E84EB9A
330
53E84EBC8
100
AcDbEntity
  8
TEXT
100
AcDbLine
 10
1.66650648024462
 20
0.567521313980167
 30
0.0
 11
1.666506480244625
 21
0.3653249756484214
 31
0.0
  0
ARC
  5
53E84EB9B
330
53E84EBC8
100
AcDbEntity
  8
TEXT
100
AcDbCircle
 10
1.58985849895206
 20
0.5426154386975042
 30
0.0
 40
0.0249058752826653
100
AcDbArc
 50
89.99971217465335
 51
179.9999999999985
  0
LINE
  5
53E84EB9C
330
53E84EBC8
100
AcDbEntity
  8
TEXT
100
AcDbLine
 10
1.564952623669403
 20
0.3653249756484214
 30
0.0
 11
1.564952623669398
 21
0.5426154810798898
 31
0.0
  0
LWPOLYLINE
  5
53E84EB9D
330
53E84EBC8
100
AcDbEntity
  8
TEXT
100
AcDbPolyline
 90
        2
 70
     0
 43
0.0
 10
1.506597409834067
 20
0.3653249756484214
 10
1.564952623669401
 20
0.3653249756484214
  0
LWPOLYLINE
  5
53E84EBA1
330
53E84EBC8
100
AcDbEntity
  8
TEXT
100
AcDbPolyline
 90
        2
 70
     0
 43
0.0
 10
1.506597409834067
 20
0.4088159205988596
 10
1.506597409834067
 20
0.3653249756484214
  0
LINE
  5
53E84EBA5
330
53E84EBC8
100
AcDbEntity
  8
TEXT
100
AcDbLine
 10
1.883366570150916
 20
0.3653249756484214
 30
0.0
 11
1.787874346787306
 21
0.5219047656959588
 31
0.0
  0
LINE
  5
53E84EBA6
330
53E84EBC8
100
AcDbEntity
  8
TEXT
100
AcDbLine
 10
1.80678819777471
 20
0.3653249756484214
 30
0.0
 11
1.883366570150916
 21
0.3653249756484214
 31
0.0
  0
LINE
  5
53E84EBA7
330
53E84EBC8
100
AcDbEntity
  8
TEXT
100
AcDbLine
 10
1.730884664563246
 20
0.4969045441246016
 30
0.0
 11
1.80678819777471
 21
0.3653249756484214
 31
0.0
  0
LINE
  5
53E84EBA8
330
53E84EBC8
100
AcDbEntity
  8
TEXT
100
AcDbLine
 10
1.730884664563246
 20
0.3653249756484214
 30
0.0
 11
1.730884664563246
 21
0.4969045441246016
 31
0.0
  0
LINE
  5
53E84EBA9
330
53E84EBC8
100
AcDbEntity
  8
TEXT
100
AcDbLine
 10
1.730341471467399
 20
0.6972622144045331
 30
0.0
 11
1.662026592918125
 21
0.6972622144045331
 31
0.0
  0
ARC
  5
53E84EBAA
330
53E84EBC8
100
AcDbEntity
  8
TEXT
100
AcDbCircle
 10
1.421670853876919
 20
0.59021444151603
 30
0.0
 40
0.0416329381542859
100
AcDbArc
 50
26.56974201007528
 51
87.20939649401342
  0
LINE
  5
53E84EBAB
330
53E84EBC8
100
AcDbEntity
  8
TEXT
100
AcDbLine
 10
1.56655463882853
 20
0.6317980086369324
 30
0.0
 11
1.50265773252903
 21
0.6317980086369324
 31
0.0
  0
LINE
  5
53E84EBAC
330
53E84EBC8
100
AcDbEntity
  8
TEXT
100
AcDbLine
 10
1.56655463882853
 20
0.6042503587760577
 30
0.0
 11
1.56655463882853
 21
0.6317980086369324
 31
0.0
  0
ARC
  5
53E84EBAD
330
53E84EBC8
100
AcDbEntity
  8
TEXT
100
AcDbCircle
 10
1.597747455891638
 20
0.6005522813546676
 30
0.0
 40
0.0314112657011332
100
AcDbArc
 50
95.88484768694724
 51
173.2388340632136
  0
LINE
  5
53E84EBAE
330
53E84EBC8
100
AcDbEntity
  8
TEXT
100
AcDbLine
 10
1.66202659291812
 20
0.6317980086369324
 30
0.0
 11
1.594526875268603
 21
0.6317980086369324
 31
0.0
  0
LINE
  5
53E84EBAF
330
53E84EBC8
100
AcDbEntity
  8
TEXT
100
AcDbLine
 10
1.662026592918125
 20
0.6972622144045331
 30
0.0
 11
1.66202659291812
 21
0.6317980086369324
 31
0.0
  0
LINE
  5
53E84EBB0
330
53E84EBC8
100
AcDbEntity
  8
TEXT
100
AcDbLine
 10
1.852431462753011
 20
0.6317980086369324
 30
0.0
 11
1.777439630023385
 21
0.6317980086369324
 31
0.0
  0
ENDSEC
  0
SECTION
  2
OBJECTS
  0
DICTIONARY
  5
53E84EBBC
330
0
100
AcDbDictionary
  3
ACAD_GROUP
350
53E84EBBD
  3
ACAD_LAYOUT
350
53E84EBE2
  3
ACAD_MLINESTYLE
350
53E84EBBE
  3
ACAD_PLOTSETTINGS
350
53E84EBE3
  3
ACAD_PLOTSTYLENAME
350
53E84EBE0
  3
ACDBHEADERROUNDTRIPXREC
350
53E84EBED
  3
ACDBVARIABLEDICTIONARY
350
53E84EBEA
  0
DICTIONARY
  5
53E84EC0F
330
53E84EBC8
100
AcDbDictionary
280
     1
  3
ACAD_LAYOUTSELFREF
360
53E84EC10
  0
DICTIONARY
  5
53E84EC0D
330
53E84EBC5
100
AcDbDictionary
280
     1
  3
ACAD_LAYOUTSELFREF
360
53E84EC0E
  0
DICTIONARY
  5
53E84EBBD
102
{ACAD_REACTORS
330
53E84EBBC
102
}
330
53E84EBBC
100
AcDbDictionary
  0
DICTIONARY
  5
53E84EBE2
102
{ACAD_REACTORS
330
53E84EBBC
102
}
330
53E84EBBC
100
AcDbDictionary
  0
DICTIONARY
  5
53E84EBBE
102
{ACAD_REACTORS
330
53E84EBBC
102
}
330
53E84EBBC
100
AcDbDictionary
  3
STANDARD
350
53E84EBCB
  0
DICTIONARY
  5
53E84EBE3
102
{ACAD_REACTORS
330
53E84EBBC
102
}
330
53E84EBBC
100
AcDbDictionary
  0
ACDBDICTIONARYWDFLT
  5
53E84EBE0
102
{ACAD_REACTORS
330
53E84EBBC
102
}
330
53E84EBBC
100
AcDbDictionary
281
     1
  3
Normal
350
53E84EBE1
100
AcDbDictionaryWithDefault
340
53E84EBE1
  0
DICTIONARY
  5
53E84EBED
102
{ACAD_REACTORS
330
53E84EBBC
102
}
330
53E84EBBC
100
AcDbDictionary
  3
CEPSNTYPE
350
53E84EBF7
  3
FINGERPRINTGUID
350
53E84EBF8
  3
HYPERLINKBASE
350
53E84EBF0
  3
INSUNITS
350
53E84EBF6
  3
LAYOUTDICT
350
53E84EBF2
  3
LWETCUNION
350
53E84EBF5
  3
PLOTSETDICT
350
53E84EBF3
  3
PLOTSTYLNAMDICT
350
53E84EBF4
  3
PSVPSCALE
350
53E84EBFA
  3
PUCSBASE
350
53E84EBFD
  3
PUCSORGBACK
350
53E84EC03
  3
PUCSORGBOTTOM
350
53E84EBFF
  3
PUCSORGFRONT
350
53E84EC02
  3
PUCSORGLEFT
350
53E84EC00
  3
PUCSORGRIGHT
350
53E84EC01
  3
PUCSORGTOP
350
53E84EBFE
  3
PUCSORTHOREF
350
53E84EBFB
  3
PUCSORTHOVIEW
350
53E84EBFC
  3
STYLESHEET
350
53E84EBF1
  3
TSTACKALIGN
350
53E84EBEE
  3
TSTACKSIZE
350
53E84EBEF
  3
UCSBASE
350
53E84EC06
  3
UCSORGBACK
350
53E84EC0C
  3
UCSORGBOTTOM
350
53E84EC08
  3
UCSORGFRONT
350
53E84EC0B
  3
UCSORGLEFT
350
53E84EC09
  3
UCSORGRIGHT
350
53E84EC0A
  3
UCSORGTOP
350
53E84EC07
  3
UCSORTHOREF
350
53E84EC04
  3
UCSORTHOVIEW
350
53E84EC05
  3
VERSIONGUID
350
53E84EBF9
  0
DICTIONARY
  5
53E84EBEA
102
{ACAD_REACTORS
330
53E84EBBC
102
}
330
53E84EBBC
100
AcDbDictionary
  3
DIMASSOC
350
53E84EBEB
  0
XRECORD
  5
53E84EC10
102
{ACAD_REACTORS
330
53E84EC0F
102
}
330
53E84EC0F
100
AcDbXrecord
340
53E84EBC8
  0
XRECORD
  5
53E84EC0E
102
{ACAD_REACTORS
330
53E84EC0D
102
}
330
53E84EC0D
100
AcDbXrecord
340
53E84EBC5
  0
MLINESTYLE
  5
53E84EBCB
102
{ACAD_REACTORS
330
53E84EBBE
102
}
330
53E84EBBE
100
AcDbMlineStyle
  2
STANDARD
 70
     0
  3

 62
     0
 51
90.0
 52
90.0
 71
     2
 49
0.5
 62
   256
  6
BYLAYER
 49
-0.5
 62
   256
  6
BYLAYER
  0
ACDBPLACEHOLDER
  5
53E84EBE1
102
{ACAD_REACTORS
330
53E84EBE0
102
}
330
53E84EBE0
100
AcDbPlaceHolder
280
     0
  0
XRECORD
  5
53E84EBF7
102
{ACAD_REACTORS
330
53E84EBED
102
}
330
53E84EBED
100
AcDbXrecord
 90
        0
  0
XRECORD
  5
53E84EBF8
102
{ACAD_REACTORS
330
53E84EBED
102
}
330
53E84EBED
100
AcDbXrecord
  1
{A2051960-8DB3-11D6-88E6-0090279574E7}
  0
XRECORD
  5
53E84EBF0
102
{ACAD_REACTORS
330
53E84EBED
102
}
330
53E84EBED
100
AcDbXrecord
  1

  0
XRECORD
  5
53E84EBF6
102
{ACAD_REACTORS
330
53E84EBED
102
}
330
53E84EBED
100
AcDbXrecord
 90
        0
  0
XRECORD
  5
53E84EBF2
102
{ACAD_REACTORS
330
53E84EBED
102
}
330
53E84EBED
100
AcDbXrecord
340
53E84EBE2
  0
XRECORD
  5
53E84EBF5
102
{ACAD_REACTORS
330
53E84EBED
102
}
330
53E84EBED
100
AcDbXrecord
 90
    14877
  0
XRECORD
  5
53E84EBF3
102
{ACAD_REACTORS
330
53E84EBED
102
}
330
53E84EBED
100
AcDbXrecord
340
53E84EBE3
  0
XRECORD
  5
53E84EBF4
102
{ACAD_REACTORS
330
53E84EBED
102
}
330
53E84EBED
100
AcDbXrecord
340
53E84EBE0
  0
XRECORD
  5
53E84EBFA
102
{ACAD_REACTORS
330
53E84EBED
102
}
330
53E84EBED
100
AcDbXrecord
 40
0.0
  0
XRECORD
  5
53E84EBFD
102
{ACAD_REACTORS
330
53E84EBED
102
}
330
53E84EBED
100
AcDbXrecord
340
0
  0
XRECORD
  5
53E84EC03
102
{ACAD_REACTORS
330
53E84EBED
102
}
330
53E84EBED
100
AcDbXrecord
 10
0.0
 20
0.0
 30
0.0
  0
XRECORD
  5
53E84EBFF
102
{ACAD_REACTORS
330
53E84EBED
102
}
330
53E84EBED
100
AcDbXrecord
 10
0.0
 20
0.0
 30
0.0
  0
XRECORD
  5
53E84EC02
102
{ACAD_REACTORS
330
53E84EBED
102
}
330
53E84EBED
100
AcDbXrecord
 10
0.0
 20
0.0
 30
0.0
  0
XRECORD
  5
53E84EC00
102
{ACAD_REACTORS
330
53E84EBED
102
}
330
53E84EBED
100
AcDbXrecord
 10
0.0
 20
0.0
 30
0.0
  0
XRECORD
  5
53E84EC01
102
{ACAD_REACTORS
330
53E84EBED
102
}
330
53E84EBED
100
AcDbXrecord
 10
0.0
 20
0.0
 30
0.0
  0
XRECORD
  5
53E84EBFE
102
{ACAD_REACTORS
330
53E84EBED
102
}
330
53E84EBED
100
AcDbXrecord
 10
0.0
 20
0.0
 30
0.0
  0
XRECORD
  5
53E84EBFB
102
{ACAD_REACTORS
330
53E84EBED
102
}
330
53E84EBED
100
AcDbXrecord
340
0
  0
XRECORD
  5
53E84EBFC
102
{ACAD_REACTORS
330
53E84EBED
102
}
330
53E84EBED
100
AcDbXrecord
 70
     0
  0
XRECORD
  5
53E84EBF1
102
{ACAD_REACTORS
330
53E84EBED
102
}
330
53E84EBED
100
AcDbXrecord
  1

  0
XRECORD
  5
53E84EBEE
102
{ACAD_REACTORS
330
53E84EBED
102
}
330
53E84EBED
100
AcDbXrecord
 90
        1
  0
XRECORD
  5
53E84EBEF
102
{ACAD_REACTORS
330
53E84EBED
102
}
330
53E84EBED
100
AcDbXrecord
 90
       70
  0
XRECORD
  5
53E84EC06
102
{ACAD_REACTORS
330
53E84EBED
102
}
330
53E84EBED
100
AcDbXrecord
340
0
  0
XRECORD
  5
53E84EC0C
102
{ACAD_REACTORS
330
53E84EBED
102
}
330
53E84EBED
100
AcDbXrecord
 10
0.0
 20
0.0
 30
0.0
  0
XRECORD
  5
53E84EC08
102
{ACAD_REACTORS
330
53E84EBED
102
}
330
53E84EBED
100
AcDbXrecord
 10
0.0
 20
0.0
 30
0.0
  0
XRECORD
  5
53E84EC0B
102
{ACAD_REACTORS
330
53E84EBED
102
}
330
53E84EBED
100
AcDbXrecord
 10
0.0
 20
0.0
 30
0.0
  0
XRECORD
  5
53E84EC09
102
{ACAD_REACTORS
330
53E84EBED
102
}
330
53E84EBED
100
AcDbXrecord
 10
0.0
 20
0.0
 30
0.0
  0
XRECORD
  5
53E84EC0A
102
{ACAD_REACTORS
330
53E84EBED
102
}
330
53E84EBED
100
AcDbXrecord
 10
0.0
 20
0.0
 30
0.0
  0
XRECORD
  5
53E84EC07
102
{ACAD_REACTORS
330
53E84EBED
102
}
330
53E84EBED
100
AcDbXrecord
 10
0.0
 20
0.0
 30
0.0
  0
XRECORD
  5
53E84EC04
102
{ACAD_REACTORS
330
53E84EBED
102
}
330
53E84EBED
100
AcDbXrecord
340
0
  0
XRECORD
  5
53E84EC05
102
{ACAD_REACTORS
330
53E84EBED
102
}
330
53E84EBED
100
AcDbXrecord
 70
     0
  0
XRECORD
  5
53E84EBF9
102
{ACAD_REACTORS
330
53E84EBED
102
}
330
53E84EBED
100
AcDbXrecord
  1
{A2051962-8DB3-11D6-88E6-0090279574E7}
  0
DICTIONARYVAR
  5
53E84EBEB
102
{ACAD_REACTORS
330
53E84EBEA
102
}
330
53E84EBEA
100
DictionaryVariables
280
     0
  1
1
  0
ENDSEC
  0
EOF
