  0
SECTION
  2
HEADER
  9
$ACADVER
  1
AC1014
  9
$ACADMAINTVER
 70
     9
  9
$DWGCODEPAGE
  3
ANSI_1252
  9
$INSBASE
 10
0.0
 20
0.0
 30
0.0
  9
$EXTMIN
 10
-0.8083343985375314
 20
-0.1420932846591582
 30
0.0
  9
$EXTMAX
 10
2.676884923209597
 20
2.085137063507349
 30
0.0
  9
$LIMMIN
 10
0.0
 20
0.0
  9
$LIMMAX
 10
8.5
 20
11.0
  9
$ORTHOMODE
 70
     1
  9
$REGENMODE
 70
     1
  9
$FILLMODE
 70
     1
  9
$QTEXTMODE
 70
     0
  9
$MIRRTEXT
 70
     0
  9
$DRAGMODE
 70
     2
  9
$LTSCALE
 40
1.0
  9
$OSMODE
 70
    39
  9
$ATTMODE
 70
     1
  9
$TEXTSIZE
 40
0.125
  9
$TRACEWID
 40
0.05
  9
$TEXTSTYLE
  7
ROMANS
  9
$CLAYER
  8
DIMENSIONS
  9
$CELTYPE
  6
BYLAYER
  9
$CECOLOR
 62
   256
  9
$CELTSCALE
 40
1.0
  9
$DELOBJ
 70
     1
  9
$DISPSILH
 70
     1
  9
$DIMSCALE
 40
1.0
  9
$DIMASZ
 40
0.125
  9
$DIMEXO
 40
0.125
  9
$DIMDLI
 40
0.375
  9
$DIMRND
 40
0.0
  9
$DIMDLE
 40
0.0
  9
$DIMEXE
 40
0.125
  9
$DIMTP
 40
0.0
  9
$DIMTM
 40
0.0
  9
$DIMTXT
 40
0.125
  9
$DIMCEN
 40
-0.125
  9
$DIMTSZ
 40
0.0
  9
$DIMTOL
 70
     0
  9
$DIMLIM
 70
     0
  9
$DIMTIH
 70
     1
  9
$DIMTOH
 70
     1
  9
$DIMSE1
 70
     0
  9
$DIMSE2
 70
     0
  9
$DIMTAD
 70
     0
  9
$DIMZIN
 70
     4
  9
$DIMBLK
  1

  9
$DIMASO
 70
     1
  9
$DIMSHO
 70
     1
  9
$DIMPOST
  1

  9
$DIMAPOST
  1

  9
$DIMALT
 70
     0
  9
$DIMALTD
 70
     2
  9
$DIMALTF
 40
25.4
  9
$DIMLFAC
 40
0.5
  9
$DIMTOFL
 70
     0
  9
$DIMTVP
 40
0.0
  9
$DIMTIX
 70
     1
  9
$DIMSOXD
 70
     0
  9
$DIMSAH
 70
     0
  9
$DIMBLK1
  1

  9
$DIMBLK2
  1

  9
$DIMSTYLE
  2
STANDARD
  9
$DIMCLRD
 70
     0
  9
$DIMCLRE
 70
     0
  9
$DIMCLRT
 70
     0
  9
$DIMTFAC
 40
1.0
  9
$DIMGAP
 40
0.09
  9
$DIMJUST
 70
     0
  9
$DIMSD1
 70
     0
  9
$DIMSD2
 70
     0
  9
$DIMTOLJ
 70
     1
  9
$DIMTZIN
 70
     4
  9
$DIMALTZ
 70
     0
  9
$DIMALTTZ
 70
     0
  9
$DIMFIT
 70
     3
  9
$DIMUPT
 70
     0
  9
$DIMUNIT
 70
     2
  9
$DIMDEC
 70
     3
  9
$DIMTDEC
 70
     3
  9
$DIMALTU
 70
     2
  9
$DIMALTTD
 70
     2
  9
$DIMTXSTY
  7
ROMANS
  9
$DIMAUNIT
 70
     0
  9
$LUNITS
 70
     2
  9
$LUPREC
 70
     3
  9
$SKETCHINC
 40
0.1
  9
$FILLETRAD
 40
0.06
  9
$AUNITS
 70
     0
  9
$AUPREC
 70
     0
  9
$MENU
  1
ACAD
  9
$ELEVATION
 40
0.0
  9
$PELEVATION
 40
0.0
  9
$THICKNESS
 40
0.0
  9
$LIMCHECK
 70
     0
  9
$BLIPMODE
 70
     0
  9
$CHAMFERA
 40
0.0
  9
$CHAMFERB
 40
0.0
  9
$CHAMFERC
 40
0.0
  9
$CHAMFERD
 40
0.0
  9
$SKPOLY
 70
     0
  9
$TDCREATE
 40
2448104.598487615
  9
$TDUPDATE
 40
2452458.293597373
  9
$TDINDWG
 40
0.0739314352
  9
$TDUSRTIMER
 40
0.0739314352
  9
$USRTIMER
 70
     1
  9
$ANGBASE
 50
0.0
  9
$ANGDIR
 70
     0
  9
$PDMODE
 70
     0
  9
$PDSIZE
 40
0.0
  9
$PLINEWID
 40
0.0
  9
$COORDS
 70
     2
  9
$SPLFRAME
 70
     0
  9
$SPLINETYPE
 70
     6
  9
$SPLINESEGS
 70
     8
  9
$ATTDIA
 70
     0
  9
$ATTREQ
 70
     1
  9
$HANDLING
 70
 22529
  9
$HANDSEED
  5
43C
  9
$SURFTAB1
 70
     6
  9
$SURFTAB2
 70
     6
  9
$SURFTYPE
 70
     6
  9
$SURFU
 70
     6
  9
$SURFV
 70
     6
  9
$UCSNAME
  2

  9
$UCSORG
 10
0.0
 20
0.0
 30
0.0
  9
$UCSXDIR
 10
1.0
 20
0.0
 30
0.0
  9
$UCSYDIR
 10
0.0
 20
1.0
 30
0.0
  9
$PUCSNAME
  2

  9
$PUCSORG
 10
0.0
 20
0.0
 30
0.0
  9
$PUCSXDIR
 10
1.0
 20
0.0
 30
0.0
  9
$PUCSYDIR
 10
0.0
 20
1.0
 30
0.0
  9
$USERI1
 70
     0
  9
$USERI2
 70
     0
  9
$USERI3
 70
     0
  9
$USERI4
 70
     0
  9
$USERI5
 70
     0
  9
$USERR1
 40
0.0
  9
$USERR2
 40
0.0
  9
$USERR3
 40
0.0
  9
$USERR4
 40
0.0
  9
$USERR5
 40
0.0
  9
$WORLDVIEW
 70
     1
  9
$SHADEDGE
 70
     3
  9
$SHADEDIF
 70
    70
  9
$TILEMODE
 70
     1
  9
$MAXACTVP
 70
    16
  9
$PINSBASE
 10
0.0
 20
0.0
 30
0.0
  9
$PLIMCHECK
 70
     0
  9
$PEXTMIN
 10
1.000000000000000E+20
 20
1.000000000000000E+20
 30
1.000000000000000E+20
  9
$PEXTMAX
 10
-1.000000000000000E+20
 20
-1.000000000000000E+20
 30
-1.000000000000000E+20
  9
$PLIMMIN
 10
0.0
 20
0.0
  9
$PLIMMAX
 10
12.0
 20
9.0
  9
$UNITMODE
 70
     0
  9
$VISRETAIN
 70
     0
  9
$PLINEGEN
 70
     1
  9
$PSLTSCALE
 70
     0
  9
$TREEDEPTH
 70
  3020
  9
$PICKSTYLE
 70
     1
  9
$CMLSTYLE
  2
STANDARD
  9
$CMLJUST
 70
     0
  9
$CMLSCALE
 40
1.0
  9
$PROXYGRAPHICS
 70
     1
  9
$MEASUREMENT
 70
     0
  0
ENDSEC
  0
SECTION
  2
CLASSES
  0
CLASS
  1
LWPOLYLINE
  2
AcDbPolyline
  3
AutoCAD 2000
 90
        0
280
     0
281
     1
  0
CLASS
  1
ACDBDICTIONARYWDFLT
  2
AcDbDictionaryWithDefault
  3
AutoCAD 2000
 90
        0
280
     0
281
     0
  0
CLASS
  1
ACDBPLACEHOLDER
  2
AcDbPlaceHolder
  3
AutoCAD 2000
 90
        0
280
     0
281
     0
  0
CLASS
  1
LAYOUT
  2
AcDbLayout
  3
AutoCAD 2000
 90
        0
280
     0
281
     0
  0
CLASS
  1
DICTIONARYVAR
  2
AcDbDictionaryVar
  3
AutoCAD 2000
 90
        0
280
     0
281
     0
  0
CLASS
  1
LONG_TRANSACTION
  2
AcDbLongTransaction
  3
AutoCAD 2000
 90
        0
280
     0
281
     0
  0
CLASS
  1
LWPOLYLINE
  2
AcDbPolyline
  3
AutoCAD 2000
 90
        0
280
     0
281
     1
  0
CLASS
  1
HATCH
  2
AcDbHatch
  3
AutoCAD 2000
 90
        0
280
     0
281
     1
  0
CLASS
  1
XRECORD
  2
AcDbXrecord
  3
AutoCAD 2000
 90
        0
280
     0
281
     0
  0
ENDSEC
  0
SECTION
  2
TABLES
  0
TABLE
  2
VPORT
  5
8
330
0
100
AcDbSymbolTable
 70
     2
  0
VPORT
  5
417
330
8
100
AcDbSymbolTableRecord
100
AcDbViewportTableRecord
  2
*ACTIVE
 70
     0
 10
0.0
 20
0.0
 11
1.0
 21
1.0
 12
8.420250160348487
 22
1.322030038397772
 13
0.0
 23
0.0
 14
0.015625
 24
0.015625
 15
0.0
 25
0.0
 16
0.0
 26
0.0
 36
1.0
 17
0.0
 27
0.0
 37
0.0
 40
5.529576336576402
 41
4.320930232558139
 42
50.0
 43
0.0
 44
0.0
 50
0.0
 51
0.0
 71
     0
 72
  2000
 73
     1
 74
     1
 75
     0
 76
     0
 77
     0
 78
     0
  0
ENDTAB
  0
TABLE
  2
LTYPE
  5
5
330
0
100
AcDbSymbolTable
 70
     1
  0
LTYPE
  5
12
330
5
100
AcDbSymbolTableRecord
100
AcDbLinetypeTableRecord
  2
BYBLOCK
 70
     0
  3

 72
    65
 73
     0
 40
0.0
  0
LTYPE
  5
13
330
5
100
AcDbSymbolTableRecord
100
AcDbLinetypeTableRecord
  2
BYLAYER
 70
     0
  3

 72
    65
 73
     0
 40
0.0
  0
LTYPE
  5
14
330
5
100
AcDbSymbolTableRecord
100
AcDbLinetypeTableRecord
  2
CONTINUOUS
 70
     0
  3
Solid line
 72
    65
 73
     0
 40
0.0
  0
ENDTAB
  0
TABLE
  2
LAYER
  5
2
330
0
100
AcDbSymbolTable
 70
     3
  0
LAYER
  5
F
330
2
100
AcDbSymbolTableRecord
100
AcDbLayerTableRecord
  2
0
 70
     0
 62
     7
  6
CONTINUOUS
  0
LAYER
  5
21
330
2
100
AcDbSymbolTableRecord
100
AcDbLayerTableRecord
  2
DIMENSIONS
 70
     0
 62
     4
  6
CONTINUOUS
  0
LAYER
  5
22
330
2
100
AcDbSymbolTableRecord
100
AcDbLayerTableRecord
  2
TEXT
 70
     0
 62
     3
  6
CONTINUOUS
  0
ENDTAB
  0
TABLE
  2
STYLE
  5
3
330
0
100
AcDbSymbolTable
 70
     3
  0
STYLE
  5
10
330
3
100
AcDbSymbolTableRecord
100
AcDbTextStyleTableRecord
  2
STANDARD
 70
     0
 40
0.0
 41
1.0
 50
0.0
 71
     0
 42
0.125
  3
txt
  4

  0
STYLE
  5
2D7
330
3
100
AcDbSymbolTableRecord
100
AcDbTextStyleTableRecord
  2
ROMANS
 70
     0
 40
0.0
 41
1.0
 50
0.0
 71
     0
 42
0.125
  3
romans.shx
  4

  0
STYLE
  5
2FF
330
3
100
AcDbSymbolTableRecord
100
AcDbTextStyleTableRecord
  2
ITALICC
 70
     0
 40
0.0
 41
1.0
 50
0.0
 71
     0
 42
0.125
  3
italicc
  4

  0
ENDTAB
  0
TABLE
  2
VIEW
  5
6
330
0
100
AcDbSymbolTable
 70
     0
  0
ENDTAB
  0
TABLE
  2
UCS
  5
7
330
0
100
AcDbSymbolTable
 70
     0
  0
ENDTAB
  0
TABLE
  2
APPID
  5
9
330
0
100
AcDbSymbolTable
 70
     1
  0
APPID
  5
11
330
9
100
AcDbSymbolTableRecord
100
AcDbRegAppTableRecord
  2
ACAD
 70
     0
  0
ENDTAB
  0
TABLE
  2
DIMSTYLE
  5
A
330
0
100
AcDbSymbolTable
 70
     1
  0
DIMSTYLE
105
2CB
330
A
100
AcDbSymbolTableRecord
100
AcDbDimStyleTableRecord
  2
STANDARD
 70
     0
  3

  4

  5

  6

  7

 40
1.0
 41
0.125
 42
0.125
 43
0.375
 44
0.125
 45
0.0
 46
0.0
 47
0.0
 48
0.0
140
0.125
141
-0.125
142
0.0
143
25.4
144
0.5
145
0.0
146
1.0
147
0.09
 71
     0
 72
     0
 73
     1
 74
     1
 75
     0
 76
     0
 77
     0
 78
     4
170
     0
171
     2
172
     0
173
     0
174
     1
175
     0
176
     0
177
     0
178
     0
270
     2
271
     3
272
     3
273
     2
274
     2
340
2D7
275
     0
280
     0
281
     0
282
     0
283
     1
284
     4
285
     0
286
     0
287
     3
288
     0
  0
ENDTAB
  0
TABLE
  2
BLOCK_RECORD
  5
1
330
0
100
AcDbSymbolTable
 70
     0
  0
BLOCK_RECORD
  5
18
102
{ACAD_XDICTIONARY
360
43A
102
}
330
1
100
AcDbSymbolTableRecord
100
AcDbBlockTableRecord
  2
*MODEL_SPACE
  0
BLOCK_RECORD
  5
15
102
{ACAD_XDICTIONARY
360
438
102
}
330
1
100
AcDbSymbolTableRecord
100
AcDbBlockTableRecord
  2
*PAPER_SPACE
  0
ENDTAB
  0
ENDSEC
  0
SECTION
  2
BLOCKS
  0
BLOCK
  5
28
330
18
100
AcDbEntity
  8
0
100
AcDbBlockBegin
  2
*MODEL_SPACE
 70
     0
 10
0.0
 20
0.0
 30
0.0
  3
*MODEL_SPACE
  1

  0
ENDBLK
  5
29
330
18
100
AcDbEntity
  8
0
100
AcDbBlockEnd
  0
BLOCK
  5
26
330
15
100
AcDbEntity
 67
     1
  8
0
100
AcDbBlockBegin
  2
*PAPER_SPACE
 70
     0
 10
0.0
 20
0.0
 30
0.0
  3
*PAPER_SPACE
  1

  0
ENDBLK
  5
27
330
15
100
AcDbEntity
 67
     1
  8
0
100
AcDbBlockEnd
  0
ENDSEC
  0
SECTION
  2
ENTITIES
  0
LWPOLYLINE
  5
2F
330
18
100
AcDbEntity
  8
0
100
AcDbPolyline
 90
       12
 70
     1
 43
0.0
 10
1.420754340683341
 20
0.7350958027711103
 10
1.420754340683341
 20
0.6750958027711103
 10
1.451254340683341
 20
0.6750958027711103
 10
1.451254340683341
 20
0.6257208027711103
 10
0.3327543406833414
 20
0.6257208027711103
 10
0.3327543406833415
 20
0.6750958027711098
 10
0.3607543406833413
 20
0.6750958027711098
 10
0.3607543406833413
 20
0.7350958027711103
 10
0.3327543406833415
 20
0.7350958027711103
 10
0.3327543406833414
 20
0.9157208027711101
 10
1.451254340683341
 20
0.9157208027711101
 10
1.451254340683341
 20
0.7350958027711103
  0
LWPOLYLINE
  5
3D
330
18
100
AcDbEntity
  8
0
100
AcDbPolyline
 90
       40
 70
     1
 43
0.0
 10
0.3575043406833412
 20
1.50447080277111
 10
0.3575043406833412
 20
1.38822080277111
 10
0.3475043406833413
 20
1.37822080277111
 10
0.3575043406833412
 20
1.36822080277111
 10
0.3575043406833411
 20
1.03572080277111
 42
0.4142135623730951
 10
0.4175043406833412
 20
0.9757208027711101
 10
0.5987543406833414
 20
0.9757208027711103
 10
0.6087543406833414
 20
0.9657208027711103
 10
0.6187543406833412
 20
0.9757208027711101
 10
0.7987543406833411
 20
0.9757208027711101
 42
0.4142135623730951
 10
0.8587543406833411
 20
1.03572080277111
 10
0.8587543406833413
 20
1.50447080277111
 42
-1.0
 10
0.9187543406833412
 20
1.50447080277111
 10
0.9187543406833411
 20
1.03572080277111
 42
0.4142135623730951
 10
0.9787543406833412
 20
0.9757208027711101
 10
1.17562934068334
 20
0.9757208027711101
 10
1.18562934068334
 20
0.9657208027711099
 10
1.195629340683341
 20
0.9757208027711101
 10
1.391254340683341
 20
0.9757208027711101
 42
0.4142135623730951
 10
1.451254340683341
 20
1.03572080277111
 10
1.451254340683341
 20
1.77447080277111
 10
1.461254340683341
 20
1.78447080277111
 10
1.451254340683341
 20
1.79447080277111
 10
1.451254340683341
 20
1.97197080277111
 42
-0.4142135623730951
 10
1.54500434068334
 20
2.06572080277111
 10
1.638754340683341
 20
2.06572080277111
 10
1.638754340683341
 20
1.97197080277111
 10
1.511254340683341
 20
1.97197080277111
 10
1.511254340683341
 20
1.53447080277111
 10
1.608754340683341
 20
1.53447080277111
 42
-1.0
 10
1.608754340683341
 20
1.47447080277111
 10
1.511254340683341
 20
1.47447080277111
 10
1.511254340683341
 20
0.6257208027711103
 10
1.608754340683341
 20
0.62572080277111
 42
-1.0
 10
1.608754340683341
 20
0.5657208027711102
 10
0.3027543406833415
 20
0.5657208027711103
 42
-0.4142135623730951
 10
0.2727543406833415
 20
0.5957208027711103
 10
0.2727543406833415
 20
1.022852545283781
 10
0.2975043406833411
 20
1.06572080277111
 10
0.2975043406833413
 20
1.50447080277111
 42
-1.0
  0
TEXT
  5
384
330
18
100
AcDbEntity
  8
TEXT
100
AcDbText
 10
0.1816709902134213
 20
0.3159253194234233
 30
0.0
 40
0.125
  1
PART #110054
  7
ITALICC
 72
     1
 11
0.9346471806896117
 21
0.3159253194234233
 31
0.0
100
AcDbText
  0
LINE
  5
385
330
18
100
AcDbEntity
  8
TEXT
100
AcDbLine
 10
1.089961810712995
 20
0.1358483280603551
 30
0.0
 11
1.04286365215701
 21
0.059983001648817
 31
0.0
  0
LINE
  5
386
330
18
100
AcDbEntity
  8
TEXT
100
AcDbLine
 10
1.04286365215701
 20
0.059983001648817
 30
0.0
 11
1.04286365215701
 21
0.2013125338279558
 31
0.0
  0
LINE
  5
387
330
18
100
AcDbEntity
  8
TEXT
100
AcDbLine
 10
1.04286365215701
 20
0.2013125338279558
 30
0.0
 11
0.9745487736077373
 21
0.2013125338279558
 31
0.0
  0
LINE
  5
388
330
18
100
AcDbEntity
  8
TEXT
100
AcDbLine
 10
0.9745487736077373
 20
0.2013125338279558
 30
0.0
 11
0.974548773607732
 21
0.1358483280603551
 31
0.0
  0
LINE
  5
389
330
18
100
AcDbEntity
  8
TEXT
100
AcDbLine
 10
1.100396527476918
 20
0.0259550851193815
 30
0.0
 11
1.164953643442623
 21
0.1358483280603551
 31
0.0
  0
LINE
  5
38A
330
18
100
AcDbEntity
  8
TEXT
100
AcDbLine
 10
1.164953643442623
 20
0.1358483280603551
 30
0.0
 11
1.089961810712996
 21
0.1358483280603551
 31
0.0
  0
LINE
  5
38B
330
18
100
AcDbEntity
  8
TEXT
100
AcDbLine
 10
0.9790286609342375
 20
-0.1306247049281559
 30
0.0
 11
1.043406845252857
 21
-0.1306247049281559
 31
0.0
  0
LINE
  5
38C
330
18
100
AcDbEntity
  8
TEXT
100
AcDbLine
 10
1.043406845252857
 20
-0.1306247049281559
 30
0.0
 11
1.043406845252857
 21
0.0009548635480243
 31
0.0
  0
LINE
  5
38D
330
18
100
AcDbEntity
  8
TEXT
100
AcDbLine
 10
1.043406845252857
 20
0.0009548635480243
 30
0.0
 11
1.119310378464322
 21
-0.1306247049281559
 31
0.0
  0
LINE
  5
38E
330
18
100
AcDbEntity
  8
TEXT
100
AcDbLine
 10
1.119310378464322
 20
-0.1306247049281559
 30
0.0
 11
1.195888750840528
 21
-0.1306247049281559
 31
0.0
  0
LINE
  5
38F
330
18
100
AcDbEntity
  8
TEXT
100
AcDbLine
 10
0.9790286609342322
 20
0.0715716334035896
 30
0.0
 11
0.9790286609342375
 21
-0.1306247049281559
 31
0.0
  0
LINE
  5
390
330
18
100
AcDbEntity
  8
TEXT
100
AcDbLine
 10
1.195888750840528
 20
-0.1306247049281559
 30
0.0
 11
1.100396527476918
 21
0.0259550851193815
 31
0.0
  0
ARC
  5
391
330
18
100
AcDbEntity
  8
TEXT
100
AcDbCircle
 10
0.9023806796416735
 20
0.0466657581209269
 30
0.0
 40
0.0249058752826653
100
AcDbArc
 50
89.99971217465335
 51
179.9999999999985
  0
ARC
  5
392
330
18
100
AcDbEntity
  8
TEXT
100
AcDbCircle
 10
0.9102696365812512
 20
0.1046026007780902
 30
0.0
 40
0.0314112657011332
100
AcDbArc
 50
95.88484768694724
 51
173.2388340632136
  0
LINE
  5
393
330
18
100
AcDbEntity
  8
TEXT
100
AcDbLine
 10
0.8790768195181426
 20
0.1083006781994804
 30
0.0
 11
0.8790768195181426
 21
0.1358483280603551
 31
0.0
  0
LINE
  5
394
330
18
100
AcDbEntity
  8
TEXT
100
AcDbLine
 10
0.8790768195181426
 20
0.1358483280603551
 30
0.0
 11
0.8151799132186416
 21
0.1358483280603551
 31
0.0
  0
LINE
  5
395
330
18
100
AcDbEntity
  8
TEXT
100
AcDbLine
 10
0.8151799132186416
 20
0.1358483280603551
 30
0.0
 11
0.8151799132186416
 21
0.0306363495069277
 31
0.0
  0
LINE
  5
396
330
18
100
AcDbEntity
  8
TEXT
100
AcDbLine
 10
0.7362199743436007
 20
0.1358483280603551
 30
0.0
 11
0.6013880651265416
 21
0.1358483280603551
 31
0.0
  0
LINE
  5
397
330
18
100
AcDbEntity
  8
TEXT
100
AcDbLine
 10
0.6013880651265416
 20
0.1358483280603551
 30
0.0
 11
0.6013880651265416
 21
0.1075257822907112
 31
0.0
  0
LINE
  5
398
330
18
100
AcDbEntity
  8
TEXT
100
AcDbLine
 10
0.6607021615198603
 20
0.0342966599414574
 30
0.0
 11
0.7429901513032436
 21
0.0342966599414574
 31
0.0
  0
LINE
  5
399
330
18
100
AcDbEntity
  8
TEXT
100
AcDbLine
 10
0.7429901513032436
 20
0.0342966599414574
 30
0.0
 11
0.7327253908896792
 21
0.0555471995141517
 31
0.0
  0
LINE
  5
39A
330
18
100
AcDbEntity
  8
TEXT
100
AcDbLine
 10
0.7071890759991222
 20
0.0715716334035896
 30
0.0
 11
0.5999828026118328
 21
0.0715716334035896
 31
0.0
  0
ARC
  5
39B
330
18
100
AcDbEntity
  8
TEXT
100
AcDbCircle
 10
0.7071890759991213
 20
0.0432122584035923
 30
0.0
 40
0.028359375
100
AcDbArc
 50
25.78218179591245
 51
90.0
  0
LINE
  5
39C
330
18
100
AcDbEntity
  8
TEXT
100
AcDbLine
 10
0.8151799132186416
 20
0.0306363495069277
 30
0.0
 11
0.7714291420367401
 21
0.1128866255030729
 31
0.0
  0
ARC
  5
39D
330
18
100
AcDbEntity
  8
TEXT
100
AcDbCircle
 10
0.7341930345665322
 20
0.0942647609394527
 30
0.0
 40
0.0416329381542859
100
AcDbArc
 50
26.56974201007528
 51
87.20939649401342
  0
LWPOLYLINE
  5
39E
330
18
100
AcDbEntity
  8
TEXT
100
AcDbPolyline
 90
        2
 70
     0
 43
0.0
 10
0.8191195905236803
 20
-0.0871337599777178
 42
-0.2901071551932486
 10
0.7760436576560359
 20
-0.1306247049281559
 42
-5.328517124445184
  0
LWPOLYLINE
  5
39F
330
18
100
AcDbEntity
  8
TEXT
100
AcDbPolyline
 90
        2
 70
     0
 43
0.0
 10
0.8191195905236803
 20
-0.0871337599777178
 10
0.8191195905236803
 20
-0.1306247049281559
  0
LWPOLYLINE
  5
3A0
330
18
100
AcDbEntity
  8
TEXT
100
AcDbPolyline
 90
        2
 70
     0
 43
0.0
 10
0.8191195905236803
 20
-0.1306247049281559
 10
0.8774748043590143
 20
-0.1306247049281559
  0
LWPOLYLINE
  5
3A1
330
18
100
AcDbEntity
  8
TEXT
100
AcDbPolyline
 90
        2
 70
     0
 43
0.0
 10
0.5989503071570237
 20
-0.0871337599777178
 42
0.2901071551932823
 10
0.6420262400246593
 20
-0.1306247049281559
 42
5.328517124445801
  0
LWPOLYLINE
  5
3A2
330
18
100
AcDbEntity
  8
TEXT
100
AcDbPolyline
 90
        2
 70
     0
 43
0.0
 10
0.6420262400246593
 20
-0.1306247049281559
 10
0.7760436576560359
 20
-0.1306247049281559
 42
0.9999999999999998
  0
LWPOLYLINE
  5
3A3
330
18
100
AcDbEntity
  8
TEXT
100
AcDbPolyline
 90
        4
 70
     1
 43
0.0
 10
0.7559211925861434
 20
-0.0276607269441307
 10
0.6672608739262849
 20
-0.0276607269441307
 42
0.9999999999999998
 10
0.6672608739262849
 20
-0.0700592674479914
 10
0.7559211925861434
 20
-0.0700592674479914
 42
1.0
  0
ARC
  5
3A4
330
18
100
AcDbEntity
  8
TEXT
100
AcDbCircle
 10
0.6607021615198594
 20
-0.0333889212026612
 30
0.0
 40
0.0676855811441166
100
AcDbArc
 50
90.0
 51
153.7768192527749
  0
LINE
  5
3A5
330
18
100
AcDbEntity
  8
TEXT
100
AcDbLine
 10
0.8774748043590152
 20
-0.1306247049281559
 30
0.0
 11
0.8774748043590099
 21
0.0466658005033125
 31
0.0
  0
LINE
  5
3A6
330
18
100
AcDbEntity
  8
TEXT
100
AcDbLine
 10
0.5999828026118328
 20
0.0715716334035896
 30
0.0
 11
0.5999828026118328
 21
-0.003480772670617
 31
0.0
  0
LINE
  5
3A7
330
18
100
AcDbEntity
  8
TEXT
100
AcDbLine
 10
0.9023806796416744
 20
0.0715716334035896
 30
0.0
 11
0.9790286609342322
 21
0.0715716334035896
 31
0.0
  0
LINE
  5
3A8
330
18
100
AcDbEntity
  8
TEXT
100
AcDbLine
 10
0.974548773607732
 20
0.1358483280603551
 30
0.0
 11
0.9070490559582156
 21
0.1358483280603551
 31
0.0
  0
LWPOLYLINE
  5
3A9
330
18
100
AcDbEntity
  8
TEXT
100
AcDbPolyline
 90
        2
 70
     0
 43
0.0
 10
0.3941728018341486
 20
0.0715716334035896
 42
-0.4142135623731017
 10
0.4017265910002621
 20
0.0640178442374797
 42
-0.9999999999999998
  0
LWPOLYLINE
  5
3AA
330
18
100
AcDbEntity
  8
TEXT
100
AcDbPolyline
 90
        2
 70
     0
 43
0.0
 10
0.5229182347030524
 20
0.0715716334035896
 42
-0.4142135623731017
 10
0.5304720238691658
 20
0.0640178442374797
 42
-0.9999999999999998
  0
LWPOLYLINE
  5
3AB
330
18
100
AcDbEntity
  8
TEXT
100
AcDbPolyline
 90
        2
 70
     0
 43
0.0
 10
0.4115245248841699
 20
0.1358483280603586
 42
-0.3328679258950098
 10
0.4473062155973313
 20
0.1086808312994627
 42
6.772930709997214
  0
LWPOLYLINE
  5
3AC
330
18
100
AcDbEntity
  8
TEXT
100
AcDbPolyline
 90
        3
 70
     0
 43
0.0
 10
0.5656063744133757
 20
0.1358483280603586
 10
0.4473062155973313
 20
0.1358483280603586
 10
0.4473062155973313
 20
0.1086808312994627
 42
-1.960274751411753
  0
LINE
  5
3AD
330
18
100
AcDbEntity
  8
TEXT
100
AcDbLine
 10
0.468784637782103
 20
0.0715716334035896
 30
0.0
 11
0.5229182347030532
 21
0.0715716334035896
 31
0.0
  0
LINE
  5
3AE
330
18
100
AcDbEntity
  8
TEXT
100
AcDbLine
 10
0.3443375220110019
 20
0.0715716334035896
 30
0.0
 11
0.3941728018341495
 21
0.0715716334035896
 31
0.0
  0
LINE
  5
3AF
330
18
100
AcDbEntity
  8
TEXT
100
AcDbLine
 10
0.4115245248841691
 20
0.1358483280603551
 30
0.0
 11
0.2775064689530327
 21
0.1358483280603551
 31
0.0
  0
LINE
  5
3B0
330
18
100
AcDbEntity
  8
TEXT
100
AcDbLine
 10
0.401726591000263
 20
-0.1306247049281559
 30
0.0
 11
0.468784637782103
 21
-0.1306247049281559
 31
0.0
  0
LINE
  5
3B1
330
18
100
AcDbEntity
  8
TEXT
100
AcDbLine
 10
0.2463341883115673
 20
-0.1306247049281559
 30
0.0
 11
0.3443375220110019
 21
-0.1306247049281559
 31
0.0
  0
LINE
  5
3B2
330
18
100
AcDbEntity
  8
TEXT
100
AcDbLine
 10
0.2775064689530327
 20
-0.0650158786720532
 30
0.0
 11
0.2605128320684313
 21
-0.0650158786720532
 31
0.0
  0
ARC
  5
3B3
330
18
100
AcDbEntity
  8
TEXT
100
AcDbCircle
 10
0.2605128320684304
 20
-0.0496340724286277
 30
0.0
 40
0.0153818062434269
100
AcDbArc
 50
174.7883570302258
 51
270.0
  0
LINE
  5
3B4
330
18
100
AcDbEntity
  8
TEXT
100
AcDbLine
 10
0.3443375220110019
 20
-0.1306247049281559
 30
0.0
 11
0.3443375220110019
 21
0.0715716334035896
 31
0.0
  0
LINE
  5
3B5
330
18
100
AcDbEntity
  8
TEXT
100
AcDbLine
 10
0.401726591000263
 20
0.0640178442374797
 30
0.0
 11
0.401726591000263
 21
-0.1306247049281559
 31
0.0
  0
LINE
  5
3B6
330
18
100
AcDbEntity
  8
TEXT
100
AcDbLine
 10
0.468784637782103
 20
-0.1306247049281559
 30
0.0
 11
0.468784637782103
 21
0.0715716334035896
 31
0.0
  0
LINE
  5
3B7
330
18
100
AcDbEntity
  8
TEXT
100
AcDbLine
 10
0.2775064689530327
 20
0.1358483280603551
 30
0.0
 11
0.2775064689530327
 21
-0.0650158786720532
 31
0.0
  0
LINE
  5
3B8
330
18
100
AcDbEntity
  8
TEXT
100
AcDbLine
 10
0.2451946148153725
 20
-0.0482368668251567
 30
0.0
 11
0.2451946148153725
 21
0.2038598057991656
 31
0.0
  0
LINE
  5
3B9
330
18
100
AcDbEntity
  8
TEXT
100
AcDbLine
 10
0.1783859022490075
 20
0.2038598057991656
 30
0.0
 11
0.1783859022490075
 21
0.1358483280603551
 31
0.0
  0
LINE
  5
3BA
330
18
100
AcDbEntity
  8
TEXT
100
AcDbLine
 10
0.1783859022490075
 20
0.1358483280603551
 30
0.0
 11
0.1482639894556312
 21
0.1358483280603551
 31
0.0
  0
LINE
  5
3BB
330
18
100
AcDbEntity
  8
TEXT
100
AcDbLine
 10
0.1482639894556312
 20
0.1358483280603551
 30
0.0
 11
0.0895154266497658
 21
0.0349763319472345
 31
0.0
  0
LINE
  5
3BC
330
18
100
AcDbEntity
  8
TEXT
100
AcDbLine
 10
0.0895154266497658
 20
0.0349763319472345
 30
0.0
 11
0.0308851056178279
 21
0.1358483280603551
 31
0.0
  0
LINE
  5
3BD
330
18
100
AcDbEntity
  8
TEXT
100
AcDbLine
 10
-0.0409138605260795
 20
0.1358483280603551
 30
0.0
 11
-0.0409138605260795
 21
0.1702362456544932
 31
0.0
  0
LINE
  5
3BE
330
18
100
AcDbEntity
  8
TEXT
100
AcDbLine
 10
-0.0409138605260795
 20
0.1702362456544932
 30
0.0
 11
-0.1009564653700865
 21
0.1702362456544932
 31
0.0
  0
LINE
  5
3BF
330
18
100
AcDbEntity
  8
TEXT
100
AcDbLine
 10
-0.1009564653700865
 20
0.1702362456544932
 30
0.0
 11
-0.1009564653700865
 21
0.1358483280603551
 31
0.0
  0
LINE
  5
3C0
330
18
100
AcDbEntity
  8
TEXT
100
AcDbLine
 10
0.0308851056178279
 20
0.1358483280603551
 30
0.0
 11
-0.0409138605260795
 21
0.1358483280603551
 31
0.0
  0
ARC
  5
3C1
330
18
100
AcDbEntity
  8
TEXT
100
AcDbCircle
 10
0.0458716297405975
 20
-0.0910769826544602
 30
0.0
 40
0.0392772371940762
100
AcDbArc
 50
270.1604552698595
 51
330.0831797321295
  0
ARC
  5
3C2
330
18
100
AcDbEntity
  8
TEXT
100
AcDbCircle
 10
-0.0444292161516273
 20
-0.0708323135901061
 30
0.0
 40
0.0601160179737537
100
AcDbArc
 50
180.0000000000003
 51
264.0521544866073
  0
LINE
  5
3C3
330
18
100
AcDbEntity
  8
TEXT
100
AcDbLine
 10
-0.0506586266452738
 20
-0.1306247049281559
 30
0.0
 11
0.0459816244297207
 21
-0.1303540658298736
 31
0.0
  0
LWPOLYLINE
  5
3C4
330
18
100
AcDbEntity
  8
TEXT
100
AcDbPolyline
 90
        6
 70
     1
 43
0.0
 10
-0.0081348230701241
 20
0.0715716334035896
 10
-0.0384514172903323
 20
0.0715716334035896
 10
-0.0384514172903323
 20
-0.0515393646513047
 42
0.407328721240804
 10
-0.0269077661288559
 20
-0.0633582793276908
 10
0.0337139329158749
 20
-0.0633582793276908
 10
0.0511792733231928
 20
-0.0305460502842117
  0
LINE
  5
3C5
330
18
100
AcDbEntity
  8
TEXT
100
AcDbLine
 10
-0.1045452341253794
 20
0.0715716334035896
 30
0.0
 11
-0.1045452341253794
 21
-0.0708323135901061
 31
0.0
  0
LINE
  5
3C6
330
18
100
AcDbEntity
  8
TEXT
100
AcDbLine
 10
0.0799151896528114
 20
-0.110666198823143
 30
0.0
 11
0.177214895746256
 21
0.0536840121121252
 31
0.0
  0
LINE
  5
3C7
330
18
100
AcDbEntity
  8
TEXT
100
AcDbLine
 10
0.177214895746256
 20
0.0536840121121252
 30
0.0
 11
0.177214895746256
 21
-0.0790733627132312
 31
0.0
  0
LWPOLYLINE
  5
3C8
330
18
100
AcDbEntity
  8
TEXT
100
AcDbPolyline
 90
        2
 70
     0
 43
0.0
 10
0.1772148957462551
 20
-0.0790733627132276
 42
0.3318488747599744
 10
0.2463341883115682
 20
-0.1306247049281559
 42
-6.868794160588311
  0
LINE
  5
3C9
330
18
100
AcDbEntity
  8
TEXT
100
AcDbLine
 10
0.2451946148153725
 20
0.2038598057991656
 30
0.0
 11
0.1783859022490075
 21
0.2038598057991656
 31
0.0
  0
LWPOLYLINE
  5
3CA
330
18
100
AcDbEntity
  8
TEXT
100
AcDbPolyline
 90
        4
 70
     0
 43
0.0
 10
0.5304720238691658
 20
0.0640178442374797
 10
0.5304720238691658
 20
-0.1306247049281559
 10
0.5989503071570237
 20
-0.1306247049281559
 10
0.5989503071570237
 20
-0.0871337599777178
 42
-1.714843617202739
  0
LWPOLYLINE
  5
3CB
330
18
100
AcDbEntity
  8
TEXT
100
AcDbPolyline
 90
        2
 70
     0
 43
0.0
 10
0.5656063744133757
 20
0.1358483280603586
 42
-0.3277054968067132
 10
0.6013880651265407
 20
0.1075257822907147
 42
6.667889725900311
  0
TEXT
  5
3CC
330
18
100
AcDbEntity
  8
TEXT
100
AcDbText
 10
1.347952338939933
 20
-0.0377388962826597
 30
0.0
 40
0.0522247191011236
  1
Minneapolis, MN 55432-0008
 41
1.11444212721585
 72
     5
 11
2.676884923209597
 21
-0.0377388962826597
 31
0.0
100
AcDbText
  0
TEXT
  5
3CD
330
18
100
AcDbEntity
  8
TEXT
100
AcDbText
 10
1.347952338939933
 20
0.0555195306836325
 30
0.0
 40
0.0522247191011236
  1
6536 Main St. N.E. * P.O. Box 32008
 41
0.8388932496075367
 72
     5
 11
2.676884923209597
 21
0.0555195306836325
 31
0.0
100
AcDbText
  0
TEXT
  5
3CE
330
18
100
AcDbEntity
  8
TEXT
100
AcDbText
 10
1.347952338939933
 20
0.1487779576499246
 30
0.0
 40
0.0522247191011236
  1
Stylmark  Incorporated
 41
1.221428571428571
 72
     5
 11
2.676884923209597
 21
0.1487779576499246
 31
0.0
100
AcDbText
  0
TEXT
  5
3CF
330
18
100
AcDbEntity
  8
TEXT
100
AcDbText
 10
1.347952338939933
 20
-0.1309973232489519
 30
0.0
 40
0.0522247191011236
  1
Phone  1-800-328-2495
 41
1.272321428571429
 72
     5
 11
2.676884923209597
 21
-0.1309973232489519
 31
0.0
100
AcDbText
  0
LINE
  5
3D0
330
18
100
AcDbEntity
  8
TEXT
100
AcDbLine
 10
-0.2058507519100488
 20
0.0357669117929618
 30
0.0
 11
-0.2714508881543498
 21
0.0357669117929618
 31
0.0
  0
ARC
  5
3D1
330
18
100
AcDbEntity
  8
TEXT
100
AcDbCircle
 10
-0.2714508881543498
 20
0.0536692725982775
 30
0.0
 40
0.017902360805315
100
AcDbArc
 50
90.0
 51
270.0
  0
LINE
  5
3D2
330
18
100
AcDbEntity
  8
TEXT
100
AcDbLine
 10
-0.2766882182685979
 20
-0.028326590832652
 30
0.0
 11
-0.2009103780037691
 21
-0.028326590832652
 31
0.0
  0
LINE
  5
3D3
330
18
100
AcDbEntity
  8
TEXT
100
AcDbLine
 10
-0.2009103780037691
 20
-0.0622676985947166
 30
0.0
 11
-0.3587756777151032
 21
-0.0622676985947166
 31
0.0
  0
LINE
  5
3D4
330
18
100
AcDbEntity
  8
TEXT
100
AcDbLine
 10
-0.3587756777151014
 20
-0.1306247049281559
 30
0.0
 11
-0.2058507519100488
 21
-0.1306247049281559
 31
0.0
  0
ARC
  5
3D5
330
18
100
AcDbEntity
  8
TEXT
100
AcDbCircle
 10
-0.2766882182685979
 20
0.0537608686138533
 30
0.0
 40
0.0820874594465043
100
AcDbArc
 50
90.0
 51
270.0
  0
LINE
  5
3D6
330
18
100
AcDbEntity
  8
TEXT
100
AcDbLine
 10
-0.1009564653700865
 20
0.1358483280603551
 30
0.0
 11
-0.2766882182685979
 21
0.1358483280603551
 31
0.0
  0
ARC
  5
3D7
330
18
100
AcDbEntity
  8
TEXT
100
AcDbCircle
 10
-0.2009103780037691
 20
-0.0452971447136825
 30
0.0
 40
0.0169705538810321
100
AcDbArc
 50
270.0
 51
90.0
  0
ARC
  5
3D8
330
18
100
AcDbEntity
  8
TEXT
100
AcDbCircle
 10
-0.2058507519100488
 20
-0.0474288965675989
 30
0.0
 40
0.0831958083605586
100
AcDbArc
 50
270.0
 51
90.0
  0
LINE
  5
3D9
330
18
100
AcDbEntity
  8
TEXT
100
AcDbLine
 10
-0.2714508881543498
 20
0.0715716334035896
 30
0.0
 11
-0.1045452341253794
 21
0.0715716334035896
 31
0.0
  0
LWPOLYLINE
  5
3DA
330
18
100
AcDbEntity
  8
TEXT
100
AcDbPolyline
 90
        2
 70
     0
 43
0.0006660908203125
 10
-0.5682086578148767
 20
0.022612888607231
 10
-0.5415650250023756
 20
0.022612888607231
  0
LINE
  5
3DB
330
18
100
AcDbEntity
  8
TEXT
100
AcDbLine
 10
-0.3587756777151032
 20
-0.0622676985947166
 30
0.0
 11
-0.3587756777151014
 21
-0.1306247049281559
 31
0.0
  0
LWPOLYLINE
  5
3DC
330
18
100
AcDbEntity
  8
TEXT
100
AcDbPolyline
 90
        2
 70
     0
 43
0.0006660908203125
 10
-0.5682086578148767
 20
-0.017352560611517
 10
-0.5415650250023756
 20
-0.017352560611517
  0
LWPOLYLINE
  5
3DD
330
18
100
AcDbEntity
  8
TEXT
100
AcDbPolyline
 90
        2
 70
     0
 43
0.0001332181640625
 10
-0.6548004644555015
 20
0.1358483280603586
 10
-0.6647918267601903
 20
0.062578337825979
  0
LWPOLYLINE
  5
3DE
330
18
100
AcDbEntity
  8
TEXT
100
AcDbPolyline
 90
        2
 70
     0
 43
0.0001332181640625
 10
-0.6548004644555015
 20
0.1092046952478576
 10
-0.6647918267601903
 20
0.049256521419732
  0
LWPOLYLINE
  5
3DF
330
18
100
AcDbEntity
  8
TEXT
100
AcDbPolyline
 90
        2
 70
     0
 43
0.0006660908203125
 10
-0.6548004644555015
 20
0.1092046952478576
 10
-0.6548004644555015
 20
0.1358483280603586
  0
LWPOLYLINE
  5
3E0
330
18
100
AcDbEntity
  8
TEXT
100
AcDbPolyline
 90
        5
 70
     0
 43
0.0001332181640625
 10
-0.6647918267601903
 20
0.062578337825979
 10
-0.6647918267601903
 20
0.049256521419732
 10
-0.6281568316430004
 20
0.049256521419732
 10
-0.6281568316430004
 20
0.0126215263025422
 10
-0.6148350152367517
 20
0.0126215263025422
  0
LWPOLYLINE
  5
3E1
330
18
100
AcDbEntity
  8
TEXT
100
AcDbPolyline
 90
        2
 70
     0
 43
0.0001332181640625
 10
-0.694765913674253
 20
0.1092046952478576
 10
-0.6847745513695625
 20
0.049256521419732
  0
LWPOLYLINE
  5
3E2
330
18
100
AcDbEntity
  8
TEXT
100
AcDbPolyline
 90
        2
 70
     0
 43
0.0001332181640625
 10
-0.6847745513695625
 20
0.062578337825979
 10
-0.694765913674253
 20
0.1358483280603586
  0
LWPOLYLINE
  5
3E3
330
18
100
AcDbEntity
  8
TEXT
100
AcDbPolyline
 90
        2
 70
     0
 43
0.0006660908203125
 10
-0.694765913674253
 20
0.1092046952478576
 10
-0.694765913674253
 20
0.1358483280603586
  0
LWPOLYLINE
  5
3E4
330
18
100
AcDbEntity
  8
TEXT
100
AcDbPolyline
 90
        5
 70
     0
 43
0.0001332181640625
 10
-0.734731362893001
 20
0.0126215263025422
 10
-0.7214095464867523
 20
0.0126215263025422
 10
-0.7214095464867523
 20
0.049256521419732
 10
-0.6847745513695625
 20
0.049256521419732
 10
-0.6847745513695625
 20
0.062578337825979
  0
LWPOLYLINE
  5
3E5
330
18
100
AcDbEntity
  8
TEXT
100
AcDbPolyline
 90
        2
 70
     0
 43
0.0006660908203125
 10
-0.7813577203148779
 20
0.022612888607231
 10
-0.8080013531273753
 20
0.022612888607231
  0
LWPOLYLINE
  5
3E6
330
18
100
AcDbEntity
  8
TEXT
100
AcDbPolyline
 90
        2
 70
     0
 43
0.0001332181640625
 10
-0.8080013531273753
 20
0.022612888607231
 10
-0.734731362893001
 20
0.0126215263025422
  0
LWPOLYLINE
  5
3E7
330
18
100
AcDbEntity
  8
TEXT
100
AcDbPolyline
 90
        2
 70
     0
 43
0.0001332181640625
 10
-0.7813577203148779
 20
0.022612888607231
 10
-0.7214095464867523
 20
0.0126215263025422
  0
LWPOLYLINE
  5
3E8
330
18
100
AcDbEntity
  8
TEXT
100
AcDbPolyline
 90
        2
 70
     0
 43
0.0001332181640625
 10
-0.7813577203148779
 20
0.1092046952478576
 10
-0.7214095464867523
 20
0.049256521419732
  0
LWPOLYLINE
  5
3E9
330
18
100
AcDbEntity
  8
TEXT
100
AcDbPolyline
 90
        3
 70
     0
 43
0.0006660908203125
 10
-0.694765913674253
 20
0.1092046952478576
 10
-0.7813577203148779
 20
0.1092046952478576
 10
-0.7813577203148779
 20
0.022612888607231
  0
LWPOLYLINE
  5
3EA
330
18
100
AcDbEntity
  8
TEXT
100
AcDbPolyline
 90
        3
 70
     0
 43
0.0006660908203125
 10
-0.694765913674253
 20
0.1358483280603586
 10
-0.8080013531273753
 20
0.1358483280603586
 10
-0.8080013531273753
 20
0.022612888607231
  0
LWPOLYLINE
  5
3EB
330
18
100
AcDbEntity
  8
TEXT
100
AcDbPolyline
 90
        5
 70
     0
 43
0.0001332181640625
 10
-0.6148350152367517
 20
-0.0073611983068318
 10
-0.6281568316430004
 20
-0.0073611983068318
 10
-0.6281568316430004
 20
-0.0439961934240181
 10
-0.6647918267601903
 20
-0.0439961934240181
 10
-0.6647918267601903
 20
-0.0573180098302686
  0
LWPOLYLINE
  5
3EC
330
18
100
AcDbEntity
  8
TEXT
100
AcDbPolyline
 90
        2
 70
     0
 43
0.0006660908203125
 10
-0.6548004644555015
 20
-0.1039443672521436
 10
-0.6548004644555015
 20
-0.1305880000646447
  0
LWPOLYLINE
  5
3ED
330
18
100
AcDbEntity
  8
TEXT
100
AcDbPolyline
 90
        2
 70
     0
 43
0.0001332181640625
 10
-0.6647918267601903
 20
-0.0573180098302686
 10
-0.6548004644555015
 20
-0.1305880000646447
  0
LWPOLYLINE
  5
3EE
330
18
100
AcDbEntity
  8
TEXT
100
AcDbPolyline
 90
        2
 70
     0
 43
0.0001332181640625
 10
-0.6548004644555015
 20
-0.1039443672521436
 10
-0.6647918267601903
 20
-0.0439961934240181
  0
LWPOLYLINE
  5
3EF
330
18
100
AcDbEntity
  8
TEXT
100
AcDbPolyline
 90
        2
 70
     0
 43
0.0001332181640625
 10
-0.694765913674253
 20
-0.1305880000646447
 10
-0.6847745513695625
 20
-0.0573180098302686
  0
LWPOLYLINE
  5
3F0
330
18
100
AcDbEntity
  8
TEXT
100
AcDbPolyline
 90
        2
 70
     0
 43
0.0001332181640625
 10
-0.694765913674253
 20
-0.1039443672521436
 10
-0.6847745513695625
 20
-0.0439961934240181
  0
LWPOLYLINE
  5
3F1
330
18
100
AcDbEntity
  8
TEXT
100
AcDbPolyline
 90
        2
 70
     0
 43
0.0006660908203125
 10
-0.694765913674253
 20
-0.1039443672521436
 10
-0.694765913674253
 20
-0.1305880000646447
  0
LWPOLYLINE
  5
3F2
330
18
100
AcDbEntity
  8
TEXT
100
AcDbPolyline
 90
        5
 70
     0
 43
0.0001332181640625
 10
-0.6847745513695625
 20
-0.0573180098302686
 10
-0.6847745513695625
 20
-0.0439961934240181
 10
-0.7214095464867505
 20
-0.0439961934240181
 10
-0.7214095464867505
 20
-0.0073611983068318
 10
-0.734731362893001
 20
-0.0073611983068318
  0
LWPOLYLINE
  5
3F3
330
18
100
AcDbEntity
  8
TEXT
100
AcDbPolyline
 90
        2
 70
     0
 43
0.0006660908203125
 10
-0.7813577203148779
 20
-0.017352560611517
 10
-0.8080013531273753
 20
-0.017352560611517
  0
LWPOLYLINE
  5
3F4
330
18
100
AcDbEntity
  8
TEXT
100
AcDbPolyline
 90
        2
 70
     0
 43
0.0001332181640625
 10
-0.7813577203148779
 20
-0.1039443672521436
 10
-0.7214095464867505
 20
-0.0439961934240181
  0
LWPOLYLINE
  5
3F5
330
18
100
AcDbEntity
  8
TEXT
100
AcDbPolyline
 90
        2
 70
     0
 43
0.0001332181640625
 10
-0.7813577203148779
 20
-0.017352560611517
 10
-0.7214095464867505
 20
-0.0073611983068318
  0
LWPOLYLINE
  5
3F6
330
18
100
AcDbEntity
  8
TEXT
100
AcDbPolyline
 90
        2
 70
     0
 43
0.0001332181640625
 10
-0.734731362893001
 20
-0.0073611983068318
 10
-0.8080013531273753
 20
-0.017352560611517
  0
LWPOLYLINE
  5
3F7
330
18
100
AcDbEntity
  8
TEXT
100
AcDbPolyline
 90
        3
 70
     0
 43
0.0006660908203125
 10
-0.7813577203148779
 20
-0.017352560611517
 10
-0.7813577203148779
 20
-0.1039443672521436
 10
-0.694765913674253
 20
-0.1039443672521436
  0
LWPOLYLINE
  5
3F8
330
18
100
AcDbEntity
  8
TEXT
100
AcDbPolyline
 90
        3
 70
     0
 43
0.0006660908203125
 10
-0.8080013531273753
 20
-0.017352560611517
 10
-0.8080013531273753
 20
-0.1305880000646447
 10
-0.694765913674253
 20
-0.1305880000646447
  0
LWPOLYLINE
  5
3F9
330
18
100
AcDbEntity
  8
TEXT
100
AcDbPolyline
 90
        3
 70
     0
 43
0.0006660908203125
 10
-0.6548004644555015
 20
-0.1305880000646447
 10
-0.5415650250023756
 20
-0.1305880000646447
 10
-0.5415650250023756
 20
-0.017352560611517
  0
LWPOLYLINE
  5
3FA
330
18
100
AcDbEntity
  8
TEXT
100
AcDbPolyline
 90
        3
 70
     0
 43
0.0006660908203125
 10
-0.6548004644555015
 20
-0.1039443672521436
 10
-0.5682086578148767
 20
-0.1039443672521436
 10
-0.5682086578148767
 20
-0.017352560611517
  0
LWPOLYLINE
  5
3FB
330
18
100
AcDbEntity
  8
TEXT
100
AcDbPolyline
 90
        2
 70
     0
 43
0.0001332181640625
 10
-0.5682086578148767
 20
-0.1039443672521436
 10
-0.6281568316430004
 20
-0.0439961934240181
  0
LWPOLYLINE
  5
3FC
330
18
100
AcDbEntity
  8
TEXT
100
AcDbPolyline
 90
        2
 70
     0
 43
0.0001332181640625
 10
-0.5682086578148767
 20
-0.017352560611517
 10
-0.6281568316430004
 20
-0.0073611983068318
  0
LWPOLYLINE
  5
3FD
330
18
100
AcDbEntity
  8
TEXT
100
AcDbPolyline
 90
        2
 70
     0
 43
0.0001332181640625
 10
-0.5415650250023756
 20
-0.017352560611517
 10
-0.6148350152367517
 20
-0.0073611983068318
  0
LWPOLYLINE
  5
3FE
330
18
100
AcDbEntity
  8
TEXT
100
AcDbPolyline
 90
        2
 70
     0
 43
0.0001332181640625
 10
-0.5682086578148767
 20
0.1092046952478576
 10
-0.6281568316430004
 20
0.049256521419732
  0
LWPOLYLINE
  5
3FF
330
18
100
AcDbEntity
  8
TEXT
100
AcDbPolyline
 90
        2
 70
     0
 43
0.0001332181640625
 10
-0.5682086578148767
 20
0.022612888607231
 10
-0.6281568316430004
 20
0.0126215263025422
  0
LWPOLYLINE
  5
400
330
18
100
AcDbEntity
  8
TEXT
100
AcDbPolyline
 90
        2
 70
     0
 43
0.0001332181640625
 10
-0.6148350152367517
 20
0.0126215263025422
 10
-0.5415650250023756
 20
0.022612888607231
  0
LWPOLYLINE
  5
401
330
18
100
AcDbEntity
  8
TEXT
100
AcDbPolyline
 90
        3
 70
     0
 43
0.0006660908203125
 10
-0.5682086578148767
 20
0.022612888607231
 10
-0.5682086578148767
 20
0.1092046952478576
 10
-0.6548004644555015
 20
0.1092046952478576
  0
LWPOLYLINE
  5
402
330
18
100
AcDbEntity
  8
TEXT
100
AcDbPolyline
 90
        3
 70
     0
 43
0.0006660908203125
 10
-0.5415650250023756
 20
0.022612888607231
 10
-0.5415650250023756
 20
0.1358483280603586
 10
-0.6548004644555015
 20
0.1358483280603586
  0
ENDSEC
  0
SECTION
  2
OBJECTS
  0
DICTIONARY
  5
C
330
0
100
AcDbDictionary
  3
ACAD_GROUP
350
D
  3
ACAD_LAYOUT
350
40D
  3
ACAD_MLINESTYLE
350
E
  3
ACAD_PLOTSETTINGS
350
40E
  3
ACAD_PLOTSTYLENAME
350
40B
  3
ACDBHEADERROUNDTRIPXREC
350
418
  3
ACDBVARIABLEDICTIONARY
350
415
  0
DICTIONARY
  5
43A
330
18
100
AcDbDictionary
280
     1
  3
ACAD_LAYOUTSELFREF
360
43B
  0
DICTIONARY
  5
438
330
15
100
AcDbDictionary
280
     1
  3
ACAD_LAYOUTSELFREF
360
439
  0
DICTIONARY
  5
D
102
{ACAD_REACTORS
330
C
102
}
330
C
100
AcDbDictionary
  0
DICTIONARY
  5
40D
102
{ACAD_REACTORS
330
C
102
}
330
C
100
AcDbDictionary
  0
DICTIONARY
  5
E
102
{ACAD_REACTORS
330
C
102
}
330
C
100
AcDbDictionary
  3
STANDARD
350
1B
  0
DICTIONARY
  5
40E
102
{ACAD_REACTORS
330
C
102
}
330
C
100
AcDbDictionary
  0
ACDBDICTIONARYWDFLT
  5
40B
102
{ACAD_REACTORS
330
C
102
}
330
C
100
AcDbDictionary
281
     1
  3
Normal
350
40C
100
AcDbDictionaryWithDefault
340
40C
  0
DICTIONARY
  5
418
102
{ACAD_REACTORS
330
C
102
}
330
C
100
AcDbDictionary
  3
CEPSNTYPE
350
422
  3
FINGERPRINTGUID
350
423
  3
HYPERLINKBASE
350
41B
  3
INSUNITS
350
421
  3
LAYOUTDICT
350
41D
  3
LWETCUNION
350
420
  3
PLOTSETDICT
350
41E
  3
PLOTSTYLNAMDICT
350
41F
  3
PSVPSCALE
350
425
  3
PUCSBASE
350
428
  3
PUCSORGBACK
350
42E
  3
PUCSORGBOTTOM
350
42A
  3
PUCSORGFRONT
350
42D
  3
PUCSORGLEFT
350
42B
  3
PUCSORGRIGHT
350
42C
  3
PUCSORGTOP
350
429
  3
PUCSORTHOREF
350
426
  3
PUCSORTHOVIEW
350
427
  3
STYLESHEET
350
41C
  3
TSTACKALIGN
350
419
  3
TSTACKSIZE
350
41A
  3
UCSBASE
350
431
  3
UCSORGBACK
350
437
  3
UCSORGBOTTOM
350
433
  3
UCSORGFRONT
350
436
  3
UCSORGLEFT
350
434
  3
UCSORGRIGHT
350
435
  3
UCSORGTOP
350
432
  3
UCSORTHOREF
350
42F
  3
UCSORTHOVIEW
350
430
  3
VERSIONGUID
350
424
  0
DICTIONARY
  5
415
102
{ACAD_REACTORS
330
C
102
}
330
C
100
AcDbDictionary
  3
DIMASSOC
350
416
  0
XRECORD
  5
43B
102
{ACAD_REACTORS
330
43A
102
}
330
43A
100
AcDbXrecord
340
18
  0
XRECORD
  5
439
102
{ACAD_REACTORS
330
438
102
}
330
438
100
AcDbXrecord
340
15
  0
MLINESTYLE
  5
1B
102
{ACAD_REACTORS
330
E
102
}
330
E
100
AcDbMlineStyle
  2
STANDARD
 70
     0
  3

 62
     0
 51
90.0
 52
90.0
 71
     2
 49
0.5
 62
   256
  6
BYLAYER
 49
-0.5
 62
   256
  6
BYLAYER
  0
ACDBPLACEHOLDER
  5
40C
102
{ACAD_REACTORS
330
40B
102
}
330
40B
100
AcDbPlaceHolder
280
     0
  0
XRECORD
  5
422
102
{ACAD_REACTORS
330
418
102
}
330
418
100
AcDbXrecord
 90
        0
  0
XRECORD
  5
423
102
{ACAD_REACTORS
330
418
102
}
330
418
100
AcDbXrecord
  1
{9DF78910-8DB3-11D6-88E6-0090279574E7}
  0
XRECORD
  5
41B
102
{ACAD_REACTORS
330
418
102
}
330
418
100
AcDbXrecord
  1

  0
XRECORD
  5
421
102
{ACAD_REACTORS
330
418
102
}
330
418
100
AcDbXrecord
 90
        0
  0
XRECORD
  5
41D
102
{ACAD_REACTORS
330
418
102
}
330
418
100
AcDbXrecord
340
40D
  0
XRECORD
  5
420
102
{ACAD_REACTORS
330
418
102
}
330
418
100
AcDbXrecord
 90
    14877
  0
XRECORD
  5
41E
102
{ACAD_REACTORS
330
418
102
}
330
418
100
AcDbXrecord
340
40E
  0
XRECORD
  5
41F
102
{ACAD_REACTORS
330
418
102
}
330
418
100
AcDbXrecord
340
40B
  0
XRECORD
  5
425
102
{ACAD_REACTORS
330
418
102
}
330
418
100
AcDbXrecord
 40
0.0
  0
XRECORD
  5
428
102
{ACAD_REACTORS
330
418
102
}
330
418
100
AcDbXrecord
340
0
  0
XRECORD
  5
42E
102
{ACAD_REACTORS
330
418
102
}
330
418
100
AcDbXrecord
 10
0.0
 20
0.0
 30
0.0
  0
XRECORD
  5
42A
102
{ACAD_REACTORS
330
418
102
}
330
418
100
AcDbXrecord
 10
0.0
 20
0.0
 30
0.0
  0
XRECORD
  5
42D
102
{ACAD_REACTORS
330
418
102
}
330
418
100
AcDbXrecord
 10
0.0
 20
0.0
 30
0.0
  0
XRECORD
  5
42B
102
{ACAD_REACTORS
330
418
102
}
330
418
100
AcDbXrecord
 10
0.0
 20
0.0
 30
0.0
  0
XRECORD
  5
42C
102
{ACAD_REACTORS
330
418
102
}
330
418
100
AcDbXrecord
 10
0.0
 20
0.0
 30
0.0
  0
XRECORD
  5
429
102
{ACAD_REACTORS
330
418
102
}
330
418
100
AcDbXrecord
 10
0.0
 20
0.0
 30
0.0
  0
XRECORD
  5
426
102
{ACAD_REACTORS
330
418
102
}
330
418
100
AcDbXrecord
340
0
  0
XRECORD
  5
427
102
{ACAD_REACTORS
330
418
102
}
330
418
100
AcDbXrecord
 70
     0
  0
XRECORD
  5
41C
102
{ACAD_REACTORS
330
418
102
}
330
418
100
AcDbXrecord
  1

  0
XRECORD
  5
419
102
{ACAD_REACTORS
330
418
102
}
330
418
100
AcDbXrecord
 90
        1
  0
XRECORD
  5
41A
102
{ACAD_REACTORS
330
418
102
}
330
418
100
AcDbXrecord
 90
       70
  0
XRECORD
  5
431
102
{ACAD_REACTORS
330
418
102
}
330
418
100
AcDbXrecord
340
0
  0
XRECORD
  5
437
102
{ACAD_REACTORS
330
418
102
}
330
418
100
AcDbXrecord
 10
0.0
 20
0.0
 30
0.0
  0
XRECORD
  5
433
102
{ACAD_REACTORS
330
418
102
}
330
418
100
AcDbXrecord
 10
0.0
 20
0.0
 30
0.0
  0
XRECORD
  5
436
102
{ACAD_REACTORS
330
418
102
}
330
418
100
AcDbXrecord
 10
0.0
 20
0.0
 30
0.0
  0
XRECORD
  5
434
102
{ACAD_REACTORS
330
418
102
}
330
418
100
AcDbXrecord
 10
0.0
 20
0.0
 30
0.0
  0
XRECORD
  5
435
102
{ACAD_REACTORS
330
418
102
}
330
418
100
AcDbXrecord
 10
0.0
 20
0.0
 30
0.0
  0
XRECORD
  5
432
102
{ACAD_REACTORS
330
418
102
}
330
418
100
AcDbXrecord
 10
0.0
 20
0.0
 30
0.0
  0
XRECORD
  5
42F
102
{ACAD_REACTORS
330
418
102
}
330
418
100
AcDbXrecord
340
0
  0
XRECORD
  5
430
102
{ACAD_REACTORS
330
418
102
}
330
418
100
AcDbXrecord
 70
     0
  0
XRECORD
  5
424
102
{ACAD_REACTORS
330
418
102
}
330
418
100
AcDbXrecord
  1
{9DF78912-8DB3-11D6-88E6-0090279574E7}
  0
DICTIONARYVAR
  5
416
102
{ACAD_REACTORS
330
415
102
}
330
415
100
DictionaryVariables
280
     0
  1
1
  0
ENDSEC
  0
EOF
