  0
SECTION
  2
HEADER
  9
$ACADVER
  1
AC1014
  9
$ACADMAINTVER
 70
     9
  9
$DWGCODEPAGE
  3
ANSI_1252
  9
$INSBASE
 10
0.0
 20
0.0
 30
0.0
  9
$EXTMIN
 10
-0.857035553726212
 20
-0.2261259603024192
 30
0.0
  9
$EXTMAX
 10
2.628183768020916
 20
2.13551571316096
 30
0.0
  9
$LIMMIN
 10
0.0
 20
0.0
  9
$LIMMAX
 10
8.5
 20
11.0
  9
$ORTHOMODE
 70
     1
  9
$REGENMODE
 70
     1
  9
$FILLMODE
 70
     1
  9
$QTEXTMODE
 70
     0
  9
$MIRRTEXT
 70
     0
  9
$DRAGMODE
 70
     2
  9
$LTSCALE
 40
1.0
  9
$OSMODE
 70
    39
  9
$ATTMODE
 70
     1
  9
$TEXTSIZE
 40
0.125
  9
$TRACEWID
 40
0.05
  9
$TEXTSTYLE
  7
ROMANS
  9
$CLAYER
  8
DIMENSIONS
  9
$CELTYPE
  6
BYLAYER
  9
$CECOLOR
 62
   256
  9
$CELTSCALE
 40
1.0
  9
$DELOBJ
 70
     1
  9
$DISPSILH
 70
     1
  9
$DIMSCALE
 40
2.0
  9
$DIMASZ
 40
0.125
  9
$DIMEXO
 40
0.125
  9
$DIMDLI
 40
0.375
  9
$DIMRND
 40
0.0
  9
$DIMDLE
 40
0.0
  9
$DIMEXE
 40
0.125
  9
$DIMTP
 40
0.01
  9
$DIMTM
 40
0.0
  9
$DIMTXT
 40
0.125
  9
$DIMCEN
 40
-0.125
  9
$DIMTSZ
 40
0.0
  9
$DIMTOL
 70
     0
  9
$DIMLIM
 70
     0
  9
$DIMTIH
 70
     1
  9
$DIMTOH
 70
     1
  9
$DIMSE1
 70
     0
  9
$DIMSE2
 70
     0
  9
$DIMTAD
 70
     0
  9
$DIMZIN
 70
     4
  9
$DIMBLK
  1

  9
$DIMASO
 70
     1
  9
$DIMSHO
 70
     1
  9
$DIMPOST
  1

  9
$DIMAPOST
  1

  9
$DIMALT
 70
     0
  9
$DIMALTD
 70
     2
  9
$DIMALTF
 40
25.4
  9
$DIMLFAC
 40
0.5
  9
$DIMTOFL
 70
     0
  9
$DIMTVP
 40
0.0
  9
$DIMTIX
 70
     0
  9
$DIMSOXD
 70
     0
  9
$DIMSAH
 70
     0
  9
$DIMBLK1
  1

  9
$DIMBLK2
  1

  9
$DIMSTYLE
  2
STANDARD
  9
$DIMCLRD
 70
     0
  9
$DIMCLRE
 70
     0
  9
$DIMCLRT
 70
     0
  9
$DIMTFAC
 40
1.0
  9
$DIMGAP
 40
0.09
  9
$DIMJUST
 70
     0
  9
$DIMSD1
 70
     0
  9
$DIMSD2
 70
     0
  9
$DIMTOLJ
 70
     1
  9
$DIMTZIN
 70
     4
  9
$DIMALTZ
 70
     0
  9
$DIMALTTZ
 70
     0
  9
$DIMFIT
 70
     3
  9
$DIMUPT
 70
     0
  9
$DIMUNIT
 70
     2
  9
$DIMDEC
 70
     3
  9
$DIMTDEC
 70
     3
  9
$DIMALTU
 70
     2
  9
$DIMALTTD
 70
     2
  9
$DIMTXSTY
  7
ROMANS
  9
$DIMAUNIT
 70
     0
  9
$LUNITS
 70
     2
  9
$LUPREC
 70
     8
  9
$SKETCHINC
 40
0.1
  9
$FILLETRAD
 40
0.4
  9
$AUNITS
 70
     0
  9
$AUPREC
 70
     0
  9
$MENU
  1
ACAD
  9
$ELEVATION
 40
0.0
  9
$PELEVATION
 40
0.0
  9
$THICKNESS
 40
0.0
  9
$LIMCHECK
 70
     0
  9
$BLIPMODE
 70
     0
  9
$CHAMFERA
 40
0.0
  9
$CHAMFERB
 40
0.0
  9
$CHAMFERC
 40
0.0
  9
$CHAMFERD
 40
0.0
  9
$SKPOLY
 70
     0
  9
$TDCREATE
 40
2448103.750550463
  9
$TDUPDATE
 40
2452458.293523310
  9
$TDINDWG
 40
0.1539652315
  9
$TDUSRTIMER
 40
0.1539652315
  9
$USRTIMER
 70
     1
  9
$ANGBASE
 50
0.0
  9
$ANGDIR
 70
     0
  9
$PDMODE
 70
     0
  9
$PDSIZE
 40
0.0
  9
$PLINEWID
 40
0.0
  9
$COORDS
 70
     2
  9
$SPLFRAME
 70
     0
  9
$SPLINETYPE
 70
     6
  9
$SPLINESEGS
 70
     8
  9
$ATTDIA
 70
     0
  9
$ATTREQ
 70
     1
  9
$HANDLING
 70
 22529
  9
$HANDSEED
  5
472
  9
$SURFTAB1
 70
     6
  9
$SURFTAB2
 70
     6
  9
$SURFTYPE
 70
     6
  9
$SURFU
 70
     6
  9
$SURFV
 70
     6
  9
$UCSNAME
  2

  9
$UCSORG
 10
0.0
 20
0.0
 30
0.0
  9
$UCSXDIR
 10
1.0
 20
0.0
 30
0.0
  9
$UCSYDIR
 10
0.0
 20
1.0
 30
0.0
  9
$PUCSNAME
  2

  9
$PUCSORG
 10
0.0
 20
0.0
 30
0.0
  9
$PUCSXDIR
 10
1.0
 20
0.0
 30
0.0
  9
$PUCSYDIR
 10
0.0
 20
1.0
 30
0.0
  9
$USERI1
 70
     0
  9
$USERI2
 70
     0
  9
$USERI3
 70
     0
  9
$USERI4
 70
     0
  9
$USERI5
 70
     0
  9
$USERR1
 40
0.0
  9
$USERR2
 40
0.0
  9
$USERR3
 40
0.0
  9
$USERR4
 40
0.0
  9
$USERR5
 40
0.0
  9
$WORLDVIEW
 70
     1
  9
$SHADEDGE
 70
     3
  9
$SHADEDIF
 70
    70
  9
$TILEMODE
 70
     1
  9
$MAXACTVP
 70
    16
  9
$PINSBASE
 10
0.0
 20
0.0
 30
0.0
  9
$PLIMCHECK
 70
     0
  9
$PEXTMIN
 10
1.000000000000000E+20
 20
1.000000000000000E+20
 30
1.000000000000000E+20
  9
$PEXTMAX
 10
-1.000000000000000E+20
 20
-1.000000000000000E+20
 30
-1.000000000000000E+20
  9
$PLIMMIN
 10
0.0
 20
0.0
  9
$PLIMMAX
 10
12.0
 20
9.0
  9
$UNITMODE
 70
     0
  9
$VISRETAIN
 70
     0
  9
$PLINEGEN
 70
     1
  9
$PSLTSCALE
 70
     0
  9
$TREEDEPTH
 70
  3020
  9
$PICKSTYLE
 70
     1
  9
$CMLSTYLE
  2
STANDARD
  9
$CMLJUST
 70
     0
  9
$CMLSCALE
 40
1.0
  9
$PROXYGRAPHICS
 70
     1
  9
$MEASUREMENT
 70
     0
  0
ENDSEC
  0
SECTION
  2
CLASSES
  0
CLASS
  1
LWPOLYLINE
  2
AcDbPolyline
  3
AutoCAD 2000
 90
        0
280
     0
281
     1
  0
CLASS
  1
ACDBDICTIONARYWDFLT
  2
AcDbDictionaryWithDefault
  3
AutoCAD 2000
 90
        0
280
     0
281
     0
  0
CLASS
  1
ACDBPLACEHOLDER
  2
AcDbPlaceHolder
  3
AutoCAD 2000
 90
        0
280
     0
281
     0
  0
CLASS
  1
LAYOUT
  2
AcDbLayout
  3
AutoCAD 2000
 90
        0
280
     0
281
     0
  0
CLASS
  1
DICTIONARYVAR
  2
AcDbDictionaryVar
  3
AutoCAD 2000
 90
        0
280
     0
281
     0
  0
CLASS
  1
LONG_TRANSACTION
  2
AcDbLongTransaction
  3
AutoCAD 2000
 90
        0
280
     0
281
     0
  0
CLASS
  1
LWPOLYLINE
  2
AcDbPolyline
  3
AutoCAD 2000
 90
        0
280
     0
281
     1
  0
CLASS
  1
HATCH
  2
AcDbHatch
  3
AutoCAD 2000
 90
        0
280
     0
281
     1
  0
CLASS
  1
XRECORD
  2
AcDbXrecord
  3
AutoCAD 2000
 90
        0
280
     0
281
     0
  0
ENDSEC
  0
SECTION
  2
TABLES
  0
TABLE
  2
VPORT
  5
8
330
0
100
AcDbSymbolTable
 70
     2
  0
VPORT
  5
44D
330
8
100
AcDbSymbolTableRecord
100
AcDbViewportTableRecord
  2
*ACTIVE
 70
     0
 10
0.0
 20
0.0
 11
1.0
 21
1.0
 12
4.103647469253338
 22
0.954701596603787
 13
0.0
 23
0.0
 14
0.015625
 24
0.015625
 15
0.0
 25
0.0
 16
0.0
 26
0.0
 36
1.0
 17
0.0
 27
0.0
 37
0.0
 40
2.382686624316801
 41
4.320930232558139
 42
50.0
 43
0.0
 44
0.0
 50
0.0
 51
0.0
 71
     0
 72
  2000
 73
     1
 74
     1
 75
     0
 76
     0
 77
     0
 78
     0
  0
ENDTAB
  0
TABLE
  2
LTYPE
  5
5
330
0
100
AcDbSymbolTable
 70
     1
  0
LTYPE
  5
12
330
5
100
AcDbSymbolTableRecord
100
AcDbLinetypeTableRecord
  2
BYBLOCK
 70
     0
  3

 72
    65
 73
     0
 40
0.0
  0
LTYPE
  5
13
330
5
100
AcDbSymbolTableRecord
100
AcDbLinetypeTableRecord
  2
BYLAYER
 70
     0
  3

 72
    65
 73
     0
 40
0.0
  0
LTYPE
  5
14
330
5
100
AcDbSymbolTableRecord
100
AcDbLinetypeTableRecord
  2
CONTINUOUS
 70
     0
  3
Solid line
 72
    65
 73
     0
 40
0.0
  0
ENDTAB
  0
TABLE
  2
LAYER
  5
2
330
0
100
AcDbSymbolTable
 70
     3
  0
LAYER
  5
F
330
2
100
AcDbSymbolTableRecord
100
AcDbLayerTableRecord
  2
0
 70
     0
 62
     7
  6
CONTINUOUS
  0
LAYER
  5
2A
330
2
100
AcDbSymbolTableRecord
100
AcDbLayerTableRecord
  2
DIMENSIONS
 70
     0
 62
     4
  6
CONTINUOUS
  0
LAYER
  5
2B
330
2
100
AcDbSymbolTableRecord
100
AcDbLayerTableRecord
  2
TEXT
 70
     0
 62
     3
  6
CONTINUOUS
  0
ENDTAB
  0
TABLE
  2
STYLE
  5
3
330
0
100
AcDbSymbolTable
 70
     3
  0
STYLE
  5
10
330
3
100
AcDbSymbolTableRecord
100
AcDbTextStyleTableRecord
  2
STANDARD
 70
     0
 40
0.0
 41
1.0
 50
0.0
 71
     0
 42
0.125
  3
txt
  4

  0
STYLE
  5
319
330
3
100
AcDbSymbolTableRecord
100
AcDbTextStyleTableRecord
  2
ROMANS
 70
     0
 40
0.0
 41
1.0
 50
0.0
 71
     0
 42
0.125
  3
romans.shx
  4

  0
STYLE
  5
33A
330
3
100
AcDbSymbolTableRecord
100
AcDbTextStyleTableRecord
  2
ITALICC
 70
     0
 40
0.0
 41
1.0
 50
0.0
 71
     0
 42
0.125
  3
italicc
  4

  0
ENDTAB
  0
TABLE
  2
VIEW
  5
6
330
0
100
AcDbSymbolTable
 70
     0
  0
ENDTAB
  0
TABLE
  2
UCS
  5
7
330
0
100
AcDbSymbolTable
 70
     0
  0
ENDTAB
  0
TABLE
  2
APPID
  5
9
330
0
100
AcDbSymbolTable
 70
     1
  0
APPID
  5
11
330
9
100
AcDbSymbolTableRecord
100
AcDbRegAppTableRecord
  2
ACAD
 70
     0
  0
ENDTAB
  0
TABLE
  2
DIMSTYLE
  5
A
330
0
100
AcDbSymbolTable
 70
     1
  0
DIMSTYLE
105
30D
330
A
100
AcDbSymbolTableRecord
100
AcDbDimStyleTableRecord
  2
STANDARD
 70
     0
  3

  4

  5

  6

  7

 40
2.0
 41
0.125
 42
0.125
 43
0.375
 44
0.125
 45
0.0
 46
0.0
 47
0.01
 48
0.0
140
0.125
141
-0.125
142
0.0
143
25.4
144
0.5
145
0.0
146
1.0
147
0.09
 71
     0
 72
     0
 73
     1
 74
     1
 75
     0
 76
     0
 77
     0
 78
     4
170
     0
171
     2
172
     0
173
     0
174
     0
175
     0
176
     0
177
     0
178
     0
270
     2
271
     3
272
     3
273
     2
274
     2
340
319
275
     0
280
     0
281
     0
282
     0
283
     1
284
     4
285
     0
286
     0
287
     3
288
     0
  0
ENDTAB
  0
TABLE
  2
BLOCK_RECORD
  5
1
330
0
100
AcDbSymbolTable
 70
     0
  0
BLOCK_RECORD
  5
18
102
{ACAD_XDICTIONARY
360
470
102
}
330
1
100
AcDbSymbolTableRecord
100
AcDbBlockTableRecord
  2
*MODEL_SPACE
  0
BLOCK_RECORD
  5
15
102
{ACAD_XDICTIONARY
360
46E
102
}
330
1
100
AcDbSymbolTableRecord
100
AcDbBlockTableRecord
  2
*PAPER_SPACE
  0
ENDTAB
  0
ENDSEC
  0
SECTION
  2
BLOCKS
  0
BLOCK
  5
34
330
18
100
AcDbEntity
  8
0
100
AcDbBlockBegin
  2
*MODEL_SPACE
 70
     0
 10
0.0
 20
0.0
 30
0.0
  3
*MODEL_SPACE
  1

  0
ENDBLK
  5
35
330
18
100
AcDbEntity
  8
0
100
AcDbBlockEnd
  0
BLOCK
  5
32
330
15
100
AcDbEntity
 67
     1
  8
0
100
AcDbBlockBegin
  2
*PAPER_SPACE
 70
     0
 10
0.0
 20
0.0
 30
0.0
  3
*PAPER_SPACE
  1

  0
ENDBLK
  5
33
330
15
100
AcDbEntity
 67
     1
  8
0
100
AcDbBlockEnd
  0
ENDSEC
  0
SECTION
  2
ENTITIES
  0
LWPOLYLINE
  5
3B
330
18
100
AcDbEntity
  8
0
100
AcDbPolyline
 90
       12
 70
     1
 43
0.0
 10
0.3777456593166566
 20
0.7854744524247217
 10
0.3497456593166568
 20
0.7854744524247217
 10
0.3497456593166567
 20
0.9660994524247216
 10
1.468245659316656
 20
0.9660994524247216
 10
1.468245659316656
 20
0.7854744524247217
 10
1.437745659316656
 20
0.7854744524247217
 10
1.437745659316656
 20
0.7254744524247217
 10
1.468245659316656
 20
0.7254744524247217
 10
1.468245659316656
 20
0.6760994524247216
 10
0.3497456593166567
 20
0.6760994524247217
 10
0.3497456593166568
 20
0.7254744524247212
 10
0.3777456593166566
 20
0.7254744524247212
  0
LWPOLYLINE
  5
49
330
18
100
AcDbEntity
  8
0
100
AcDbPolyline
 90
       44
 70
     1
 43
0.0
 10
1.528245659316656
 20
0.6760994524247216
 10
1.625745659316656
 20
0.6760994524247214
 42
-1.0
 10
1.625745659316656
 20
0.6160994524247217
 10
0.3197456593166568
 20
0.6160994524247217
 42
-0.4142135623730951
 10
0.2897456593166567
 20
0.6460994524247217
 10
0.2897456593166567
 20
1.073231194937392
 10
0.3144956593166564
 20
1.116099452424721
 10
0.3144956593166565
 20
1.554849452424721
 42
-1.0
 10
0.3744956593166565
 20
1.554849452424721
 10
0.3744956593166565
 20
1.438599452424721
 10
0.3644956593166565
 20
1.428599452424721
 10
0.3744956593166565
 20
1.418599452424721
 10
0.3744956593166564
 20
1.086099452424721
 42
0.4142135623730951
 10
0.4344956593166565
 20
1.026099452424721
 10
0.5344956593166563
 20
1.026099452424721
 42
0.4142135623730951
 10
0.5944956593166565
 20
1.086099452424721
 10
0.5944956593166563
 20
1.464849452424721
 10
0.5494956593166565
 20
1.509849452424721
 42
-1.000000000000001
 10
0.6994956593166558
 20
1.509849452424721
 10
0.6544956593166567
 20
1.464849452424722
 10
0.6544956593166564
 20
1.086099452424721
 42
0.4142135623730951
 10
0.7144956593166566
 20
1.026099452424721
 10
1.096995659316656
 20
1.026099452424721
 42
0.4142135623730951
 10
1.156995659316656
 20
1.086099452424721
 10
1.156995659316656
 20
1.464849452424721
 10
1.111995659316656
 20
1.509849452424721
 42
-1.0
 10
1.261995659316656
 20
1.509849452424721
 10
1.216995659316656
 20
1.464849452424721
 10
1.216995659316656
 20
1.086099452424721
 42
0.4142135623730951
 10
1.276995659316656
 20
1.026099452424721
 10
1.408245659316656
 20
1.026099452424721
 42
0.4142135623730951
 10
1.468245659316656
 20
1.086099452424721
 10
1.468245659316656
 20
1.824849452424721
 10
1.478245659316656
 20
1.834849452424721
 10
1.468245659316656
 20
1.844849452424721
 10
1.468245659316656
 20
2.022349452424721
 42
-0.4142135623730951
 10
1.561995659316656
 20
2.116099452424721
 10
1.655745659316656
 20
2.116099452424721
 10
1.655745659316656
 20
2.022349452424721
 10
1.528245659316656
 20
2.022349452424721
 10
1.528245659316656
 20
1.584849452424721
 10
1.625745659316656
 20
1.584849452424721
 42
-1.0
 10
1.625745659316656
 20
1.524849452424721
 10
1.528245659316656
 20
1.524849452424721
  0
LINE
  5
3BF
330
18
100
AcDbEntity
  8
TEXT
100
AcDbLine
 10
-0.3201520433430307
 20
-0.0124610422396714
 30
0.0
 11
-0.1532463893140603
 21
-0.0124610422396714
 31
0.0
  0
ARC
  5
3C0
330
18
100
AcDbEntity
  8
TEXT
100
AcDbCircle
 10
-0.2545519070987292
 20
-0.1314615722108599
 30
0.0
 40
0.0831958083605586
100
AcDbArc
 50
270.0
 51
90.0
  0
ARC
  5
3C1
330
18
100
AcDbEntity
  8
TEXT
100
AcDbCircle
 10
-0.2496115331924495
 20
-0.1293298203569435
 30
0.0
 40
0.0169705538810321
100
AcDbArc
 50
270.0
 51
90.0
  0
LINE
  5
3C2
330
18
100
AcDbEntity
  8
TEXT
100
AcDbLine
 10
-0.1496576205587674
 20
0.0518156524170941
 30
0.0
 11
-0.3253893734572788
 21
0.0518156524170941
 31
0.0
  0
LWPOLYLINE
  5
3C3
330
18
100
AcDbEntity
  8
TEXT
100
AcDbPolyline
 90
        3
 70
     0
 43
0.0006660908203125
 10
-0.5902661801910561
 20
-0.06141978703603
 10
-0.5902661801910561
 20
0.0518156524170976
 10
-0.7035016196441819
 20
0.0518156524170976
  0
LWPOLYLINE
  5
3C4
330
18
100
AcDbEntity
  8
TEXT
100
AcDbPolyline
 90
        3
 70
     0
 43
0.0006660908203125
 10
-0.6169098130035571
 20
-0.06141978703603
 10
-0.6169098130035571
 20
0.0251720196045966
 10
-0.7035016196441819
 20
0.0251720196045966
  0
LWPOLYLINE
  5
3C5
330
18
100
AcDbEntity
  8
TEXT
100
AcDbPolyline
 90
        2
 70
     0
 43
0.0001332181640625
 10
-0.6635361704254322
 20
-0.0714111493407188
 10
-0.5902661801910561
 20
-0.06141978703603
  0
LWPOLYLINE
  5
3C6
330
18
100
AcDbEntity
  8
TEXT
100
AcDbPolyline
 90
        2
 70
     0
 43
0.0001332181640625
 10
-0.6169098130035571
 20
-0.06141978703603
 10
-0.6768579868316809
 20
-0.0714111493407188
  0
LWPOLYLINE
  5
3C7
330
18
100
AcDbEntity
  8
TEXT
100
AcDbPolyline
 90
        2
 70
     0
 43
0.0001332181640625
 10
-0.6169098130035571
 20
0.0251720196045966
 10
-0.6768579868316809
 20
-0.034776154223529
  0
LWPOLYLINE
  5
3C8
330
18
100
AcDbEntity
  8
TEXT
100
AcDbPolyline
 90
        2
 70
     0
 43
0.0001332181640625
 10
-0.5902661801910561
 20
-0.101385236254778
 10
-0.6635361704254322
 20
-0.0913938739500928
  0
LWPOLYLINE
  5
3C9
330
18
100
AcDbEntity
  8
TEXT
100
AcDbPolyline
 90
        2
 70
     0
 43
0.0001332181640625
 10
-0.6169098130035571
 20
-0.101385236254778
 10
-0.6768579868316809
 20
-0.0913938739500928
  0
LWPOLYLINE
  5
3CA
330
18
100
AcDbEntity
  8
TEXT
100
AcDbPolyline
 90
        2
 70
     0
 43
0.0001332181640625
 10
-0.6169098130035571
 20
-0.1879770428954046
 10
-0.6768579868316809
 20
-0.1280288690672791
  0
LWPOLYLINE
  5
3CB
330
18
100
AcDbEntity
  8
TEXT
100
AcDbPolyline
 90
        3
 70
     0
 43
0.0006660908203125
 10
-0.7035016196441819
 20
-0.1879770428954046
 10
-0.6169098130035571
 20
-0.1879770428954046
 10
-0.6169098130035571
 20
-0.101385236254778
  0
LWPOLYLINE
  5
3CC
330
18
100
AcDbEntity
  8
TEXT
100
AcDbPolyline
 90
        3
 70
     0
 43
0.0006660908203125
 10
-0.7035016196441819
 20
-0.2146206757079057
 10
-0.5902661801910561
 20
-0.2146206757079057
 10
-0.5902661801910561
 20
-0.101385236254778
  0
LWPOLYLINE
  5
3CD
330
18
100
AcDbEntity
  8
TEXT
100
AcDbPolyline
 90
        3
 70
     0
 43
0.0006660908203125
 10
-0.8567025083160558
 20
-0.101385236254778
 10
-0.8567025083160558
 20
-0.2146206757079057
 10
-0.7434670688629335
 20
-0.2146206757079057
  0
LWPOLYLINE
  5
3CE
330
18
100
AcDbEntity
  8
TEXT
100
AcDbPolyline
 90
        3
 70
     0
 43
0.0006660908203125
 10
-0.8300588755035583
 20
-0.101385236254778
 10
-0.8300588755035583
 20
-0.1879770428954046
 10
-0.7434670688629335
 20
-0.1879770428954046
  0
LWPOLYLINE
  5
3CF
330
18
100
AcDbEntity
  8
TEXT
100
AcDbPolyline
 90
        2
 70
     0
 43
0.0001332181640625
 10
-0.7834325180816815
 20
-0.0913938739500928
 10
-0.8567025083160558
 20
-0.101385236254778
  0
LWPOLYLINE
  5
3D0
330
18
100
AcDbEntity
  8
TEXT
100
AcDbPolyline
 90
        2
 70
     0
 43
0.0001332181640625
 10
-0.8300588755035583
 20
-0.101385236254778
 10
-0.770110701675431
 20
-0.0913938739500928
  0
LWPOLYLINE
  5
3D1
330
18
100
AcDbEntity
  8
TEXT
100
AcDbPolyline
 90
        2
 70
     0
 43
0.0001332181640625
 10
-0.8300588755035583
 20
-0.1879770428954046
 10
-0.770110701675431
 20
-0.1280288690672791
  0
LWPOLYLINE
  5
3D2
330
18
100
AcDbEntity
  8
TEXT
100
AcDbPolyline
 90
        2
 70
     0
 43
0.0006660908203125
 10
-0.8300588755035583
 20
-0.101385236254778
 10
-0.8567025083160558
 20
-0.101385236254778
  0
LWPOLYLINE
  5
3D3
330
18
100
AcDbEntity
  8
TEXT
100
AcDbPolyline
 90
        5
 70
     0
 43
0.0001332181640625
 10
-0.7334757065582429
 20
-0.1413506854735296
 10
-0.7334757065582429
 20
-0.1280288690672791
 10
-0.770110701675431
 20
-0.1280288690672791
 10
-0.770110701675431
 20
-0.0913938739500928
 10
-0.7834325180816815
 20
-0.0913938739500928
  0
LWPOLYLINE
  5
3D4
330
18
100
AcDbEntity
  8
TEXT
100
AcDbPolyline
 90
        2
 70
     0
 43
0.0006660908203125
 10
-0.7434670688629335
 20
-0.1879770428954046
 10
-0.7434670688629335
 20
-0.2146206757079057
  0
LWPOLYLINE
  5
3D5
330
18
100
AcDbEntity
  8
TEXT
100
AcDbPolyline
 90
        2
 70
     0
 43
0.0001332181640625
 10
-0.7434670688629335
 20
-0.1879770428954046
 10
-0.7334757065582429
 20
-0.1280288690672791
  0
LWPOLYLINE
  5
3D6
330
18
100
AcDbEntity
  8
TEXT
100
AcDbPolyline
 90
        2
 70
     0
 43
0.0001332181640625
 10
-0.7434670688629335
 20
-0.2146206757079057
 10
-0.7334757065582429
 20
-0.1413506854735296
  0
LWPOLYLINE
  5
3D7
330
18
100
AcDbEntity
  8
TEXT
100
AcDbPolyline
 90
        2
 70
     0
 43
0.0001332181640625
 10
-0.7035016196441819
 20
-0.1879770428954046
 10
-0.7134929819488707
 20
-0.1280288690672791
  0
LWPOLYLINE
  5
3D8
330
18
100
AcDbEntity
  8
TEXT
100
AcDbPolyline
 90
        2
 70
     0
 43
0.0001332181640625
 10
-0.7134929819488707
 20
-0.1413506854735296
 10
-0.7035016196441819
 20
-0.2146206757079057
  0
LWPOLYLINE
  5
3D9
330
18
100
AcDbEntity
  8
TEXT
100
AcDbPolyline
 90
        2
 70
     0
 43
0.0006660908203125
 10
-0.7035016196441819
 20
-0.1879770428954046
 10
-0.7035016196441819
 20
-0.2146206757079057
  0
LWPOLYLINE
  5
3DA
330
18
100
AcDbEntity
  8
TEXT
100
AcDbPolyline
 90
        5
 70
     0
 43
0.0001332181640625
 10
-0.6635361704254322
 20
-0.0913938739500928
 10
-0.6768579868316809
 20
-0.0913938739500928
 10
-0.6768579868316809
 20
-0.1280288690672791
 10
-0.7134929819488707
 20
-0.1280288690672791
 10
-0.7134929819488707
 20
-0.1413506854735296
  0
LWPOLYLINE
  5
3DB
330
18
100
AcDbEntity
  8
TEXT
100
AcDbPolyline
 90
        3
 70
     0
 43
0.0006660908203125
 10
-0.7434670688629335
 20
0.0518156524170976
 10
-0.8567025083160558
 20
0.0518156524170976
 10
-0.8567025083160558
 20
-0.06141978703603
  0
LWPOLYLINE
  5
3DC
330
18
100
AcDbEntity
  8
TEXT
100
AcDbPolyline
 90
        3
 70
     0
 43
0.0006660908203125
 10
-0.7434670688629335
 20
0.0251720196045966
 10
-0.8300588755035583
 20
0.0251720196045966
 10
-0.8300588755035583
 20
-0.06141978703603
  0
LWPOLYLINE
  5
3DD
330
18
100
AcDbEntity
  8
TEXT
100
AcDbPolyline
 90
        2
 70
     0
 43
0.0001332181640625
 10
-0.8300588755035583
 20
0.0251720196045966
 10
-0.7701107016754328
 20
-0.034776154223529
  0
LWPOLYLINE
  5
3DE
330
18
100
AcDbEntity
  8
TEXT
100
AcDbPolyline
 90
        2
 70
     0
 43
0.0001332181640625
 10
-0.8300588755035583
 20
-0.06141978703603
 10
-0.7701107016754328
 20
-0.0714111493407188
  0
LWPOLYLINE
  5
3DF
330
18
100
AcDbEntity
  8
TEXT
100
AcDbPolyline
 90
        2
 70
     0
 43
0.0001332181640625
 10
-0.8567025083160558
 20
-0.06141978703603
 10
-0.7834325180816815
 20
-0.0714111493407188
  0
LWPOLYLINE
  5
3E0
330
18
100
AcDbEntity
  8
TEXT
100
AcDbPolyline
 90
        2
 70
     0
 43
0.0006660908203125
 10
-0.8300588755035583
 20
-0.06141978703603
 10
-0.8567025083160558
 20
-0.06141978703603
  0
LWPOLYLINE
  5
3E1
330
18
100
AcDbEntity
  8
TEXT
100
AcDbPolyline
 90
        5
 70
     0
 43
0.0001332181640625
 10
-0.7834325180816815
 20
-0.0714111493407188
 10
-0.7701107016754328
 20
-0.0714111493407188
 10
-0.7701107016754328
 20
-0.034776154223529
 10
-0.7334757065582429
 20
-0.034776154223529
 10
-0.7334757065582429
 20
-0.021454337817282
  0
LWPOLYLINE
  5
3E2
330
18
100
AcDbEntity
  8
TEXT
100
AcDbPolyline
 90
        2
 70
     0
 43
0.0006660908203125
 10
-0.7434670688629335
 20
0.0251720196045966
 10
-0.7434670688629335
 20
0.0518156524170976
  0
LWPOLYLINE
  5
3E3
330
18
100
AcDbEntity
  8
TEXT
100
AcDbPolyline
 90
        2
 70
     0
 43
0.0001332181640625
 10
-0.7334757065582429
 20
-0.021454337817282
 10
-0.7434670688629335
 20
0.0518156524170976
  0
LWPOLYLINE
  5
3E4
330
18
100
AcDbEntity
  8
TEXT
100
AcDbPolyline
 90
        2
 70
     0
 43
0.0001332181640625
 10
-0.7434670688629335
 20
0.0251720196045966
 10
-0.7334757065582429
 20
-0.034776154223529
  0
LWPOLYLINE
  5
3E5
330
18
100
AcDbEntity
  8
TEXT
100
AcDbPolyline
 90
        5
 70
     0
 43
0.0001332181640625
 10
-0.7134929819488707
 20
-0.021454337817282
 10
-0.7134929819488707
 20
-0.034776154223529
 10
-0.6768579868316809
 20
-0.034776154223529
 10
-0.6768579868316809
 20
-0.0714111493407188
 10
-0.6635361704254322
 20
-0.0714111493407188
  0
LWPOLYLINE
  5
3E6
330
18
100
AcDbEntity
  8
TEXT
100
AcDbPolyline
 90
        2
 70
     0
 43
0.0006660908203125
 10
-0.7035016196441819
 20
0.0251720196045966
 10
-0.7035016196441819
 20
0.0518156524170976
  0
LWPOLYLINE
  5
3E7
330
18
100
AcDbEntity
  8
TEXT
100
AcDbPolyline
 90
        2
 70
     0
 43
0.0001332181640625
 10
-0.7035016196441819
 20
0.0251720196045966
 10
-0.7134929819488707
 20
-0.034776154223529
  0
LWPOLYLINE
  5
3E8
330
18
100
AcDbEntity
  8
TEXT
100
AcDbPolyline
 90
        2
 70
     0
 43
0.0001332181640625
 10
-0.7035016196441819
 20
0.0518156524170976
 10
-0.7134929819488707
 20
-0.021454337817282
  0
ARC
  5
3E9
330
18
100
AcDbEntity
  8
TEXT
100
AcDbCircle
 10
-0.3253893734572784
 20
-0.0302718070294077
 30
0.0
 40
0.0820874594465043
100
AcDbArc
 50
90.0
 51
270.0
  0
LWPOLYLINE
  5
3EA
330
18
100
AcDbEntity
  8
TEXT
100
AcDbPolyline
 90
        2
 70
     0
 43
0.0006660908203125
 10
-0.6169098130035571
 20
-0.101385236254778
 10
-0.5902661801910561
 20
-0.101385236254778
  0
LINE
  5
3EB
330
18
100
AcDbEntity
  8
TEXT
100
AcDbLine
 10
-0.4074768329037824
 20
-0.2146573805714169
 30
0.0
 11
-0.2545519070987297
 21
-0.2146573805714169
 31
0.0
  0
LINE
  5
3EC
330
18
100
AcDbEntity
  8
TEXT
100
AcDbLine
 10
-0.4074768329037842
 20
-0.1463003742379776
 30
0.0
 11
-0.4074768329037824
 21
-0.2146573805714169
 31
0.0
  0
LINE
  5
3ED
330
18
100
AcDbEntity
  8
TEXT
100
AcDbLine
 10
-0.24961153319245
 20
-0.1463003742379776
 30
0.0
 11
-0.4074768329037842
 21
-0.1463003742379776
 31
0.0
  0
LINE
  5
3EE
330
18
100
AcDbEntity
  8
TEXT
100
AcDbLine
 10
-0.3253893734572788
 20
-0.112359266475913
 30
0.0
 11
-0.24961153319245
 21
-0.112359266475913
 31
0.0
  0
LWPOLYLINE
  5
3EF
330
18
100
AcDbEntity
  8
TEXT
100
AcDbPolyline
 90
        2
 70
     0
 43
0.0006660908203125
 10
-0.6169098130035571
 20
-0.06141978703603
 10
-0.5902661801910561
 20
-0.06141978703603
  0
ARC
  5
3F0
330
18
100
AcDbEntity
  8
TEXT
100
AcDbCircle
 10
-0.3201520433430303
 20
-0.0303634030449835
 30
0.0
 40
0.017902360805315
100
AcDbArc
 50
90.0
 51
270.0
  0
LINE
  5
3F1
330
18
100
AcDbEntity
  8
TEXT
100
AcDbLine
 10
-0.2545519070987297
 20
-0.0482657638502992
 30
0.0
 11
-0.3201520433430307
 21
-0.0482657638502992
 31
0.0
  0
TEXT
  5
3F2
330
18
100
AcDbEntity
  8
TEXT
100
AcDbText
 10
1.299251183751252
 20
-0.2150299988922129
 30
0.0
 40
0.0522247191011236
  1
Phone  1-800-328-2495
 41
1.272321428571429
 72
     5
 11
2.628183768020916
 21
-0.2150299988922129
 31
0.0
100
AcDbText
  0
TEXT
  5
3F3
330
18
100
AcDbEntity
  8
TEXT
100
AcDbText
 10
1.299251183751252
 20
0.0647452820066636
 30
0.0
 40
0.0522247191011236
  1
Stylmark  Incorporated
 41
1.221428571428571
 72
     5
 11
2.628183768020916
 21
0.0647452820066636
 31
0.0
100
AcDbText
  0
TEXT
  5
3F4
330
18
100
AcDbEntity
  8
TEXT
100
AcDbText
 10
1.299251183751252
 20
-0.0285131449596285
 30
0.0
 40
0.0522247191011236
  1
6536 Main St. N.E. * P.O. Box 32008
 41
0.8388932496075369
 72
     5
 11
2.628183768020916
 21
-0.0285131449596285
 31
0.0
100
AcDbText
  0
TEXT
  5
3F5
330
18
100
AcDbEntity
  8
TEXT
100
AcDbText
 10
1.299251183751252
 20
-0.1217715719259207
 30
0.0
 40
0.0522247191011236
  1
Minneapolis, MN 55432-0008
 41
1.11444212721585
 72
     5
 11
2.628183768020916
 21
-0.1217715719259207
 31
0.0
100
AcDbText
  0
LWPOLYLINE
  5
3F6
330
18
100
AcDbEntity
  8
TEXT
100
AcDbPolyline
 90
        2
 70
     0
 43
0.0
 10
0.5169052192246948
 20
0.0518156524170976
 42
-0.3277054968067132
 10
0.5526869099378598
 20
0.0234931066474538
 42
6.667889725900311
  0
LWPOLYLINE
  5
3F7
330
18
100
AcDbEntity
  8
TEXT
100
AcDbPolyline
 90
        4
 70
     0
 43
0.0
 10
0.4817708686804849
 20
-0.0200148314057813
 10
0.4817708686804849
 20
-0.2146573805714169
 10
0.5502491519683428
 20
-0.2146573805714169
 10
0.5502491519683428
 20
-0.1711664356209788
 42
-1.714843617202739
  0
LINE
  5
3F8
330
18
100
AcDbEntity
  8
TEXT
100
AcDbLine
 10
0.1964934596266916
 20
0.1198271301559046
 30
0.0
 11
0.1296847470603266
 21
0.1198271301559046
 31
0.0
  0
LWPOLYLINE
  5
3F9
330
18
100
AcDbEntity
  8
TEXT
100
AcDbPolyline
 90
        2
 70
     0
 43
0.0
 10
0.1285137405575742
 20
-0.1631060383564886
 42
0.3318488747599744
 10
0.1976330331228873
 20
-0.2146573805714169
 42
-6.868794160588311
  0
LINE
  5
3FA
330
18
100
AcDbEntity
  8
TEXT
100
AcDbLine
 10
0.1285137405575751
 20
-0.0303486635311359
 30
0.0
 11
0.1285137405575751
 21
-0.1631060383564922
 31
0.0
  0
LINE
  5
3FB
330
18
100
AcDbEntity
  8
TEXT
100
AcDbLine
 10
0.0312140344641305
 20
-0.194698874466404
 30
0.0
 11
0.1285137405575751
 21
-0.0303486635311359
 31
0.0
  0
LINE
  5
3FC
330
18
100
AcDbEntity
  8
TEXT
100
AcDbLine
 10
-0.1532463893140603
 20
-0.0124610422396714
 30
0.0
 11
-0.1532463893140603
 21
-0.1548649892333671
 31
0.0
  0
LWPOLYLINE
  5
3FD
330
18
100
AcDbEntity
  8
TEXT
100
AcDbPolyline
 90
        6
 70
     1
 43
0.0
 10
-0.0568359782588046
 20
-0.0124610422396714
 10
-0.0871525724790128
 20
-0.0124610422396714
 10
-0.0871525724790128
 20
-0.1355720402945657
 42
0.407328721240804
 10
-0.0756089213175364
 20
-0.1473909549709518
 10
-0.0149872222728056
 20
-0.1473909549709518
 10
0.0024781181345124
 20
-0.1145787259274726
  0
LINE
  5
3FE
330
18
100
AcDbEntity
  8
TEXT
100
AcDbLine
 10
-0.0993597818339547
 20
-0.2146573805714169
 30
0.0
 11
-0.0027195307589603
 21
-0.2143867414731346
 31
0.0
  0
ARC
  5
3FF
330
18
100
AcDbEntity
  8
TEXT
100
AcDbCircle
 10
-0.0931303713403078
 20
-0.1548649892333671
 30
0.0
 40
0.0601160179737537
100
AcDbArc
 50
180.0000000000003
 51
264.0521544866073
  0
ARC
  5
400
330
18
100
AcDbEntity
  8
TEXT
100
AcDbCircle
 10
-0.002829525448083
 20
-0.1751096582977212
 30
0.0
 40
0.0392772371940762
100
AcDbArc
 50
270.1604552698595
 51
330.0831797321295
  0
LINE
  5
401
330
18
100
AcDbEntity
  8
TEXT
100
AcDbLine
 10
-0.017816049570853
 20
0.0518156524170941
 30
0.0
 11
-0.0896150157147604
 21
0.0518156524170941
 31
0.0
  0
LINE
  5
402
330
18
100
AcDbEntity
  8
TEXT
100
AcDbLine
 10
-0.1496576205587674
 20
0.0862035700112323
 30
0.0
 11
-0.1496576205587674
 21
0.0518156524170941
 31
0.0
  0
LINE
  5
403
330
18
100
AcDbEntity
  8
TEXT
100
AcDbLine
 10
-0.0896150157147604
 20
0.0862035700112323
 30
0.0
 11
-0.1496576205587674
 21
0.0862035700112323
 31
0.0
  0
LINE
  5
404
330
18
100
AcDbEntity
  8
TEXT
100
AcDbLine
 10
-0.0896150157147604
 20
0.0518156524170941
 30
0.0
 11
-0.0896150157147604
 21
0.0862035700112323
 31
0.0
  0
LINE
  5
405
330
18
100
AcDbEntity
  8
TEXT
100
AcDbLine
 10
0.0408142714610849
 20
-0.0490563436960265
 30
0.0
 11
-0.017816049570853
 21
0.0518156524170941
 31
0.0
  0
LINE
  5
406
330
18
100
AcDbEntity
  8
TEXT
100
AcDbLine
 10
0.0995628342669504
 20
0.0518156524170941
 30
0.0
 11
0.0408142714610849
 21
-0.0490563436960265
 31
0.0
  0
LINE
  5
407
330
18
100
AcDbEntity
  8
TEXT
100
AcDbLine
 10
0.1296847470603266
 20
0.0518156524170941
 30
0.0
 11
0.0995628342669504
 21
0.0518156524170941
 31
0.0
  0
LINE
  5
408
330
18
100
AcDbEntity
  8
TEXT
100
AcDbLine
 10
0.1296847470603266
 20
0.1198271301559046
 30
0.0
 11
0.1296847470603266
 21
0.0518156524170941
 31
0.0
  0
LINE
  5
409
330
18
100
AcDbEntity
  8
TEXT
100
AcDbLine
 10
0.1964934596266916
 20
-0.1322695424684177
 30
0.0
 11
0.1964934596266916
 21
0.1198271301559046
 31
0.0
  0
LINE
  5
40A
330
18
100
AcDbEntity
  8
TEXT
100
AcDbLine
 10
0.2288053137643518
 20
0.0518156524170941
 30
0.0
 11
0.2288053137643518
 21
-0.1490485543153142
 31
0.0
  0
LINE
  5
40B
330
18
100
AcDbEntity
  8
TEXT
100
AcDbLine
 10
0.4200834825934221
 20
-0.2146573805714169
 30
0.0
 11
0.4200834825934221
 21
-0.0124610422396714
 31
0.0
  0
LINE
  5
40C
330
18
100
AcDbEntity
  8
TEXT
100
AcDbLine
 10
0.3530254358115821
 20
-0.0200148314057813
 30
0.0
 11
0.3530254358115821
 21
-0.2146573805714169
 31
0.0
  0
LINE
  5
40D
330
18
100
AcDbEntity
  8
TEXT
100
AcDbLine
 10
0.295636366822321
 20
-0.2146573805714169
 30
0.0
 11
0.295636366822321
 21
-0.0124610422396714
 31
0.0
  0
ARC
  5
40E
330
18
100
AcDbEntity
  8
TEXT
100
AcDbCircle
 10
0.2118116768797495
 20
-0.1336667480718887
 30
0.0
 40
0.0153818062434269
100
AcDbArc
 50
174.7883570302258
 51
270.0
  0
LINE
  5
40F
330
18
100
AcDbEntity
  8
TEXT
100
AcDbLine
 10
0.2288053137643518
 20
-0.1490485543153142
 30
0.0
 11
0.2118116768797504
 21
-0.1490485543153142
 31
0.0
  0
LINE
  5
410
330
18
100
AcDbEntity
  8
TEXT
100
AcDbLine
 10
0.1976330331228864
 20
-0.2146573805714169
 30
0.0
 11
0.295636366822321
 21
-0.2146573805714169
 31
0.0
  0
LINE
  5
411
330
18
100
AcDbEntity
  8
TEXT
100
AcDbLine
 10
0.3530254358115821
 20
-0.2146573805714169
 30
0.0
 11
0.4200834825934221
 21
-0.2146573805714169
 31
0.0
  0
LINE
  5
412
330
18
100
AcDbEntity
  8
TEXT
100
AcDbLine
 10
0.3628233696954881
 20
0.0518156524170941
 30
0.0
 11
0.2288053137643518
 21
0.0518156524170941
 31
0.0
  0
LINE
  5
413
330
18
100
AcDbEntity
  8
TEXT
100
AcDbLine
 10
0.295636366822321
 20
-0.0124610422396714
 30
0.0
 11
0.3454716466454686
 21
-0.0124610422396714
 31
0.0
  0
LINE
  5
414
330
18
100
AcDbEntity
  8
TEXT
100
AcDbLine
 10
0.4200834825934221
 20
-0.0124610422396714
 30
0.0
 11
0.4742170795143723
 21
-0.0124610422396714
 31
0.0
  0
LWPOLYLINE
  5
415
330
18
100
AcDbEntity
  8
TEXT
100
AcDbPolyline
 90
        3
 70
     0
 43
0.0
 10
0.5169052192246948
 20
0.0518156524170976
 10
0.3986050604086504
 20
0.0518156524170976
 10
0.3986050604086504
 20
0.0246481556562017
 42
-1.960274751411753
  0
LWPOLYLINE
  5
416
330
18
100
AcDbEntity
  8
TEXT
100
AcDbPolyline
 90
        2
 70
     0
 43
0.0
 10
0.362823369695489
 20
0.0518156524170976
 42
-0.3328679258950098
 10
0.3986050604086504
 20
0.0246481556562017
 42
6.772930709997214
  0
LWPOLYLINE
  5
417
330
18
100
AcDbEntity
  8
TEXT
100
AcDbPolyline
 90
        2
 70
     0
 43
0.0
 10
0.4742170795143715
 20
-0.0124610422396714
 42
-0.4142135623731017
 10
0.4817708686804849
 20
-0.0200148314057813
 42
-0.9999999999999998
  0
LWPOLYLINE
  5
418
330
18
100
AcDbEntity
  8
TEXT
100
AcDbPolyline
 90
        2
 70
     0
 43
0.0
 10
0.3454716466454677
 20
-0.0124610422396714
 42
-0.4142135623731017
 10
0.3530254358115812
 20
-0.0200148314057813
 42
-0.9999999999999998
  0
LINE
  5
419
330
18
100
AcDbEntity
  8
TEXT
100
AcDbLine
 10
0.9258476184190511
 20
0.0518156524170941
 30
0.0
 11
0.8583479007695347
 21
0.0518156524170941
 31
0.0
  0
LINE
  5
41A
330
18
100
AcDbEntity
  8
TEXT
100
AcDbLine
 10
0.8536795244529935
 20
-0.0124610422396714
 30
0.0
 11
0.9303275057455513
 21
-0.0124610422396714
 31
0.0
  0
LINE
  5
41B
330
18
100
AcDbEntity
  8
TEXT
100
AcDbLine
 10
0.5512816474231519
 20
-0.0124610422396714
 30
0.0
 11
0.5512816474231519
 21
-0.087513448313878
 31
0.0
  0
LINE
  5
41C
330
18
100
AcDbEntity
  8
TEXT
100
AcDbLine
 10
0.8287736491703343
 20
-0.2146573805714169
 30
0.0
 11
0.828773649170329
 21
-0.0373668751399485
 31
0.0
  0
ARC
  5
41D
330
18
100
AcDbEntity
  8
TEXT
100
AcDbCircle
 10
0.6120010063311785
 20
-0.1174215968459222
 30
0.0
 40
0.0676855811441166
100
AcDbArc
 50
90.0
 51
153.7768192527749
  0
LWPOLYLINE
  5
41E
330
18
100
AcDbEntity
  8
TEXT
100
AcDbPolyline
 90
        4
 70
     1
 43
0.0
 10
0.7072200373974625
 20
-0.1116934025873917
 10
0.618559718737604
 20
-0.1116934025873917
 42
0.9999999999999998
 10
0.618559718737604
 20
-0.1540919430912524
 10
0.7072200373974625
 20
-0.1540919430912524
 42
1.0
  0
LWPOLYLINE
  5
41F
330
18
100
AcDbEntity
  8
TEXT
100
AcDbPolyline
 90
        2
 70
     0
 43
0.0
 10
0.5933250848359784
 20
-0.2146573805714169
 10
0.727342502467355
 20
-0.2146573805714169
 42
0.9999999999999998
  0
LWPOLYLINE
  5
420
330
18
100
AcDbEntity
  8
TEXT
100
AcDbPolyline
 90
        2
 70
     0
 43
0.0
 10
0.5502491519683428
 20
-0.1711664356209788
 42
0.2901071551932823
 10
0.5933250848359784
 20
-0.2146573805714169
 42
5.328517124445801
  0
LWPOLYLINE
  5
421
330
18
100
AcDbEntity
  8
TEXT
100
AcDbPolyline
 90
        2
 70
     0
 43
0.0
 10
0.7704184353349995
 20
-0.2146573805714169
 10
0.8287736491703334
 20
-0.2146573805714169
  0
LWPOLYLINE
  5
422
330
18
100
AcDbEntity
  8
TEXT
100
AcDbPolyline
 90
        2
 70
     0
 43
0.0
 10
0.7704184353349995
 20
-0.1711664356209788
 10
0.7704184353349995
 20
-0.2146573805714169
  0
LWPOLYLINE
  5
423
330
18
100
AcDbEntity
  8
TEXT
100
AcDbPolyline
 90
        2
 70
     0
 43
0.0
 10
0.7704184353349995
 20
-0.1711664356209788
 42
-0.2901071551932486
 10
0.727342502467355
 20
-0.2146573805714169
 42
-5.328517124445184
  0
ARC
  5
424
330
18
100
AcDbEntity
  8
TEXT
100
AcDbCircle
 10
0.6854918793778513
 20
0.0102320852961917
 30
0.0
 40
0.0416329381542859
100
AcDbArc
 50
26.56974201007528
 51
87.20939649401342
  0
LINE
  5
425
330
18
100
AcDbEntity
  8
TEXT
100
AcDbLine
 10
0.7664787580299608
 20
-0.0533963261363333
 30
0.0
 11
0.7227279868480592
 21
0.0288539498598119
 31
0.0
  0
ARC
  5
426
330
18
100
AcDbEntity
  8
TEXT
100
AcDbCircle
 10
0.6584879208104404
 20
-0.0408204172396687
 30
0.0
 40
0.028359375
100
AcDbArc
 50
25.78218179591245
 51
90.0
  0
LINE
  5
427
330
18
100
AcDbEntity
  8
TEXT
100
AcDbLine
 10
0.6584879208104413
 20
-0.0124610422396714
 30
0.0
 11
0.5512816474231519
 21
-0.0124610422396714
 31
0.0
  0
LINE
  5
428
330
18
100
AcDbEntity
  8
TEXT
100
AcDbLine
 10
0.6942889961145627
 20
-0.0497360157018036
 30
0.0
 11
0.6840242357009983
 21
-0.0284854761291094
 31
0.0
  0
LINE
  5
429
330
18
100
AcDbEntity
  8
TEXT
100
AcDbLine
 10
0.6120010063311794
 20
-0.0497360157018036
 30
0.0
 11
0.6942889961145627
 21
-0.0497360157018036
 31
0.0
  0
LINE
  5
42A
330
18
100
AcDbEntity
  8
TEXT
100
AcDbLine
 10
0.5526869099378607
 20
0.0518156524170941
 30
0.0
 11
0.5526869099378607
 21
0.0234931066474502
 31
0.0
  0
LINE
  5
42B
330
18
100
AcDbEntity
  8
TEXT
100
AcDbLine
 10
0.6875188191549198
 20
0.0518156524170941
 30
0.0
 11
0.5526869099378607
 21
0.0518156524170941
 31
0.0
  0
LINE
  5
42C
330
18
100
AcDbEntity
  8
TEXT
100
AcDbLine
 10
0.7664787580299608
 20
0.0518156524170941
 30
0.0
 11
0.7664787580299608
 21
-0.0533963261363333
 31
0.0
  0
LINE
  5
42D
330
18
100
AcDbEntity
  8
TEXT
100
AcDbLine
 10
0.8303756643294617
 20
0.0518156524170941
 30
0.0
 11
0.7664787580299608
 21
0.0518156524170941
 31
0.0
  0
LINE
  5
42E
330
18
100
AcDbEntity
  8
TEXT
100
AcDbLine
 10
0.8303756643294617
 20
0.0242680025562194
 30
0.0
 11
0.8303756643294617
 21
0.0518156524170941
 31
0.0
  0
ARC
  5
42F
330
18
100
AcDbEntity
  8
TEXT
100
AcDbCircle
 10
0.8615684813925703
 20
0.0205699251348293
 30
0.0
 40
0.0314112657011332
100
AcDbArc
 50
95.88484768694724
 51
173.2388340632136
  0
ARC
  5
430
330
18
100
AcDbEntity
  8
TEXT
100
AcDbCircle
 10
0.8536795244529926
 20
-0.0373669175223341
 30
0.0
 40
0.0249058752826653
100
AcDbArc
 50
89.99971217465335
 51
179.9999999999985
  0
LINE
  5
431
330
18
100
AcDbEntity
  8
TEXT
100
AcDbLine
 10
1.147187595651847
 20
-0.2146573805714169
 30
0.0
 11
1.051695372288237
 21
-0.0580775905238795
 31
0.0
  0
LINE
  5
432
330
18
100
AcDbEntity
  8
TEXT
100
AcDbLine
 10
0.9303275057455513
 20
-0.0124610422396714
 30
0.0
 11
0.9303275057455566
 21
-0.2146573805714169
 31
0.0
  0
LINE
  5
433
330
18
100
AcDbEntity
  8
TEXT
100
AcDbLine
 10
1.070609223275641
 20
-0.2146573805714169
 30
0.0
 11
1.147187595651847
 21
-0.2146573805714169
 31
0.0
  0
LINE
  5
434
330
18
100
AcDbEntity
  8
TEXT
100
AcDbLine
 10
0.994705690064177
 20
-0.0830778120952367
 30
0.0
 11
1.070609223275641
 21
-0.2146573805714169
 31
0.0
  0
LINE
  5
435
330
18
100
AcDbEntity
  8
TEXT
100
AcDbLine
 10
0.994705690064177
 20
-0.2146573805714169
 30
0.0
 11
0.994705690064177
 21
-0.0830778120952367
 31
0.0
  0
LINE
  5
436
330
18
100
AcDbEntity
  8
TEXT
100
AcDbLine
 10
0.9303275057455566
 20
-0.2146573805714169
 30
0.0
 11
0.994705690064177
 21
-0.2146573805714169
 31
0.0
  0
LINE
  5
437
330
18
100
AcDbEntity
  8
TEXT
100
AcDbLine
 10
1.116252488253942
 20
0.0518156524170941
 30
0.0
 11
1.041260655524316
 21
0.0518156524170941
 31
0.0
  0
LINE
  5
438
330
18
100
AcDbEntity
  8
TEXT
100
AcDbLine
 10
1.051695372288237
 20
-0.0580775905238795
 30
0.0
 11
1.116252488253942
 21
0.0518156524170941
 31
0.0
  0
LINE
  5
439
330
18
100
AcDbEntity
  8
TEXT
100
AcDbLine
 10
0.9258476184190564
 20
0.1172798581846948
 30
0.0
 11
0.9258476184190511
 21
0.0518156524170941
 31
0.0
  0
LINE
  5
43A
330
18
100
AcDbEntity
  8
TEXT
100
AcDbLine
 10
0.9941624969683298
 20
0.1172798581846948
 30
0.0
 11
0.9258476184190564
 21
0.1172798581846948
 31
0.0
  0
LINE
  5
43B
330
18
100
AcDbEntity
  8
TEXT
100
AcDbLine
 10
0.9941624969683298
 20
-0.024049673994444
 30
0.0
 11
0.9941624969683298
 21
0.1172798581846948
 31
0.0
  0
LINE
  5
43C
330
18
100
AcDbEntity
  8
TEXT
100
AcDbLine
 10
1.041260655524314
 20
0.0518156524170941
 30
0.0
 11
0.9941624969683298
 21
-0.024049673994444
 31
0.0
  0
TEXT
  5
43D
330
18
100
AcDbEntity
  8
TEXT
100
AcDbText
 10
0.1329698350247405
 20
0.2318926437801623
 30
0.0
 40
0.125
  1
PART #110053
  7
ITALICC
 72
     1
 11
0.8859460255009308
 21
0.2318926437801623
 31
0.0
100
AcDbText
  0
ENDSEC
  0
SECTION
  2
OBJECTS
  0
DICTIONARY
  5
C
330
0
100
AcDbDictionary
  3
ACAD_GROUP
350
D
  3
ACAD_LAYOUT
350
443
  3
ACAD_MLINESTYLE
350
E
  3
ACAD_PLOTSETTINGS
350
444
  3
ACAD_PLOTSTYLENAME
350
441
  3
ACDBHEADERROUNDTRIPXREC
350
44E
  3
ACDBVARIABLEDICTIONARY
350
44B
  0
DICTIONARY
  5
470
330
18
100
AcDbDictionary
280
     1
  3
ACAD_LAYOUTSELFREF
360
471
  0
DICTIONARY
  5
46E
330
15
100
AcDbDictionary
280
     1
  3
ACAD_LAYOUTSELFREF
360
46F
  0
DICTIONARY
  5
D
102
{ACAD_REACTORS
330
C
102
}
330
C
100
AcDbDictionary
  0
DICTIONARY
  5
443
102
{ACAD_REACTORS
330
C
102
}
330
C
100
AcDbDictionary
  0
DICTIONARY
  5
E
102
{ACAD_REACTORS
330
C
102
}
330
C
100
AcDbDictionary
  3
STANDARD
350
1B
  0
DICTIONARY
  5
444
102
{ACAD_REACTORS
330
C
102
}
330
C
100
AcDbDictionary
  0
ACDBDICTIONARYWDFLT
  5
441
102
{ACAD_REACTORS
330
C
102
}
330
C
100
AcDbDictionary
281
     1
  3
Normal
350
442
100
AcDbDictionaryWithDefault
340
442
  0
DICTIONARY
  5
44E
102
{ACAD_REACTORS
330
C
102
}
330
C
100
AcDbDictionary
  3
CEPSNTYPE
350
458
  3
FINGERPRINTGUID
350
459
  3
HYPERLINKBASE
350
451
  3
INSUNITS
350
457
  3
LAYOUTDICT
350
453
  3
LWETCUNION
350
456
  3
PLOTSETDICT
350
454
  3
PLOTSTYLNAMDICT
350
455
  3
PSVPSCALE
350
45B
  3
PUCSBASE
350
45E
  3
PUCSORGBACK
350
464
  3
PUCSORGBOTTOM
350
460
  3
PUCSORGFRONT
350
463
  3
PUCSORGLEFT
350
461
  3
PUCSORGRIGHT
350
462
  3
PUCSORGTOP
350
45F
  3
PUCSORTHOREF
350
45C
  3
PUCSORTHOVIEW
350
45D
  3
STYLESHEET
350
452
  3
TSTACKALIGN
350
44F
  3
TSTACKSIZE
350
450
  3
UCSBASE
350
467
  3
UCSORGBACK
350
46D
  3
UCSORGBOTTOM
350
469
  3
UCSORGFRONT
350
46C
  3
UCSORGLEFT
350
46A
  3
UCSORGRIGHT
350
46B
  3
UCSORGTOP
350
468
  3
UCSORTHOREF
350
465
  3
UCSORTHOVIEW
350
466
  3
VERSIONGUID
350
45A
  0
DICTIONARY
  5
44B
102
{ACAD_REACTORS
330
C
102
}
330
C
100
AcDbDictionary
  3
DIMASSOC
350
44C
  0
XRECORD
  5
471
102
{ACAD_REACTORS
330
470
102
}
330
470
100
AcDbXrecord
340
18
  0
XRECORD
  5
46F
102
{ACAD_REACTORS
330
46E
102
}
330
46E
100
AcDbXrecord
340
15
  0
MLINESTYLE
  5
1B
102
{ACAD_REACTORS
330
E
102
}
330
E
100
AcDbMlineStyle
  2
STANDARD
 70
     0
  3

 62
     0
 51
90.0
 52
90.0
 71
     2
 49
0.5
 62
   256
  6
BYLAYER
 49
-0.5
 62
   256
  6
BYLAYER
  0
ACDBPLACEHOLDER
  5
442
102
{ACAD_REACTORS
330
441
102
}
330
441
100
AcDbPlaceHolder
280
     0
  0
XRECORD
  5
458
102
{ACAD_REACTORS
330
44E
102
}
330
44E
100
AcDbXrecord
 90
        0
  0
XRECORD
  5
459
102
{ACAD_REACTORS
330
44E
102
}
330
44E
100
AcDbXrecord
  1
{9A1C65F0-8DB3-11D6-88E6-0090279574E7}
  0
XRECORD
  5
451
102
{ACAD_REACTORS
330
44E
102
}
330
44E
100
AcDbXrecord
  1

  0
XRECORD
  5
457
102
{ACAD_REACTORS
330
44E
102
}
330
44E
100
AcDbXrecord
 90
        0
  0
XRECORD
  5
453
102
{ACAD_REACTORS
330
44E
102
}
330
44E
100
AcDbXrecord
340
443
  0
XRECORD
  5
456
102
{ACAD_REACTORS
330
44E
102
}
330
44E
100
AcDbXrecord
 90
    14877
  0
XRECORD
  5
454
102
{ACAD_REACTORS
330
44E
102
}
330
44E
100
AcDbXrecord
340
444
  0
XRECORD
  5
455
102
{ACAD_REACTORS
330
44E
102
}
330
44E
100
AcDbXrecord
340
441
  0
XRECORD
  5
45B
102
{ACAD_REACTORS
330
44E
102
}
330
44E
100
AcDbXrecord
 40
0.0
  0
XRECORD
  5
45E
102
{ACAD_REACTORS
330
44E
102
}
330
44E
100
AcDbXrecord
340
0
  0
XRECORD
  5
464
102
{ACAD_REACTORS
330
44E
102
}
330
44E
100
AcDbXrecord
 10
0.0
 20
0.0
 30
0.0
  0
XRECORD
  5
460
102
{ACAD_REACTORS
330
44E
102
}
330
44E
100
AcDbXrecord
 10
0.0
 20
0.0
 30
0.0
  0
XRECORD
  5
463
102
{ACAD_REACTORS
330
44E
102
}
330
44E
100
AcDbXrecord
 10
0.0
 20
0.0
 30
0.0
  0
XRECORD
  5
461
102
{ACAD_REACTORS
330
44E
102
}
330
44E
100
AcDbXrecord
 10
0.0
 20
0.0
 30
0.0
  0
XRECORD
  5
462
102
{ACAD_REACTORS
330
44E
102
}
330
44E
100
AcDbXrecord
 10
0.0
 20
0.0
 30
0.0
  0
XRECORD
  5
45F
102
{ACAD_REACTORS
330
44E
102
}
330
44E
100
AcDbXrecord
 10
0.0
 20
0.0
 30
0.0
  0
XRECORD
  5
45C
102
{ACAD_REACTORS
330
44E
102
}
330
44E
100
AcDbXrecord
340
0
  0
XRECORD
  5
45D
102
{ACAD_REACTORS
330
44E
102
}
330
44E
100
AcDbXrecord
 70
     0
  0
XRECORD
  5
452
102
{ACAD_REACTORS
330
44E
102
}
330
44E
100
AcDbXrecord
  1

  0
XRECORD
  5
44F
102
{ACAD_REACTORS
330
44E
102
}
330
44E
100
AcDbXrecord
 90
        1
  0
XRECORD
  5
450
102
{ACAD_REACTORS
330
44E
102
}
330
44E
100
AcDbXrecord
 90
       70
  0
XRECORD
  5
467
102
{ACAD_REACTORS
330
44E
102
}
330
44E
100
AcDbXrecord
340
0
  0
XRECORD
  5
46D
102
{ACAD_REACTORS
330
44E
102
}
330
44E
100
AcDbXrecord
 10
0.0
 20
0.0
 30
0.0
  0
XRECORD
  5
469
102
{ACAD_REACTORS
330
44E
102
}
330
44E
100
AcDbXrecord
 10
0.0
 20
0.0
 30
0.0
  0
XRECORD
  5
46C
102
{ACAD_REACTORS
330
44E
102
}
330
44E
100
AcDbXrecord
 10
0.0
 20
0.0
 30
0.0
  0
XRECORD
  5
46A
102
{ACAD_REACTORS
330
44E
102
}
330
44E
100
AcDbXrecord
 10
0.0
 20
0.0
 30
0.0
  0
XRECORD
  5
46B
102
{ACAD_REACTORS
330
44E
102
}
330
44E
100
AcDbXrecord
 10
0.0
 20
0.0
 30
0.0
  0
XRECORD
  5
468
102
{ACAD_REACTORS
330
44E
102
}
330
44E
100
AcDbXrecord
 10
0.0
 20
0.0
 30
0.0
  0
XRECORD
  5
465
102
{ACAD_REACTORS
330
44E
102
}
330
44E
100
AcDbXrecord
340
0
  0
XRECORD
  5
466
102
{ACAD_REACTORS
330
44E
102
}
330
44E
100
AcDbXrecord
 70
     0
  0
XRECORD
  5
45A
102
{ACAD_REACTORS
330
44E
102
}
330
44E
100
AcDbXrecord
  1
{9A1C65F2-8DB3-11D6-88E6-0090279574E7}
  0
DICTIONARYVAR
  5
44C
102
{ACAD_REACTORS
330
44B
102
}
330
44B
100
DictionaryVariables
280
     0
  1
1
  0
ENDSEC
  0
EOF
