  0
SECTION
  2
HEADER
  9
$ACADVER
  1
AC1014
  9
$ACADMAINTVER
 70
     9
  9
$DWGCODEPAGE
  3
ANSI_1252
  9
$INSBASE
 10
1.875
 20
0.859375
 30
0.0
  9
$EXTMIN
 10
0.1320184207728567
 20
0.1357313959174185
 30
0.0
  9
$EXTMAX
 10
3.617237742519984
 20
1.359375
 30
0.0
  9
$LIMMIN
 10
0.0
 20
0.0
  9
$LIMMAX
 10
18.0
 20
12.0
  9
$ORTHOMODE
 70
     1
  9
$REGENMODE
 70
     1
  9
$FILLMODE
 70
     1
  9
$QTEXTMODE
 70
     0
  9
$MIRRTEXT
 70
     0
  9
$DRAGMODE
 70
     2
  9
$LTSCALE
 40
1.0
  9
$OSMODE
 70
    39
  9
$ATTMODE
 70
     1
  9
$TEXTSIZE
 40
0.125
  9
$TRACEWID
 40
0.05
  9
$TEXTSTYLE
  7
ROMANS
  9
$CLAYER
  8
0
  9
$CELTYPE
  6
BYLAYER
  9
$CECOLOR
 62
   256
  9
$CELTSCALE
 40
1.0
  9
$DELOBJ
 70
     1
  9
$DISPSILH
 70
     1
  9
$DIMSCALE
 40
1.0
  9
$DIMASZ
 40
0.125
  9
$DIMEXO
 40
0.125
  9
$DIMDLI
 40
0.375
  9
$DIMRND
 40
0.0
  9
$DIMDLE
 40
0.0
  9
$DIMEXE
 40
0.125
  9
$DIMTP
 40
0.0
  9
$DIMTM
 40
0.0
  9
$DIMTXT
 40
0.125
  9
$DIMCEN
 40
-0.125
  9
$DIMTSZ
 40
0.0
  9
$DIMTOL
 70
     0
  9
$DIMLIM
 70
     0
  9
$DIMTIH
 70
     1
  9
$DIMTOH
 70
     1
  9
$DIMSE1
 70
     0
  9
$DIMSE2
 70
     0
  9
$DIMTAD
 70
     0
  9
$DIMZIN
 70
     4
  9
$DIMBLK
  1

  9
$DIMASO
 70
     1
  9
$DIMSHO
 70
     1
  9
$DIMPOST
  1

  9
$DIMAPOST
  1

  9
$DIMALT
 70
     0
  9
$DIMALTD
 70
     2
  9
$DIMALTF
 40
25.4
  9
$DIMLFAC
 40
1.0
  9
$DIMTOFL
 70
     0
  9
$DIMTVP
 40
0.0
  9
$DIMTIX
 70
     1
  9
$DIMSOXD
 70
     0
  9
$DIMSAH
 70
     0
  9
$DIMBLK1
  1

  9
$DIMBLK2
  1

  9
$DIMSTYLE
  2
STANDARD
  9
$DIMCLRD
 70
     0
  9
$DIMCLRE
 70
     0
  9
$DIMCLRT
 70
     0
  9
$DIMTFAC
 40
1.0
  9
$DIMGAP
 40
0.09
  9
$DIMJUST
 70
     0
  9
$DIMSD1
 70
     0
  9
$DIMSD2
 70
     0
  9
$DIMTOLJ
 70
     1
  9
$DIMTZIN
 70
     4
  9
$DIMALTZ
 70
     0
  9
$DIMALTTZ
 70
     0
  9
$DIMFIT
 70
     3
  9
$DIMUPT
 70
     0
  9
$DIMUNIT
 70
     2
  9
$DIMDEC
 70
     3
  9
$DIMTDEC
 70
     3
  9
$DIMALTU
 70
     2
  9
$DIMALTTD
 70
     2
  9
$DIMTXSTY
  7
ROMANS
  9
$DIMAUNIT
 70
     0
  9
$LUNITS
 70
     2
  9
$LUPREC
 70
     3
  9
$SKETCHINC
 40
0.1
  9
$FILLETRAD
 40
0.03125
  9
$AUNITS
 70
     0
  9
$AUPREC
 70
     0
  9
$MENU
  1
ACAD
  9
$ELEVATION
 40
0.0
  9
$PELEVATION
 40
0.0
  9
$THICKNESS
 40
0.0
  9
$LIMCHECK
 70
     0
  9
$BLIPMODE
 70
     0
  9
$CHAMFERA
 40
0.0
  9
$CHAMFERB
 40
0.0
  9
$CHAMFERC
 40
0.0
  9
$CHAMFERD
 40
0.0
  9
$SKPOLY
 70
     0
  9
$TDCREATE
 40
2448993.441653009
  9
$TDUPDATE
 40
2452458.293437535
  9
$TDINDWG
 40
0.0006265856
  9
$TDUSRTIMER
 40
0.0006265856
  9
$USRTIMER
 70
     1
  9
$ANGBASE
 50
0.0
  9
$ANGDIR
 70
     0
  9
$PDMODE
 70
     0
  9
$PDSIZE
 40
0.0
  9
$PLINEWID
 40
0.0
  9
$COORDS
 70
     2
  9
$SPLFRAME
 70
     0
  9
$SPLINETYPE
 70
     6
  9
$SPLINESEGS
 70
     8
  9
$ATTDIA
 70
     0
  9
$ATTREQ
 70
     1
  9
$HANDLING
 70
 22529
  9
$HANDSEED
  5
A7D0AA8B
  9
$SURFTAB1
 70
     6
  9
$SURFTAB2
 70
     6
  9
$SURFTYPE
 70
     6
  9
$SURFU
 70
     6
  9
$SURFV
 70
     6
  9
$UCSNAME
  2

  9
$UCSORG
 10
0.0
 20
0.0
 30
0.0
  9
$UCSXDIR
 10
1.0
 20
0.0
 30
0.0
  9
$UCSYDIR
 10
0.0
 20
1.0
 30
0.0
  9
$PUCSNAME
  2

  9
$PUCSORG
 10
0.0
 20
0.0
 30
0.0
  9
$PUCSXDIR
 10
1.0
 20
0.0
 30
0.0
  9
$PUCSYDIR
 10
0.0
 20
1.0
 30
0.0
  9
$USERI1
 70
     0
  9
$USERI2
 70
     0
  9
$USERI3
 70
     0
  9
$USERI4
 70
     0
  9
$USERI5
 70
     0
  9
$USERR1
 40
0.0
  9
$USERR2
 40
0.0
  9
$USERR3
 40
0.0
  9
$USERR4
 40
0.0
  9
$USERR5
 40
0.0
  9
$WORLDVIEW
 70
     1
  9
$SHADEDGE
 70
     3
  9
$SHADEDIF
 70
    70
  9
$TILEMODE
 70
     1
  9
$MAXACTVP
 70
    16
  9
$PINSBASE
 10
0.7525408670009783
 20
50.00000000000001
 30
1.868902441608243
  9
$PLIMCHECK
 70
     0
  9
$PEXTMIN
 10
1.000000000000000E+20
 20
1.000000000000000E+20
 30
1.000000000000000E+20
  9
$PEXTMAX
 10
-1.000000000000000E+20
 20
-1.000000000000000E+20
 30
-1.000000000000000E+20
  9
$PLIMMIN
 10
0.0
 20
0.0
  9
$PLIMMAX
 10
12.0
 20
9.0
  9
$UNITMODE
 70
     0
  9
$VISRETAIN
 70
     0
  9
$PLINEGEN
 70
     1
  9
$PSLTSCALE
 70
     0
  9
$TREEDEPTH
 70
  3020
  9
$PICKSTYLE
 70
     1
  9
$CMLSTYLE
  2
STANDARD
  9
$CMLJUST
 70
     0
  9
$CMLSCALE
 40
1.0
  9
$PROXYGRAPHICS
 70
     1
  9
$MEASUREMENT
 70
     0
  0
ENDSEC
  0
SECTION
  2
CLASSES
  0
CLASS
  1
LWPOLYLINE
  2
AcDbPolyline
  3
AutoCAD 2000
 90
        0
280
     0
281
     1
  0
CLASS
  1
ACDBDICTIONARYWDFLT
  2
AcDbDictionaryWithDefault
  3
AutoCAD 2000
 90
        0
280
     0
281
     0
  0
CLASS
  1
ACDBPLACEHOLDER
  2
AcDbPlaceHolder
  3
AutoCAD 2000
 90
        0
280
     0
281
     0
  0
CLASS
  1
LAYOUT
  2
AcDbLayout
  3
AutoCAD 2000
 90
        0
280
     0
281
     0
  0
CLASS
  1
DICTIONARYVAR
  2
AcDbDictionaryVar
  3
AutoCAD 2000
 90
        0
280
     0
281
     0
  0
CLASS
  1
LONG_TRANSACTION
  2
AcDbLongTransaction
  3
AutoCAD 2000
 90
        0
280
     0
281
     0
  0
CLASS
  1
LWPOLYLINE
  2
AcDbPolyline
  3
AutoCAD 2000
 90
        0
280
     0
281
     1
  0
CLASS
  1
HATCH
  2
AcDbHatch
  3
AutoCAD 2000
 90
        0
280
     0
281
     1
  0
CLASS
  1
XRECORD
  2
AcDbXrecord
  3
AutoCAD 2000
 90
        0
280
     0
281
     0
  0
ENDSEC
  0
SECTION
  2
TABLES
  0
TABLE
  2
VPORT
  5
A7D0AA32
330
0
100
AcDbSymbolTable
 70
     2
  0
VPORT
  5
A7D0AA66
330
A7D0AA32
100
AcDbSymbolTableRecord
100
AcDbViewportTableRecord
  2
*ACTIVE
 70
     0
 10
0.0
 20
0.0
 11
1.0
 21
1.0
 12
4.851015888082844
 22
0.7476196507313518
 13
0.0
 23
0.0
 14
0.015625
 24
0.015625
 15
0.0
 25
0.0
 16
0.0
 26
0.0
 36
1.0
 17
0.0
 27
0.0
 37
0.0
 40
2.282647215150728
 41
4.320930232558139
 42
50.0
 43
0.0
 44
0.0
 50
0.0
 51
0.0
 71
     0
 72
  2000
 73
     1
 74
     0
 75
     1
 76
     0
 77
     0
 78
     0
  0
ENDTAB
  0
TABLE
  2
LTYPE
  5
A7D0AA2F
330
0
100
AcDbSymbolTable
 70
     1
  0
LTYPE
  5
A7D0AA3C
330
A7D0AA2F
100
AcDbSymbolTableRecord
100
AcDbLinetypeTableRecord
  2
BYBLOCK
 70
     0
  3

 72
    65
 73
     0
 40
0.0
  0
LTYPE
  5
A7D0AA3D
330
A7D0AA2F
100
AcDbSymbolTableRecord
100
AcDbLinetypeTableRecord
  2
BYLAYER
 70
     0
  3

 72
    65
 73
     0
 40
0.0
  0
LTYPE
  5
A7D0AA3E
330
A7D0AA2F
100
AcDbSymbolTableRecord
100
AcDbLinetypeTableRecord
  2
CONTINUOUS
 70
     0
  3
Solid line
 72
    65
 73
     0
 40
0.0
  0
ENDTAB
  0
TABLE
  2
LAYER
  5
A7D0AA2C
330
0
100
AcDbSymbolTable
 70
     2
  0
LAYER
  5
A7D0AA39
330
A7D0AA2C
100
AcDbSymbolTableRecord
100
AcDbLayerTableRecord
  2
0
 70
     0
 62
     7
  6
CONTINUOUS
  0
LAYER
  5
A7D0AA49
330
A7D0AA2C
100
AcDbSymbolTableRecord
100
AcDbLayerTableRecord
  2
TEXT
 70
     0
 62
     3
  6
CONTINUOUS
  0
ENDTAB
  0
TABLE
  2
STYLE
  5
A7D0AA2D
330
0
100
AcDbSymbolTable
 70
     3
  0
STYLE
  5
A7D0AA3A
330
A7D0AA2D
100
AcDbSymbolTableRecord
100
AcDbTextStyleTableRecord
  2
STANDARD
 70
     0
 40
0.0
 41
1.0
 50
0.0
 71
     0
 42
0.3125
  3
txt
  4

  0
STYLE
  5
A7D0AA46
330
A7D0AA2D
100
AcDbSymbolTableRecord
100
AcDbTextStyleTableRecord
  2
ITALICC
 70
     0
 40
0.0
 41
1.0
 50
0.0
 71
     0
 42
0.125
  3
italicc
  4

  0
STYLE
  5
A7D0AA56
330
A7D0AA2D
100
AcDbSymbolTableRecord
100
AcDbTextStyleTableRecord
  2
ROMANS
 70
     0
 40
0.0
 41
1.0
 50
0.0
 71
     0
 42
0.125
  3
romans.shx
  4

  0
ENDTAB
  0
TABLE
  2
VIEW
  5
A7D0AA30
330
0
100
AcDbSymbolTable
 70
     0
  0
ENDTAB
  0
TABLE
  2
UCS
  5
A7D0AA31
330
0
100
AcDbSymbolTable
 70
     0
  0
ENDTAB
  0
TABLE
  2
APPID
  5
A7D0AA33
330
0
100
AcDbSymbolTable
 70
     1
  0
APPID
  5
A7D0AA3B
330
A7D0AA33
100
AcDbSymbolTableRecord
100
AcDbRegAppTableRecord
  2
ACAD
 70
     0
  0
ENDTAB
  0
TABLE
  2
DIMSTYLE
  5
A7D0AA34
330
0
100
AcDbSymbolTable
 70
     1
  0
DIMSTYLE
105
A7D0AA4E
330
A7D0AA34
100
AcDbSymbolTableRecord
100
AcDbDimStyleTableRecord
  2
STANDARD
 70
     0
  3

  4

  5

  6

  7

 40
1.0
 41
0.125
 42
0.125
 43
0.375
 44
0.125
 45
0.0
 46
0.0
 47
0.0
 48
0.0
140
0.125
141
-0.125
142
0.0
143
25.4
144
1.0
145
0.0
146
1.0
147
0.09
 71
     0
 72
     0
 73
     1
 74
     1
 75
     0
 76
     0
 77
     0
 78
     4
170
     0
171
     2
172
     0
173
     0
174
     1
175
     0
176
     0
177
     0
178
     0
270
     2
271
     3
272
     3
273
     2
274
     2
340
A7D0AA56
275
     0
280
     0
281
     0
282
     0
283
     1
284
     4
285
     0
286
     0
287
     3
288
     0
  0
ENDTAB
  0
TABLE
  2
BLOCK_RECORD
  5
A7D0AA2B
330
0
100
AcDbSymbolTable
 70
     0
  0
BLOCK_RECORD
  5
A7D0AA42
102
{ACAD_XDICTIONARY
360
A7D0AA89
102
}
330
A7D0AA2B
100
AcDbSymbolTableRecord
100
AcDbBlockTableRecord
  2
*MODEL_SPACE
  0
BLOCK_RECORD
  5
A7D0AA3F
102
{ACAD_XDICTIONARY
360
A7D0AA87
102
}
330
A7D0AA2B
100
AcDbSymbolTableRecord
100
AcDbBlockTableRecord
  2
*PAPER_SPACE
  0
ENDTAB
  0
ENDSEC
  0
SECTION
  2
BLOCKS
  0
BLOCK
  5
A7D0AA4C
330
A7D0AA42
100
AcDbEntity
  8
0
100
AcDbBlockBegin
  2
*MODEL_SPACE
 70
     0
 10
0.0
 20
0.0
 30
0.0
  3
*MODEL_SPACE
  1

  0
ENDBLK
  5
A7D0AA4D
330
A7D0AA42
100
AcDbEntity
  8
0
100
AcDbBlockEnd
  0
BLOCK
  5
A7D0AA4A
330
A7D0AA3F
100
AcDbEntity
 67
     1
  8
0
100
AcDbBlockBegin
  2
*PAPER_SPACE
 70
     0
 10
0.0
 20
0.0
 30
0.0
  3
*PAPER_SPACE
  1

  0
ENDBLK
  5
A7D0AA4B
330
A7D0AA3F
100
AcDbEntity
 67
     1
  8
0
100
AcDbBlockEnd
  0
ENDSEC
  0
SECTION
  2
ENTITIES
  0
LWPOLYLINE
  5
A7D0966B
330
A7D0AA42
100
AcDbEntity
  8
0
100
AcDbPolyline
 90
        4
 70
     1
 43
0.0
 10
2.875
 20
0.859375
 10
2.875
 20
1.359375
 10
0.875
 20
1.359375
 10
0.875
 20
0.859375
  0
TEXT
  5
A7D0A8ED
330
A7D0AA42
100
AcDbEntity
  8
TEXT
100
AcDbText
 10
1.133928571428571
 20
0.59375
 30
0.0
 40
0.125
  1
PART #110051
  7
ITALICC
 72
     1
 11
1.875
 21
0.59375
 31
0.0
100
AcDbText
  0
TEXT
  5
A7D0A8EE
330
A7D0AA42
100
AcDbEntity
  8
TEXT
100
AcDbText
 10
2.28830515825032
 20
0.1468273573276249
 30
0.0
 40
0.0522247191011236
  1
Phone  1-800-328-2495
 41
1.272321428571429
 72
     5
 11
3.617237742519984
 21
0.1468273573276249
 31
0.0
100
AcDbText
  0
TEXT
  5
A7D0A8EF
330
A7D0AA42
100
AcDbEntity
  8
TEXT
100
AcDbText
 10
2.28830515825032
 20
0.4266026382265014
 30
0.0
 40
0.0522247191011236
  1
Stylmark  Incorporated
 41
1.221428571428573
 72
     5
 11
3.617237742519984
 21
0.4266026382265014
 31
0.0
100
AcDbText
  0
TEXT
  5
A7D0A8F0
330
A7D0AA42
100
AcDbEntity
  8
TEXT
100
AcDbText
 10
2.28830515825032
 20
0.3333442112602092
 30
0.0
 40
0.0522247191011236
  1
6536 Main St. N.E. * P.O. Box 32008
 41
0.8388932496075366
 72
     5
 11
3.617237742519984
 21
0.3333442112602092
 31
0.0
100
AcDbText
  0
TEXT
  5
A7D0A8F1
330
A7D0AA42
100
AcDbEntity
  8
TEXT
100
AcDbText
 10
2.28830515825032
 20
0.240085784293917
 30
0.0
 40
0.0522247191011236
  1
Minneapolis, MN 55432-0008
 41
1.11444212721585
 72
     5
 11
3.617237742519984
 21
0.240085784293917
 31
0.0
100
AcDbText
  0
LWPOLYLINE
  5
A7D0A8F2
330
A7D0AA42
100
AcDbEntity
  8
TEXT
100
AcDbPolyline
 90
        3
 70
     0
 43
0.0006660908203125
 10
0.132351466183013
 20
0.2604721199650597
 10
0.132351466183013
 20
0.1472366805119321
 10
0.2455869056361353
 20
0.1472366805119321
  0
LWPOLYLINE
  5
A7D0A8F7
330
A7D0AA42
100
AcDbEntity
  8
TEXT
100
AcDbPolyline
 90
        3
 70
     0
 43
0.0006660908203125
 10
0.1589950989955104
 20
0.2604721199650597
 10
0.1589950989955104
 20
0.1738803133244331
 10
0.2455869056361353
 20
0.1738803133244331
  0
LWPOLYLINE
  5
A7D0A8FC
330
A7D0AA42
100
AcDbEntity
  8
TEXT
100
AcDbPolyline
 90
        2
 70
     0
 43
0.0001332181640625
 10
0.2056214564173873
 20
0.2704634822697449
 10
0.132351466183013
 20
0.2604721199650597
  0
LWPOLYLINE
  5
A7D0A900
330
A7D0AA42
100
AcDbEntity
  8
TEXT
100
AcDbPolyline
 90
        2
 70
     0
 43
0.0001332181640625
 10
0.1589950989955104
 20
0.2604721199650597
 10
0.2189432728236378
 20
0.2704634822697449
  0
LWPOLYLINE
  5
A7D0A904
330
A7D0AA42
100
AcDbEntity
  8
TEXT
100
AcDbPolyline
 90
        2
 70
     0
 43
0.0001332181640625
 10
0.1589950989955104
 20
0.1738803133244331
 10
0.2189432728236378
 20
0.2338284871525587
  0
LWPOLYLINE
  5
A7D0A908
330
A7D0AA42
100
AcDbEntity
  8
TEXT
100
AcDbPolyline
 90
        3
 70
     0
 43
0.0006660908203125
 10
0.2455869056361353
 20
0.4136730086369354
 10
0.132351466183013
 20
0.4136730086369354
 10
0.132351466183013
 20
0.3004375691838077
  0
LWPOLYLINE
  5
A7D0A90D
330
A7D0AA42
100
AcDbEntity
  8
TEXT
100
AcDbPolyline
 90
        3
 70
     0
 43
0.0006660908203125
 10
0.2455869056361353
 20
0.3870293758244343
 10
0.1589950989955104
 20
0.3870293758244343
 10
0.1589950989955104
 20
0.3004375691838077
  0
LWPOLYLINE
  5
A7D0A912
330
A7D0AA42
100
AcDbEntity
  8
TEXT
100
AcDbPolyline
 90
        2
 70
     0
 43
0.0001332181640625
 10
0.1589950989955104
 20
0.3870293758244343
 10
0.218943272823636
 20
0.3270812019963087
  0
LWPOLYLINE
  5
A7D0A916
330
A7D0AA42
100
AcDbEntity
  8
TEXT
100
AcDbPolyline
 90
        2
 70
     0
 43
0.0001332181640625
 10
0.1589950989955104
 20
0.3004375691838077
 10
0.218943272823636
 20
0.2904462068791189
  0
LWPOLYLINE
  5
A7D0A91A
330
A7D0AA42
100
AcDbEntity
  8
TEXT
100
AcDbPolyline
 90
        2
 70
     0
 43
0.0001332181640625
 10
0.132351466183013
 20
0.3004375691838077
 10
0.2056214564173873
 20
0.2904462068791189
  0
LWPOLYLINE
  5
A7D0A91E
330
A7D0AA42
100
AcDbEntity
  8
TEXT
100
AcDbPolyline
 90
        2
 70
     0
 43
0.0006660908203125
 10
0.1589950989955104
 20
0.2604721199650597
 10
0.132351466183013
 20
0.2604721199650597
  0
LWPOLYLINE
  5
A7D0A922
330
A7D0AA42
100
AcDbEntity
  8
TEXT
100
AcDbPolyline
 90
        2
 70
     0
 43
0.0006660908203125
 10
0.1589950989955104
 20
0.3004375691838077
 10
0.132351466183013
 20
0.3004375691838077
  0
LINE
  5
A7D0A926
330
A7D0AA42
100
AcDbEntity
  8
TEXT
100
AcDbLine
 10
1.64754189530951
 20
0.3493963139801663
 30
0.0
 11
1.540335621922221
 21
0.3493963139801663
 31
0.0
  0
LINE
  5
A7D0A927
330
A7D0AA42
100
AcDbEntity
  8
TEXT
100
AcDbLine
 10
1.676572793653988
 20
0.4136730086369318
 30
0.0
 11
1.541740884436929
 21
0.4136730086369318
 31
0.0
  0
ARC
  5
A7D0A928
330
A7D0AA42
100
AcDbEntity
  8
TEXT
100
AcDbCircle
 10
1.601054980830246
 20
0.2444357593739155
 30
0.0
 40
0.0676855811441166
100
AcDbArc
 50
90.0
 51
153.7768192527749
  0
LWPOLYLINE
  5
A7D0A929
330
A7D0AA42
100
AcDbEntity
  8
TEXT
100
AcDbPolyline
 90
        2
 70
     0
 43
0.0
 10
1.539303126467411
 20
0.190690920598859
 42
0.2901071551932823
 10
1.582379059335046
 20
0.1471999756484208
 42
5.328517124445801
  0
ARC
  5
A7D0A92D
330
A7D0AA42
100
AcDbEntity
  8
TEXT
100
AcDbCircle
 10
0.8959236031587609
 20
0.2069923669864706
 30
0.0
 40
0.0601160179737537
100
AcDbArc
 50
180.0000000000003
 51
264.0521544866073
  0
LINE
  5
A7D0A92E
330
A7D0AA42
100
AcDbEntity
  8
TEXT
100
AcDbLine
 10
0.8994389587843087
 20
0.44806092623107
 30
0.0
 11
0.8393963539403017
 21
0.44806092623107
 31
0.0
  0
ARC
  5
A7D0A92F
330
A7D0AA42
100
AcDbEntity
  8
TEXT
100
AcDbCircle
 10
0.6636646010417904
 20
0.33158554919043
 30
0.0
 40
0.0820874594465043
100
AcDbArc
 50
90.0
 51
270.0
  0
LWPOLYLINE
  5
A7D0A930
330
A7D0AA42
100
AcDbEntity
  8
TEXT
100
AcDbPolyline
 90
        2
 70
     0
 43
0.0001332181640625
 10
0.2555782679408258
 20
0.3404030184025557
 10
0.2455869056361353
 20
0.4136730086369354
  0
LWPOLYLINE
  5
A7D0A934
330
A7D0AA42
100
AcDbEntity
  8
TEXT
100
AcDbPolyline
 90
        2
 70
     0
 43
0.0001332181640625
 10
0.2455869056361353
 20
0.3870293758244343
 10
0.2555782679408258
 20
0.3270812019963087
  0
LWPOLYLINE
  5
A7D0A938
330
A7D0AA42
100
AcDbEntity
  8
TEXT
100
AcDbPolyline
 90
        3
 70
     0
 43
0.0006660908203125
 10
0.3987877943080127
 20
0.3004375691838077
 10
0.3987877943080127
 20
0.4136730086369354
 10
0.2855523548548868
 20
0.4136730086369354
  0
LWPOLYLINE
  5
A7D0A93D
330
A7D0AA42
100
AcDbEntity
  8
TEXT
100
AcDbPolyline
 90
        3
 70
     0
 43
0.0006660908203125
 10
0.3721441614955117
 20
0.3004375691838077
 10
0.3721441614955117
 20
0.3870293758244343
 10
0.2855523548548868
 20
0.3870293758244343
  0
LWPOLYLINE
  5
A7D0A942
330
A7D0AA42
100
AcDbEntity
  8
TEXT
100
AcDbPolyline
 90
        2
 70
     0
 43
0.0001332181640625
 10
0.3721441614955117
 20
0.3870293758244343
 10
0.3121959876673879
 20
0.3270812019963087
  0
LWPOLYLINE
  5
A7D0A946
330
A7D0AA42
100
AcDbEntity
  8
TEXT
100
AcDbPolyline
 90
        2
 70
     0
 43
0.0001332181640625
 10
0.2855523548548868
 20
0.3870293758244343
 10
0.2755609925501981
 20
0.3270812019963087
  0
LWPOLYLINE
  5
A7D0A94A
330
A7D0AA42
100
AcDbEntity
  8
TEXT
100
AcDbPolyline
 90
        2
 70
     0
 43
0.0001332181640625
 10
0.2855523548548868
 20
0.4136730086369354
 10
0.2755609925501981
 20
0.3404030184025557
  0
LWPOLYLINE
  5
A7D0A94E
330
A7D0AA42
100
AcDbEntity
  8
TEXT
100
AcDbPolyline
 90
        2
 70
     0
 43
0.0001332181640625
 10
0.3255178040736366
 20
0.2904462068791189
 10
0.3987877943080127
 20
0.3004375691838077
  0
LWPOLYLINE
  5
A7D0A952
330
A7D0AA42
100
AcDbEntity
  8
TEXT
100
AcDbPolyline
 90
        2
 70
     0
 43
0.0001332181640625
 10
0.3721441614955117
 20
0.3004375691838077
 10
0.3121959876673879
 20
0.2904462068791189
  0
LWPOLYLINE
  5
A7D0A956
330
A7D0AA42
100
AcDbEntity
  8
TEXT
100
AcDbPolyline
 90
        2
 70
     0
 43
0.0001332181640625
 10
0.3987877943080127
 20
0.2604721199650597
 10
0.3255178040736366
 20
0.2704634822697449
  0
LWPOLYLINE
  5
A7D0A95A
330
A7D0AA42
100
AcDbEntity
  8
TEXT
100
AcDbPolyline
 90
        2
 70
     0
 43
0.0001332181640625
 10
0.3721441614955117
 20
0.2604721199650597
 10
0.3121959876673879
 20
0.2704634822697449
  0
LWPOLYLINE
  5
A7D0A95E
330
A7D0AA42
100
AcDbEntity
  8
TEXT
100
AcDbPolyline
 90
        2
 70
     0
 43
0.0001332181640625
 10
0.3721441614955117
 20
0.1738803133244331
 10
0.3121959876673879
 20
0.2338284871525587
  0
LWPOLYLINE
  5
A7D0A962
330
A7D0AA42
100
AcDbEntity
  8
TEXT
100
AcDbPolyline
 90
        3
 70
     0
 43
0.0006660908203125
 10
0.2855523548548868
 20
0.1738803133244331
 10
0.3721441614955117
 20
0.1738803133244331
 10
0.3721441614955117
 20
0.2604721199650597
  0
LWPOLYLINE
  5
A7D0A967
330
A7D0AA42
100
AcDbEntity
  8
TEXT
100
AcDbPolyline
 90
        3
 70
     0
 43
0.0006660908203125
 10
0.2855523548548868
 20
0.1472366805119321
 10
0.3987877943080127
 20
0.1472366805119321
 10
0.3987877943080127
 20
0.2604721199650597
  0
LWPOLYLINE
  5
A7D0A96C
330
A7D0AA42
100
AcDbEntity
  8
TEXT
100
AcDbPolyline
 90
        5
 70
     0
 43
0.0001332181640625
 10
0.2555782679408258
 20
0.2205066707463081
 10
0.2555782679408258
 20
0.2338284871525587
 10
0.2189432728236378
 20
0.2338284871525587
 10
0.2189432728236378
 20
0.2704634822697449
 10
0.2056214564173873
 20
0.2704634822697449
  0
LWPOLYLINE
  5
A7D0A973
330
A7D0AA42
100
AcDbEntity
  8
TEXT
100
AcDbPolyline
 90
        2
 70
     0
 43
0.0006660908203125
 10
0.2455869056361353
 20
0.1738803133244331
 10
0.2455869056361353
 20
0.1472366805119321
  0
LWPOLYLINE
  5
A7D0A977
330
A7D0AA42
100
AcDbEntity
  8
TEXT
100
AcDbPolyline
 90
        2
 70
     0
 43
0.0001332181640625
 10
0.2455869056361353
 20
0.1738803133244331
 10
0.2555782679408258
 20
0.2338284871525587
  0
LWPOLYLINE
  5
A7D0A97B
330
A7D0AA42
100
AcDbEntity
  8
TEXT
100
AcDbPolyline
 90
        2
 70
     0
 43
0.0001332181640625
 10
0.2455869056361353
 20
0.1472366805119321
 10
0.2555782679408258
 20
0.2205066707463081
  0
LWPOLYLINE
  5
A7D0A97F
330
A7D0AA42
100
AcDbEntity
  8
TEXT
100
AcDbPolyline
 90
        5
 70
     0
 43
0.0001332181640625
 10
0.2056214564173873
 20
0.2904462068791189
 10
0.218943272823636
 20
0.2904462068791189
 10
0.218943272823636
 20
0.3270812019963087
 10
0.2555782679408258
 20
0.3270812019963087
 10
0.2555782679408258
 20
0.3404030184025557
  0
LWPOLYLINE
  5
A7D0A986
330
A7D0AA42
100
AcDbEntity
  8
TEXT
100
AcDbPolyline
 90
        5
 70
     0
 43
0.0001332181640625
 10
0.2755609925501981
 20
0.3404030184025557
 10
0.2755609925501981
 20
0.3270812019963087
 10
0.3121959876673879
 20
0.3270812019963087
 10
0.3121959876673879
 20
0.2904462068791189
 10
0.3255178040736366
 20
0.2904462068791189
  0
LWPOLYLINE
  5
A7D0A98D
330
A7D0AA42
100
AcDbEntity
  8
TEXT
100
AcDbPolyline
 90
        2
 70
     0
 43
0.0001332181640625
 10
0.2855523548548868
 20
0.1738803133244331
 10
0.2755609925501981
 20
0.2338284871525587
  0
LWPOLYLINE
  5
A7D0A991
330
A7D0AA42
100
AcDbEntity
  8
TEXT
100
AcDbPolyline
 90
        2
 70
     0
 43
0.0001332181640625
 10
0.2755609925501981
 20
0.2205066707463081
 10
0.2855523548548868
 20
0.1472366805119321
  0
LWPOLYLINE
  5
A7D0A995
330
A7D0AA42
100
AcDbEntity
  8
TEXT
100
AcDbPolyline
 90
        2
 70
     0
 43
0.0006660908203125
 10
0.2855523548548868
 20
0.1738803133244331
 10
0.2855523548548868
 20
0.1472366805119321
  0
LWPOLYLINE
  5
A7D0A999
330
A7D0AA42
100
AcDbEntity
  8
TEXT
100
AcDbPolyline
 90
        5
 70
     0
 43
0.0001332181640625
 10
0.3255178040736366
 20
0.2704634822697449
 10
0.3121959876673879
 20
0.2704634822697449
 10
0.3121959876673879
 20
0.2338284871525587
 10
0.2755609925501981
 20
0.2338284871525587
 10
0.2755609925501981
 20
0.2205066707463081
  0
LWPOLYLINE
  5
A7D0A9A0
330
A7D0AA42
100
AcDbEntity
  8
TEXT
100
AcDbPolyline
 90
        2
 70
     0
 43
0.0006660908203125
 10
0.3721441614955117
 20
0.3004375691838077
 10
0.3987877943080127
 20
0.3004375691838077
  0
LWPOLYLINE
  5
A7D0A9A4
330
A7D0AA42
100
AcDbEntity
  8
TEXT
100
AcDbPolyline
 90
        2
 70
     0
 43
0.0006660908203125
 10
0.3721441614955117
 20
0.2604721199650597
 10
0.3987877943080127
 20
0.2604721199650597
  0
LINE
  5
A7D0A9A8
330
A7D0AA42
100
AcDbEntity
  8
TEXT
100
AcDbLine
 10
0.6689019311560376
 20
0.3493963139801663
 30
0.0
 11
0.8358075851850088
 21
0.3493963139801663
 31
0.0
  0
LINE
  5
A7D0A9A9
330
A7D0AA42
100
AcDbEntity
  8
TEXT
100
AcDbLine
 10
0.7345020674003387
 20
0.3135915923695385
 30
0.0
 11
0.6689019311560376
 21
0.3135915923695385
 31
0.0
  0
LINE
  5
A7D0A9AA
330
A7D0AA42
100
AcDbEntity
  8
TEXT
100
AcDbLine
 10
0.581577141595286
 20
0.1471999756484208
 30
0.0
 11
0.7345020674003387
 21
0.1471999756484208
 31
0.0
  0
LINE
  5
A7D0A9AB
330
A7D0AA42
100
AcDbEntity
  8
TEXT
100
AcDbLine
 10
0.7394424413066183
 20
0.2155569819818601
 30
0.0
 11
0.5815771415952842
 21
0.2155569819818601
 31
0.0
  0
LINE
  5
A7D0A9AC
330
A7D0AA42
100
AcDbEntity
  8
TEXT
100
AcDbLine
 10
0.6636646010417895
 20
0.2494980897439247
 30
0.0
 11
0.7394424413066183
 21
0.2494980897439247
 31
0.0
  0
ARC
  5
A7D0A9AD
330
A7D0AA42
100
AcDbEntity
  8
TEXT
100
AcDbCircle
 10
0.6689019311560385
 20
0.3314939531748542
 30
0.0
 40
0.017902360805315
100
AcDbArc
 50
90.0
 51
270.0
  0
LINE
  5
A7D0A9AE
330
A7D0AA42
100
AcDbEntity
  8
TEXT
100
AcDbLine
 10
0.5815771415952842
 20
0.2155569819818601
 30
0.0
 11
0.581577141595286
 21
0.1471999756484208
 31
0.0
  0
LINE
  5
A7D0A9AF
330
A7D0AA42
100
AcDbEntity
  8
TEXT
100
AcDbLine
 10
0.8358075851850088
 20
0.3493963139801663
 30
0.0
 11
0.8358075851850088
 21
0.2069923669864706
 31
0.0
  0
ARC
  5
A7D0A9B0
330
A7D0AA42
100
AcDbEntity
  8
TEXT
100
AcDbCircle
 10
0.7345020674003396
 20
0.2303957840089779
 30
0.0
 40
0.0831958083605586
100
AcDbArc
 50
270.0
 51
90.0
  0
ARC
  5
A7D0A9B1
330
A7D0AA42
100
AcDbEntity
  8
TEXT
100
AcDbCircle
 10
0.7394424413066192
 20
0.2325275358628942
 30
0.0
 40
0.0169705538810321
100
AcDbArc
 50
270.0
 51
90.0
  0
LWPOLYLINE
  5
A7D0A9B2
330
A7D0AA42
100
AcDbEntity
  8
TEXT
100
AcDbPolyline
 90
        2
 70
     0
 43
0.0006660908203125
 10
0.2455869056361353
 20
0.3870293758244343
 10
0.2455869056361353
 20
0.4136730086369354
  0
LWPOLYLINE
  5
A7D0A9B6
330
A7D0AA42
100
AcDbEntity
  8
TEXT
100
AcDbPolyline
 90
        2
 70
     0
 43
0.0006660908203125
 10
0.2855523548548868
 20
0.3870293758244343
 10
0.2855523548548868
 20
0.4136730086369354
  0
LINE
  5
A7D0A9BA
330
A7D0AA42
100
AcDbEntity
  8
TEXT
100
AcDbLine
 10
0.8393963539403017
 20
0.4136730086369318
 30
0.0
 11
0.6636646010417895
 21
0.4136730086369318
 31
0.0
  0
LINE
  5
A7D0A9BB
330
A7D0AA42
100
AcDbEntity
  8
TEXT
100
AcDbLine
 10
0.8393963539403017
 20
0.44806092623107
 30
0.0
 11
0.8393963539403017
 21
0.4136730086369318
 31
0.0
  0
LINE
  5
A7D0A9BC
330
A7D0AA42
100
AcDbEntity
  8
TEXT
100
AcDbLine
 10
1.029868245960154
 20
0.3128010125238112
 30
0.0
 11
0.9712379249282161
 21
0.4136730086369318
 31
0.0
  0
LINE
  5
A7D0A9BD
330
A7D0AA42
100
AcDbEntity
  8
TEXT
100
AcDbLine
 10
1.088616808766019
 20
0.4136730086369318
 30
0.0
 11
1.029868245960154
 21
0.3128010125238112
 31
0.0
  0
LINE
  5
A7D0A9BE
330
A7D0AA42
100
AcDbEntity
  8
TEXT
100
AcDbLine
 10
1.18554743412576
 20
0.22958781375142
 30
0.0
 11
1.18554743412576
 21
0.4816844863757424
 31
0.0
  0
LINE
  5
A7D0A9BF
330
A7D0AA42
100
AcDbEntity
  8
TEXT
100
AcDbLine
 10
1.21785928826342
 20
0.4136730086369318
 30
0.0
 11
1.21785928826342
 21
0.2128088019045236
 31
0.0
  0
LINE
  5
A7D0A9C0
330
A7D0AA42
100
AcDbEntity
  8
TEXT
100
AcDbLine
 10
1.21785928826342
 20
0.2128088019045236
 30
0.0
 11
1.200865651378819
 21
0.2128088019045236
 31
0.0
  0
LINE
  5
A7D0A9C1
330
A7D0AA42
100
AcDbEntity
  8
TEXT
100
AcDbLine
 10
1.186687007621955
 20
0.1471999756484208
 30
0.0
 11
1.28469034132139
 21
0.1471999756484208
 31
0.0
  0
LINE
  5
A7D0A9C2
330
A7D0AA42
100
AcDbEntity
  8
TEXT
100
AcDbLine
 10
1.020268008963199
 20
0.1671584817534337
 30
0.0
 11
1.117567715056644
 21
0.3315086926887019
 31
0.0
  0
ARC
  5
A7D0A9C3
330
A7D0AA42
100
AcDbEntity
  8
TEXT
100
AcDbCircle
 10
0.9862244490509857
 20
0.1867476979221165
 30
0.0
 40
0.0392772371940762
100
AcDbArc
 50
270.1604552698595
 51
330.0831797321295
  0
LINE
  5
A7D0A9C4
330
A7D0AA42
100
AcDbEntity
  8
TEXT
100
AcDbLine
 10
0.8896941926651145
 20
0.1471999756484208
 30
0.0
 11
0.9863344437401089
 21
0.1474706147467031
 31
0.0
  0
LWPOLYLINE
  5
A7D0A9C5
330
A7D0AA42
100
AcDbEntity
  8
TEXT
100
AcDbPolyline
 90
        6
 70
     1
 43
0.0
 10
0.9322179962402641
 20
0.3493963139801663
 10
0.9019014020200559
 20
0.3493963139801663
 10
0.9019014020200559
 20
0.226285315925272
 42
0.407328721240804
 10
0.9134450531815323
 20
0.2144664012488859
 10
0.9740667522262631
 20
0.2144664012488859
 10
0.9915320926335811
 20
0.2472786302923651
  0
LINE
  5
A7D0A9CD
330
A7D0AA42
100
AcDbEntity
  8
TEXT
100
AcDbLine
 10
1.117567715056644
 20
0.3315086926887019
 30
0.0
 11
1.117567715056644
 21
0.1987513178633455
 31
0.0
  0
ARC
  5
A7D0A9CE
330
A7D0AA42
100
AcDbEntity
  8
TEXT
100
AcDbCircle
 10
1.200865651378817
 20
0.228190608147949
 30
0.0
 40
0.0153818062434269
100
AcDbArc
 50
174.7883570302258
 51
270.0
  0
LWPOLYLINE
  5
A7D0A9CF
330
A7D0AA42
100
AcDbEntity
  8
TEXT
100
AcDbPolyline
 90
        2
 70
     0
 43
0.0
 10
1.117567715056642
 20
0.1987513178633491
 42
0.3318488747599744
 10
1.186687007621955
 20
0.1471999756484208
 42
-6.868794160588311
  0
LINE
  5
A7D0A9D3
330
A7D0AA42
100
AcDbEntity
  8
TEXT
100
AcDbLine
 10
1.342079410310651
 20
0.1471999756484208
 30
0.0
 11
1.409137457092491
 21
0.1471999756484208
 31
0.0
  0
LINE
  5
A7D0A9D4
330
A7D0AA42
100
AcDbEntity
  8
TEXT
100
AcDbLine
 10
1.342079410310651
 20
0.3418425248140564
 30
0.0
 11
1.342079410310651
 21
0.1471999756484208
 31
0.0
  0
LINE
  5
A7D0A9D5
330
A7D0AA42
100
AcDbEntity
  8
TEXT
100
AcDbLine
 10
1.28469034132139
 20
0.3493963139801663
 30
0.0
 11
1.334525621144537
 21
0.3493963139801663
 31
0.0
  0
LINE
  5
A7D0A9D6
330
A7D0AA42
100
AcDbEntity
  8
TEXT
100
AcDbLine
 10
1.28469034132139
 20
0.1471999756484208
 30
0.0
 11
1.28469034132139
 21
0.3493963139801663
 31
0.0
  0
LWPOLYLINE
  5
A7D0A9D7
330
A7D0AA42
100
AcDbEntity
  8
TEXT
100
AcDbPolyline
 90
        2
 70
     0
 43
0.0
 10
1.334525621144535
 20
0.3493963139801663
 42
-0.4142135623731017
 10
1.342079410310649
 20
0.3418425248140564
 42
-0.9999999999999998
  0
LINE
  5
A7D0A9DB
330
A7D0AA42
100
AcDbEntity
  8
TEXT
100
AcDbLine
 10
1.540335621922221
 20
0.3493963139801663
 30
0.0
 11
1.540335621922221
 21
0.2743439079059597
 31
0.0
  0
LINE
  5
A7D0A9DC
330
A7D0AA42
100
AcDbEntity
  8
TEXT
100
AcDbLine
 10
1.409137457092491
 20
0.3493963139801663
 30
0.0
 11
1.463271054013441
 21
0.3493963139801663
 31
0.0
  0
LINE
  5
A7D0A9DD
330
A7D0AA42
100
AcDbEntity
  8
TEXT
100
AcDbLine
 10
1.409137457092491
 20
0.1471999756484208
 30
0.0
 11
1.409137457092491
 21
0.3493963139801663
 31
0.0
  0
LWPOLYLINE
  5
A7D0A9DE
330
A7D0AA42
100
AcDbEntity
  8
TEXT
100
AcDbPolyline
 90
        2
 70
     0
 43
0.0
 10
1.463271054013439
 20
0.3493963139801663
 42
-0.4142135623731017
 10
1.470824843179553
 20
0.3418425248140564
 42
-0.9999999999999998
  0
LWPOLYLINE
  5
A7D0A9E2
330
A7D0AA42
100
AcDbEntity
  8
TEXT
100
AcDbPolyline
 90
        4
 70
     0
 43
0.0
 10
1.470824843179553
 20
0.3418425248140564
 10
1.470824843179553
 20
0.1471999756484208
 10
1.539303126467411
 20
0.1471999756484208
 10
1.539303126467411
 20
0.190690920598859
 42
-1.714843617202739
  0
LINE
  5
A7D0A9E8
330
A7D0AA42
100
AcDbEntity
  8
TEXT
100
AcDbLine
 10
0.8994389587843087
 20
0.4136730086369318
 30
0.0
 11
0.8994389587843087
 21
0.44806092623107
 31
0.0
  0
LINE
  5
A7D0A9E9
330
A7D0AA42
100
AcDbEntity
  8
TEXT
100
AcDbLine
 10
0.9712379249282161
 20
0.4136730086369318
 30
0.0
 11
0.8994389587843087
 21
0.4136730086369318
 31
0.0
  0
LINE
  5
A7D0A9EA
330
A7D0AA42
100
AcDbEntity
  8
TEXT
100
AcDbLine
 10
1.118738721559395
 20
0.4136730086369318
 30
0.0
 11
1.088616808766019
 21
0.4136730086369318
 31
0.0
  0
LINE
  5
A7D0A9EB
330
A7D0AA42
100
AcDbEntity
  8
TEXT
100
AcDbLine
 10
1.118738721559395
 20
0.4816844863757424
 30
0.0
 11
1.118738721559395
 21
0.4136730086369318
 31
0.0
  0
LINE
  5
A7D0A9EC
330
A7D0AA42
100
AcDbEntity
  8
TEXT
100
AcDbLine
 10
1.18554743412576
 20
0.4816844863757424
 30
0.0
 11
1.118738721559395
 21
0.4816844863757424
 31
0.0
  0
LWPOLYLINE
  5
A7D0A9ED
330
A7D0AA42
100
AcDbEntity
  8
TEXT
100
AcDbPolyline
 90
        3
 70
     0
 43
0.0
 10
1.505959193723763
 20
0.4136730086369354
 10
1.387659034907718
 20
0.4136730086369354
 10
1.387659034907718
 20
0.3865055118760394
 42
-1.960274751411753
  0
LINE
  5
A7D0A9F2
330
A7D0AA42
100
AcDbEntity
  8
TEXT
100
AcDbLine
 10
1.351877344194557
 20
0.4136730086369318
 30
0.0
 11
1.21785928826342
 21
0.4136730086369318
 31
0.0
  0
LWPOLYLINE
  5
A7D0A9F3
330
A7D0AA42
100
AcDbEntity
  8
TEXT
100
AcDbPolyline
 90
        2
 70
     0
 43
0.0
 10
1.351877344194557
 20
0.4136730086369354
 42
-0.3328679258950098
 10
1.387659034907718
 20
0.3865055118760394
 42
6.772930709997214
  0
LINE
  5
A7D0A9F7
330
A7D0AA42
100
AcDbEntity
  8
TEXT
100
AcDbLine
 10
1.541740884436929
 20
0.4136730086369318
 30
0.0
 11
1.541740884436929
 21
0.3853504628672879
 31
0.0
  0
LWPOLYLINE
  5
A7D0A9F8
330
A7D0AA42
100
AcDbEntity
  8
TEXT
100
AcDbPolyline
 90
        2
 70
     0
 43
0.0
 10
1.505959193723763
 20
0.4136730086369354
 42
-0.3277054968067132
 10
1.541740884436928
 20
0.3853504628672915
 42
6.667889725900311
  0
LINE
  5
A7D0A9FC
330
A7D0AA42
100
AcDbEntity
  8
TEXT
100
AcDbLine
 10
1.755532732529029
 20
0.3084610300835044
 30
0.0
 11
1.711781961347128
 21
0.3907113060796497
 31
0.0
  0
LINE
  5
A7D0A9FD
330
A7D0AA42
100
AcDbEntity
  8
TEXT
100
AcDbLine
 10
1.755532732529029
 20
0.4136730086369318
 30
0.0
 11
1.755532732529029
 21
0.3084610300835044
 31
0.0
  0
LINE
  5
A7D0A9FE
330
A7D0AA42
100
AcDbEntity
  8
TEXT
100
AcDbLine
 10
1.983216471467398
 20
0.3378076822253937
 30
0.0
 11
1.983216471467398
 21
0.4791372144045325
 31
0.0
  0
LINE
  5
A7D0A9FF
330
A7D0AA42
100
AcDbEntity
  8
TEXT
100
AcDbLine
 10
2.030314630023383
 20
0.4136730086369318
 30
0.0
 11
1.983216471467398
 21
0.3378076822253937
 31
0.0
  0
LINE
  5
A7D0AA00
330
A7D0AA42
100
AcDbEntity
  8
TEXT
100
AcDbLine
 10
2.040749346787306
 20
0.3037797656959582
 30
0.0
 11
2.105306462753011
 21
0.4136730086369318
 31
0.0
  0
LINE
  5
A7D0AA01
330
A7D0AA42
100
AcDbEntity
  8
TEXT
100
AcDbLine
 10
1.919381480244625
 20
0.1471999756484208
 30
0.0
 11
1.983759664563246
 21
0.1471999756484208
 31
0.0
  0
LWPOLYLINE
  5
A7D0AA02
330
A7D0AA42
100
AcDbEntity
  8
TEXT
100
AcDbPolyline
 90
        2
 70
     0
 43
0.0
 10
1.759472409834067
 20
0.190690920598859
 42
-0.2901071551932486
 10
1.716396476966423
 20
0.1471999756484208
 42
-5.328517124445184
  0
ARC
  5
A7D0AA06
330
A7D0AA42
100
AcDbEntity
  8
TEXT
100
AcDbCircle
 10
1.647541895309508
 20
0.321036938980169
 30
0.0
 40
0.028359375
100
AcDbArc
 50
25.78218179591245
 51
90.0
  0
LINE
  5
A7D0AA07
330
A7D0AA42
100
AcDbEntity
  8
TEXT
100
AcDbLine
 10
1.683342970613631
 20
0.3121213405180341
 30
0.0
 11
1.673078210200067
 21
0.3333718800907284
 31
0.0
  0
LINE
  5
A7D0AA08
330
A7D0AA42
100
AcDbEntity
  8
TEXT
100
AcDbLine
 10
1.601054980830248
 20
0.3121213405180341
 30
0.0
 11
1.683342970613631
 21
0.3121213405180341
 31
0.0
  0
LWPOLYLINE
  5
A7D0AA09
330
A7D0AA42
100
AcDbEntity
  8
TEXT
100
AcDbPolyline
 90
        4
 70
     1
 43
0.0
 10
1.69627401189653
 20
0.250163953632446
 10
1.607613693236672
 20
0.250163953632446
 42
0.9999999999999998
 10
1.607613693236672
 20
0.2077654131285853
 10
1.69627401189653
 20
0.2077654131285853
 42
1.0
  0
LWPOLYLINE
  5
A7D0AA0F
330
A7D0AA42
100
AcDbEntity
  8
TEXT
100
AcDbPolyline
 90
        2
 70
     0
 43
0.0
 10
1.582379059335046
 20
0.1471999756484208
 10
1.716396476966423
 20
0.1471999756484208
 42
0.9999999999999998
  0
LINE
  5
A7D0AA13
330
A7D0AA42
100
AcDbEntity
  8
TEXT
100
AcDbLine
 10
1.842733498952062
 20
0.3493963139801663
 30
0.0
 11
1.91938148024462
 21
0.3493963139801663
 31
0.0
  0
LINE
  5
A7D0AA14
330
A7D0AA42
100
AcDbEntity
  8
TEXT
100
AcDbLine
 10
1.91938148024462
 20
0.3493963139801663
 30
0.0
 11
1.919381480244625
 21
0.1471999756484208
 31
0.0
  0
ARC
  5
A7D0AA15
330
A7D0AA42
100
AcDbEntity
  8
TEXT
100
AcDbCircle
 10
1.84273349895206
 20
0.3244904386975036
 30
0.0
 40
0.0249058752826653
100
AcDbArc
 50
89.99971217465335
 51
179.9999999999985
  0
LINE
  5
A7D0AA16
330
A7D0AA42
100
AcDbEntity
  8
TEXT
100
AcDbLine
 10
1.817827623669403
 20
0.1471999756484208
 30
0.0
 11
1.817827623669398
 21
0.3244904810798892
 31
0.0
  0
LWPOLYLINE
  5
A7D0AA17
330
A7D0AA42
100
AcDbEntity
  8
TEXT
100
AcDbPolyline
 90
        2
 70
     0
 43
0.0
 10
1.759472409834067
 20
0.1471999756484208
 10
1.817827623669401
 20
0.1471999756484208
  0
LWPOLYLINE
  5
A7D0AA1B
330
A7D0AA42
100
AcDbEntity
  8
TEXT
100
AcDbPolyline
 90
        2
 70
     0
 43
0.0
 10
1.759472409834067
 20
0.190690920598859
 10
1.759472409834067
 20
0.1471999756484208
  0
LINE
  5
A7D0AA1F
330
A7D0AA42
100
AcDbEntity
  8
TEXT
100
AcDbLine
 10
2.136241570150916
 20
0.1471999756484208
 30
0.0
 11
2.040749346787306
 21
0.3037797656959582
 31
0.0
  0
LINE
  5
A7D0AA20
330
A7D0AA42
100
AcDbEntity
  8
TEXT
100
AcDbLine
 10
2.05966319777471
 20
0.1471999756484208
 30
0.0
 11
2.136241570150916
 21
0.1471999756484208
 31
0.0
  0
LINE
  5
A7D0AA21
330
A7D0AA42
100
AcDbEntity
  8
TEXT
100
AcDbLine
 10
1.983759664563246
 20
0.278779544124601
 30
0.0
 11
2.05966319777471
 21
0.1471999756484208
 31
0.0
  0
LINE
  5
A7D0AA22
330
A7D0AA42
100
AcDbEntity
  8
TEXT
100
AcDbLine
 10
1.983759664563246
 20
0.1471999756484208
 30
0.0
 11
1.983759664563246
 21
0.278779544124601
 31
0.0
  0
LINE
  5
A7D0AA23
330
A7D0AA42
100
AcDbEntity
  8
TEXT
100
AcDbLine
 10
1.983216471467398
 20
0.4791372144045325
 30
0.0
 11
1.914901592918125
 21
0.4791372144045325
 31
0.0
  0
ARC
  5
A7D0AA24
330
A7D0AA42
100
AcDbEntity
  8
TEXT
100
AcDbCircle
 10
1.674545853876919
 20
0.3720894415160294
 30
0.0
 40
0.0416329381542859
100
AcDbArc
 50
26.56974201007528
 51
87.20939649401342
  0
LINE
  5
A7D0AA25
330
A7D0AA42
100
AcDbEntity
  8
TEXT
100
AcDbLine
 10
1.81942963882853
 20
0.4136730086369318
 30
0.0
 11
1.755532732529029
 21
0.4136730086369318
 31
0.0
  0
LINE
  5
A7D0AA26
330
A7D0AA42
100
AcDbEntity
  8
TEXT
100
AcDbLine
 10
1.81942963882853
 20
0.3861253587760571
 30
0.0
 11
1.81942963882853
 21
0.4136730086369318
 31
0.0
  0
ARC
  5
A7D0AA27
330
A7D0AA42
100
AcDbEntity
  8
TEXT
100
AcDbCircle
 10
1.850622455891638
 20
0.382427281354667
 30
0.0
 40
0.0314112657011332
100
AcDbArc
 50
95.88484768694724
 51
173.2388340632136
  0
LINE
  5
A7D0AA28
330
A7D0AA42
100
AcDbEntity
  8
TEXT
100
AcDbLine
 10
1.91490159291812
 20
0.4136730086369318
 30
0.0
 11
1.847401875268603
 21
0.4136730086369318
 31
0.0
  0
LINE
  5
A7D0AA29
330
A7D0AA42
100
AcDbEntity
  8
TEXT
100
AcDbLine
 10
1.914901592918125
 20
0.4791372144045325
 30
0.0
 11
1.91490159291812
 21
0.4136730086369318
 31
0.0
  0
LINE
  5
A7D0AA2A
330
A7D0AA42
100
AcDbEntity
  8
TEXT
100
AcDbLine
 10
2.105306462753011
 20
0.4136730086369318
 30
0.0
 11
2.030314630023385
 21
0.4136730086369318
 31
0.0
  0
ENDSEC
  0
SECTION
  2
OBJECTS
  0
DICTIONARY
  5
A7D0AA36
330
0
100
AcDbDictionary
  3
ACAD_GROUP
350
A7D0AA37
  3
ACAD_LAYOUT
350
A7D0AA5C
  3
ACAD_MLINESTYLE
350
A7D0AA38
  3
ACAD_PLOTSETTINGS
350
A7D0AA5D
  3
ACAD_PLOTSTYLENAME
350
A7D0AA5A
  3
ACDBHEADERROUNDTRIPXREC
350
A7D0AA67
  3
ACDBVARIABLEDICTIONARY
350
A7D0AA64
  0
DICTIONARY
  5
A7D0AA89
330
A7D0AA42
100
AcDbDictionary
280
     1
  3
ACAD_LAYOUTSELFREF
360
A7D0AA8A
  0
DICTIONARY
  5
A7D0AA87
330
A7D0AA3F
100
AcDbDictionary
280
     1
  3
ACAD_LAYOUTSELFREF
360
A7D0AA88
  0
DICTIONARY
  5
A7D0AA37
102
{ACAD_REACTORS
330
A7D0AA36
102
}
330
A7D0AA36
100
AcDbDictionary
  0
DICTIONARY
  5
A7D0AA5C
102
{ACAD_REACTORS
330
A7D0AA36
102
}
330
A7D0AA36
100
AcDbDictionary
  0
DICTIONARY
  5
A7D0AA38
102
{ACAD_REACTORS
330
A7D0AA36
102
}
330
A7D0AA36
100
AcDbDictionary
  3
STANDARD
350
A7D0AA45
  0
DICTIONARY
  5
A7D0AA5D
102
{ACAD_REACTORS
330
A7D0AA36
102
}
330
A7D0AA36
100
AcDbDictionary
  0
ACDBDICTIONARYWDFLT
  5
A7D0AA5A
102
{ACAD_REACTORS
330
A7D0AA36
102
}
330
A7D0AA36
100
AcDbDictionary
281
     1
  3
Normal
350
A7D0AA5B
100
AcDbDictionaryWithDefault
340
A7D0AA5B
  0
DICTIONARY
  5
A7D0AA67
102
{ACAD_REACTORS
330
A7D0AA36
102
}
330
A7D0AA36
100
AcDbDictionary
  3
CEPSNTYPE
350
A7D0AA71
  3
FINGERPRINTGUID
350
A7D0AA72
  3
HYPERLINKBASE
350
A7D0AA6A
  3
INSUNITS
350
A7D0AA70
  3
LAYOUTDICT
350
A7D0AA6C
  3
LWETCUNION
350
A7D0AA6F
  3
PLOTSETDICT
350
A7D0AA6D
  3
PLOTSTYLNAMDICT
350
A7D0AA6E
  3
PSVPSCALE
350
A7D0AA74
  3
PUCSBASE
350
A7D0AA77
  3
PUCSORGBACK
350
A7D0AA7D
  3
PUCSORGBOTTOM
350
A7D0AA79
  3
PUCSORGFRONT
350
A7D0AA7C
  3
PUCSORGLEFT
350
A7D0AA7A
  3
PUCSORGRIGHT
350
A7D0AA7B
  3
PUCSORGTOP
350
A7D0AA78
  3
PUCSORTHOREF
350
A7D0AA75
  3
PUCSORTHOVIEW
350
A7D0AA76
  3
STYLESHEET
350
A7D0AA6B
  3
TSTACKALIGN
350
A7D0AA68
  3
TSTACKSIZE
350
A7D0AA69
  3
UCSBASE
350
A7D0AA80
  3
UCSORGBACK
350
A7D0AA86
  3
UCSORGBOTTOM
350
A7D0AA82
  3
UCSORGFRONT
350
A7D0AA85
  3
UCSORGLEFT
350
A7D0AA83
  3
UCSORGRIGHT
350
A7D0AA84
  3
UCSORGTOP
350
A7D0AA81
  3
UCSORTHOREF
350
A7D0AA7E
  3
UCSORTHOVIEW
350
A7D0AA7F
  3
VERSIONGUID
350
A7D0AA73
  0
DICTIONARY
  5
A7D0AA64
102
{ACAD_REACTORS
330
A7D0AA36
102
}
330
A7D0AA36
100
AcDbDictionary
  3
DIMASSOC
350
A7D0AA65
  0
XRECORD
  5
A7D0AA8A
102
{ACAD_REACTORS
330
A7D0AA89
102
}
330
A7D0AA89
100
AcDbXrecord
340
A7D0AA42
  0
XRECORD
  5
A7D0AA88
102
{ACAD_REACTORS
330
A7D0AA87
102
}
330
A7D0AA87
100
AcDbXrecord
340
A7D0AA3F
  0
MLINESTYLE
  5
A7D0AA45
102
{ACAD_REACTORS
330
A7D0AA38
102
}
330
A7D0AA38
100
AcDbMlineStyle
  2
STANDARD
 70
     0
  3

 62
     0
 51
90.0
 52
90.0
 71
     2
 49
0.5
 62
   256
  6
BYLAYER
 49
-0.5
 62
   256
  6
BYLAYER
  0
ACDBPLACEHOLDER
  5
A7D0AA5B
102
{ACAD_REACTORS
330
A7D0AA5A
102
}
330
A7D0AA5A
100
AcDbPlaceHolder
280
     0
  0
XRECORD
  5
A7D0AA71
102
{ACAD_REACTORS
330
A7D0AA67
102
}
330
A7D0AA67
100
AcDbXrecord
 90
        0
  0
XRECORD
  5
A7D0AA72
102
{ACAD_REACTORS
330
A7D0AA67
102
}
330
A7D0AA67
100
AcDbXrecord
  1
{95BF5FE0-8DB3-11D6-88E6-0090279574E7}
  0
XRECORD
  5
A7D0AA6A
102
{ACAD_REACTORS
330
A7D0AA67
102
}
330
A7D0AA67
100
AcDbXrecord
  1

  0
XRECORD
  5
A7D0AA70
102
{ACAD_REACTORS
330
A7D0AA67
102
}
330
A7D0AA67
100
AcDbXrecord
 90
        0
  0
XRECORD
  5
A7D0AA6C
102
{ACAD_REACTORS
330
A7D0AA67
102
}
330
A7D0AA67
100
AcDbXrecord
340
A7D0AA5C
  0
XRECORD
  5
A7D0AA6F
102
{ACAD_REACTORS
330
A7D0AA67
102
}
330
A7D0AA67
100
AcDbXrecord
 90
    14877
  0
XRECORD
  5
A7D0AA6D
102
{ACAD_REACTORS
330
A7D0AA67
102
}
330
A7D0AA67
100
AcDbXrecord
340
A7D0AA5D
  0
XRECORD
  5
A7D0AA6E
102
{ACAD_REACTORS
330
A7D0AA67
102
}
330
A7D0AA67
100
AcDbXrecord
340
A7D0AA5A
  0
XRECORD
  5
A7D0AA74
102
{ACAD_REACTORS
330
A7D0AA67
102
}
330
A7D0AA67
100
AcDbXrecord
 40
0.0
  0
XRECORD
  5
A7D0AA77
102
{ACAD_REACTORS
330
A7D0AA67
102
}
330
A7D0AA67
100
AcDbXrecord
340
0
  0
XRECORD
  5
A7D0AA7D
102
{ACAD_REACTORS
330
A7D0AA67
102
}
330
A7D0AA67
100
AcDbXrecord
 10
0.0
 20
0.0
 30
0.0
  0
XRECORD
  5
A7D0AA79
102
{ACAD_REACTORS
330
A7D0AA67
102
}
330
A7D0AA67
100
AcDbXrecord
 10
0.0
 20
0.0
 30
0.0
  0
XRECORD
  5
A7D0AA7C
102
{ACAD_REACTORS
330
A7D0AA67
102
}
330
A7D0AA67
100
AcDbXrecord
 10
0.0
 20
0.0
 30
0.0
  0
XRECORD
  5
A7D0AA7A
102
{ACAD_REACTORS
330
A7D0AA67
102
}
330
A7D0AA67
100
AcDbXrecord
 10
0.0
 20
0.0
 30
0.0
  0
XRECORD
  5
A7D0AA7B
102
{ACAD_REACTORS
330
A7D0AA67
102
}
330
A7D0AA67
100
AcDbXrecord
 10
0.0
 20
0.0
 30
0.0
  0
XRECORD
  5
A7D0AA78
102
{ACAD_REACTORS
330
A7D0AA67
102
}
330
A7D0AA67
100
AcDbXrecord
 10
0.0
 20
0.0
 30
0.0
  0
XRECORD
  5
A7D0AA75
102
{ACAD_REACTORS
330
A7D0AA67
102
}
330
A7D0AA67
100
AcDbXrecord
340
0
  0
XRECORD
  5
A7D0AA76
102
{ACAD_REACTORS
330
A7D0AA67
102
}
330
A7D0AA67
100
AcDbXrecord
 70
     0
  0
XRECORD
  5
A7D0AA6B
102
{ACAD_REACTORS
330
A7D0AA67
102
}
330
A7D0AA67
100
AcDbXrecord
  1

  0
XRECORD
  5
A7D0AA68
102
{ACAD_REACTORS
330
A7D0AA67
102
}
330
A7D0AA67
100
AcDbXrecord
 90
        1
  0
XRECORD
  5
A7D0AA69
102
{ACAD_REACTORS
330
A7D0AA67
102
}
330
A7D0AA67
100
AcDbXrecord
 90
       70
  0
XRECORD
  5
A7D0AA80
102
{ACAD_REACTORS
330
A7D0AA67
102
}
330
A7D0AA67
100
AcDbXrecord
340
0
  0
XRECORD
  5
A7D0AA86
102
{ACAD_REACTORS
330
A7D0AA67
102
}
330
A7D0AA67
100
AcDbXrecord
 10
0.0
 20
0.0
 30
0.0
  0
XRECORD
  5
A7D0AA82
102
{ACAD_REACTORS
330
A7D0AA67
102
}
330
A7D0AA67
100
AcDbXrecord
 10
0.0
 20
0.0
 30
0.0
  0
XRECORD
  5
A7D0AA85
102
{ACAD_REACTORS
330
A7D0AA67
102
}
330
A7D0AA67
100
AcDbXrecord
 10
0.0
 20
0.0
 30
0.0
  0
XRECORD
  5
A7D0AA83
102
{ACAD_REACTORS
330
A7D0AA67
102
}
330
A7D0AA67
100
AcDbXrecord
 10
0.0
 20
0.0
 30
0.0
  0
XRECORD
  5
A7D0AA84
102
{ACAD_REACTORS
330
A7D0AA67
102
}
330
A7D0AA67
100
AcDbXrecord
 10
0.0
 20
0.0
 30
0.0
  0
XRECORD
  5
A7D0AA81
102
{ACAD_REACTORS
330
A7D0AA67
102
}
330
A7D0AA67
100
AcDbXrecord
 10
0.0
 20
0.0
 30
0.0
  0
XRECORD
  5
A7D0AA7E
102
{ACAD_REACTORS
330
A7D0AA67
102
}
330
A7D0AA67
100
AcDbXrecord
340
0
  0
XRECORD
  5
A7D0AA7F
102
{ACAD_REACTORS
330
A7D0AA67
102
}
330
A7D0AA67
100
AcDbXrecord
 70
     0
  0
XRECORD
  5
A7D0AA73
102
{ACAD_REACTORS
330
A7D0AA67
102
}
330
A7D0AA67
100
AcDbXrecord
  1
{95BF5FE2-8DB3-11D6-88E6-0090279574E7}
  0
DICTIONARYVAR
  5
A7D0AA65
102
{ACAD_REACTORS
330
A7D0AA64
102
}
330
A7D0AA64
100
DictionaryVariables
280
     0
  1
1
  0
ENDSEC
  0
EOF
