  0
SECTION
  2
HEADER
  9
$ACADVER
  1
AC1014
  9
$ACADMAINTVER
 70
     9
  9
$DWGCODEPAGE
  3
ANSI_1252
  9
$INSBASE
 10
1.828125
 20
1.21875
 30
0.0
  9
$EXTMIN
 10
0.0851434207728567
 20
0.4951063959174185
 30
0.0
  9
$EXTMAX
 10
3.570362742519984
 20
1.71875
 30
0.0
  9
$LIMMIN
 10
0.0
 20
0.0
  9
$LIMMAX
 10
18.0
 20
12.0
  9
$ORTHOMODE
 70
     1
  9
$REGENMODE
 70
     1
  9
$FILLMODE
 70
     1
  9
$QTEXTMODE
 70
     0
  9
$MIRRTEXT
 70
     0
  9
$DRAGMODE
 70
     2
  9
$LTSCALE
 40
1.0
  9
$OSMODE
 70
    39
  9
$ATTMODE
 70
     1
  9
$TEXTSIZE
 40
0.125
  9
$TRACEWID
 40
0.05
  9
$TEXTSTYLE
  7
ROMANS
  9
$CLAYER
  8
0
  9
$CELTYPE
  6
BYLAYER
  9
$CECOLOR
 62
   256
  9
$CELTSCALE
 40
1.0
  9
$DELOBJ
 70
     1
  9
$DISPSILH
 70
     1
  9
$DIMSCALE
 40
1.0
  9
$DIMASZ
 40
0.125
  9
$DIMEXO
 40
0.125
  9
$DIMDLI
 40
0.375
  9
$DIMRND
 40
0.0
  9
$DIMDLE
 40
0.0
  9
$DIMEXE
 40
0.125
  9
$DIMTP
 40
0.0
  9
$DIMTM
 40
0.0
  9
$DIMTXT
 40
0.125
  9
$DIMCEN
 40
-0.125
  9
$DIMTSZ
 40
0.0
  9
$DIMTOL
 70
     0
  9
$DIMLIM
 70
     0
  9
$DIMTIH
 70
     1
  9
$DIMTOH
 70
     1
  9
$DIMSE1
 70
     0
  9
$DIMSE2
 70
     0
  9
$DIMTAD
 70
     0
  9
$DIMZIN
 70
     4
  9
$DIMBLK
  1

  9
$DIMASO
 70
     1
  9
$DIMSHO
 70
     1
  9
$DIMPOST
  1

  9
$DIMAPOST
  1

  9
$DIMALT
 70
     0
  9
$DIMALTD
 70
     2
  9
$DIMALTF
 40
25.4
  9
$DIMLFAC
 40
1.0
  9
$DIMTOFL
 70
     0
  9
$DIMTVP
 40
0.0
  9
$DIMTIX
 70
     1
  9
$DIMSOXD
 70
     0
  9
$DIMSAH
 70
     0
  9
$DIMBLK1
  1

  9
$DIMBLK2
  1

  9
$DIMSTYLE
  2
STANDARD
  9
$DIMCLRD
 70
     0
  9
$DIMCLRE
 70
     0
  9
$DIMCLRT
 70
     0
  9
$DIMTFAC
 40
1.0
  9
$DIMGAP
 40
0.09
  9
$DIMJUST
 70
     0
  9
$DIMSD1
 70
     0
  9
$DIMSD2
 70
     0
  9
$DIMTOLJ
 70
     1
  9
$DIMTZIN
 70
     4
  9
$DIMALTZ
 70
     0
  9
$DIMALTTZ
 70
     0
  9
$DIMFIT
 70
     3
  9
$DIMUPT
 70
     0
  9
$DIMUNIT
 70
     2
  9
$DIMDEC
 70
     3
  9
$DIMTDEC
 70
     3
  9
$DIMALTU
 70
     2
  9
$DIMALTTD
 70
     2
  9
$DIMTXSTY
  7
ROMANS
  9
$DIMAUNIT
 70
     0
  9
$LUNITS
 70
     2
  9
$LUPREC
 70
     3
  9
$SKETCHINC
 40
0.1
  9
$FILLETRAD
 40
0.03125
  9
$AUNITS
 70
     0
  9
$AUPREC
 70
     0
  9
$MENU
  1
ACAD
  9
$ELEVATION
 40
0.0
  9
$PELEVATION
 40
0.0
  9
$THICKNESS
 40
0.0
  9
$LIMCHECK
 70
     0
  9
$BLIPMODE
 70
     0
  9
$CHAMFERA
 40
0.0
  9
$CHAMFERB
 40
0.0
  9
$CHAMFERC
 40
0.0
  9
$CHAMFERD
 40
0.0
  9
$SKPOLY
 70
     0
  9
$TDCREATE
 40
2448993.439705902
  9
$TDUPDATE
 40
2452458.293346087
  9
$TDINDWG
 40
0.0005557639
  9
$TDUSRTIMER
 40
0.0005557639
  9
$USRTIMER
 70
     1
  9
$ANGBASE
 50
0.0
  9
$ANGDIR
 70
     0
  9
$PDMODE
 70
     0
  9
$PDSIZE
 40
0.0
  9
$PLINEWID
 40
0.0
  9
$COORDS
 70
     2
  9
$SPLFRAME
 70
     0
  9
$SPLINETYPE
 70
     6
  9
$SPLINESEGS
 70
     8
  9
$ATTDIA
 70
     0
  9
$ATTREQ
 70
     1
  9
$HANDLING
 70
 22529
  9
$HANDSEED
  5
53E85D97
  9
$SURFTAB1
 70
     6
  9
$SURFTAB2
 70
     6
  9
$SURFTYPE
 70
     6
  9
$SURFU
 70
     6
  9
$SURFV
 70
     6
  9
$UCSNAME
  2

  9
$UCSORG
 10
0.0
 20
0.0
 30
0.0
  9
$UCSXDIR
 10
1.0
 20
0.0
 30
0.0
  9
$UCSYDIR
 10
0.0
 20
1.0
 30
0.0
  9
$PUCSNAME
  2

  9
$PUCSORG
 10
0.0
 20
0.0
 30
0.0
  9
$PUCSXDIR
 10
1.0
 20
0.0
 30
0.0
  9
$PUCSYDIR
 10
0.0
 20
1.0
 30
0.0
  9
$USERI1
 70
     0
  9
$USERI2
 70
     0
  9
$USERI3
 70
     0
  9
$USERI4
 70
     0
  9
$USERI5
 70
     0
  9
$USERR1
 40
0.0
  9
$USERR2
 40
0.0
  9
$USERR3
 40
0.0
  9
$USERR4
 40
0.0
  9
$USERR5
 40
0.0
  9
$WORLDVIEW
 70
     1
  9
$SHADEDGE
 70
     3
  9
$SHADEDIF
 70
    70
  9
$TILEMODE
 70
     1
  9
$MAXACTVP
 70
    16
  9
$PINSBASE
 10
0.0
 20
0.0
 30
0.0
  9
$PLIMCHECK
 70
     0
  9
$PEXTMIN
 10
1.000000000000000E+20
 20
1.000000000000000E+20
 30
1.000000000000000E+20
  9
$PEXTMAX
 10
-1.000000000000000E+20
 20
-1.000000000000000E+20
 30
-1.000000000000000E+20
  9
$PLIMMIN
 10
0.0
 20
0.0
  9
$PLIMMAX
 10
12.0
 20
9.0
  9
$UNITMODE
 70
     0
  9
$VISRETAIN
 70
     0
  9
$PLINEGEN
 70
     1
  9
$PSLTSCALE
 70
     0
  9
$TREEDEPTH
 70
  3020
  9
$PICKSTYLE
 70
     1
  9
$CMLSTYLE
  2
STANDARD
  9
$CMLJUST
 70
     0
  9
$CMLSCALE
 40
1.0
  9
$PROXYGRAPHICS
 70
     1
  9
$MEASUREMENT
 70
     0
  0
ENDSEC
  0
SECTION
  2
CLASSES
  0
CLASS
  1
LWPOLYLINE
  2
AcDbPolyline
  3
AutoCAD 2000
 90
        0
280
     0
281
     1
  0
CLASS
  1
ACDBDICTIONARYWDFLT
  2
AcDbDictionaryWithDefault
  3
AutoCAD 2000
 90
        0
280
     0
281
     0
  0
CLASS
  1
ACDBPLACEHOLDER
  2
AcDbPlaceHolder
  3
AutoCAD 2000
 90
        0
280
     0
281
     0
  0
CLASS
  1
LAYOUT
  2
AcDbLayout
  3
AutoCAD 2000
 90
        0
280
     0
281
     0
  0
CLASS
  1
DICTIONARYVAR
  2
AcDbDictionaryVar
  3
AutoCAD 2000
 90
        0
280
     0
281
     0
  0
CLASS
  1
LONG_TRANSACTION
  2
AcDbLongTransaction
  3
AutoCAD 2000
 90
        0
280
     0
281
     0
  0
CLASS
  1
LWPOLYLINE
  2
AcDbPolyline
  3
AutoCAD 2000
 90
        0
280
     0
281
     1
  0
CLASS
  1
HATCH
  2
AcDbHatch
  3
AutoCAD 2000
 90
        0
280
     0
281
     1
  0
CLASS
  1
XRECORD
  2
AcDbXrecord
  3
AutoCAD 2000
 90
        0
280
     0
281
     0
  0
ENDSEC
  0
SECTION
  2
TABLES
  0
TABLE
  2
VPORT
  5
53E85D3E
330
0
100
AcDbSymbolTable
 70
     2
  0
VPORT
  5
53E85D72
330
53E85D3E
100
AcDbSymbolTableRecord
100
AcDbViewportTableRecord
  2
*ACTIVE
 70
     0
 10
0.0
 20
0.0
 11
1.0
 21
1.0
 12
4.804323993497238
 22
1.106964133571558
 13
0.0
 23
0.0
 14
0.015625
 24
0.015625
 15
0.0
 25
0.0
 16
0.0
 26
0.0
 36
1.0
 17
0.0
 27
0.0
 37
0.0
 40
2.282647215150728
 41
4.320930232558139
 42
50.0
 43
0.0
 44
0.0
 50
0.0
 51
0.0
 71
     0
 72
  2000
 73
     1
 74
     0
 75
     1
 76
     0
 77
     0
 78
     0
  0
ENDTAB
  0
TABLE
  2
LTYPE
  5
53E85D3B
330
0
100
AcDbSymbolTable
 70
     1
  0
LTYPE
  5
53E85D48
330
53E85D3B
100
AcDbSymbolTableRecord
100
AcDbLinetypeTableRecord
  2
BYBLOCK
 70
     0
  3

 72
    65
 73
     0
 40
0.0
  0
LTYPE
  5
53E85D49
330
53E85D3B
100
AcDbSymbolTableRecord
100
AcDbLinetypeTableRecord
  2
BYLAYER
 70
     0
  3

 72
    65
 73
     0
 40
0.0
  0
LTYPE
  5
53E85D4A
330
53E85D3B
100
AcDbSymbolTableRecord
100
AcDbLinetypeTableRecord
  2
CONTINUOUS
 70
     0
  3
Solid line
 72
    65
 73
     0
 40
0.0
  0
ENDTAB
  0
TABLE
  2
LAYER
  5
53E85D38
330
0
100
AcDbSymbolTable
 70
     2
  0
LAYER
  5
53E85D45
330
53E85D38
100
AcDbSymbolTableRecord
100
AcDbLayerTableRecord
  2
0
 70
     0
 62
     7
  6
CONTINUOUS
  0
LAYER
  5
53E85D55
330
53E85D38
100
AcDbSymbolTableRecord
100
AcDbLayerTableRecord
  2
TEXT
 70
     0
 62
     3
  6
CONTINUOUS
  0
ENDTAB
  0
TABLE
  2
STYLE
  5
53E85D39
330
0
100
AcDbSymbolTable
 70
     3
  0
STYLE
  5
53E85D46
330
53E85D39
100
AcDbSymbolTableRecord
100
AcDbTextStyleTableRecord
  2
STANDARD
 70
     0
 40
0.0
 41
1.0
 50
0.0
 71
     0
 42
0.3125
  3
txt
  4

  0
STYLE
  5
53E85D52
330
53E85D39
100
AcDbSymbolTableRecord
100
AcDbTextStyleTableRecord
  2
ITALICC
 70
     0
 40
0.0
 41
1.0
 50
0.0
 71
     0
 42
0.125
  3
italicc
  4

  0
STYLE
  5
53E85D62
330
53E85D39
100
AcDbSymbolTableRecord
100
AcDbTextStyleTableRecord
  2
ROMANS
 70
     0
 40
0.0
 41
1.0
 50
0.0
 71
     0
 42
0.125
  3
romans.shx
  4

  0
ENDTAB
  0
TABLE
  2
VIEW
  5
53E85D3C
330
0
100
AcDbSymbolTable
 70
     0
  0
ENDTAB
  0
TABLE
  2
UCS
  5
53E85D3D
330
0
100
AcDbSymbolTable
 70
     0
  0
ENDTAB
  0
TABLE
  2
APPID
  5
53E85D3F
330
0
100
AcDbSymbolTable
 70
     1
  0
APPID
  5
53E85D47
330
53E85D3F
100
AcDbSymbolTableRecord
100
AcDbRegAppTableRecord
  2
ACAD
 70
     0
  0
ENDTAB
  0
TABLE
  2
DIMSTYLE
  5
53E85D40
330
0
100
AcDbSymbolTable
 70
     1
  0
DIMSTYLE
105
53E85D5A
330
53E85D40
100
AcDbSymbolTableRecord
100
AcDbDimStyleTableRecord
  2
STANDARD
 70
     0
  3

  4

  5

  6

  7

 40
1.0
 41
0.125
 42
0.125
 43
0.375
 44
0.125
 45
0.0
 46
0.0
 47
0.0
 48
0.0
140
0.125
141
-0.125
142
0.0
143
25.4
144
1.0
145
0.0
146
1.0
147
0.09
 71
     0
 72
     0
 73
     1
 74
     1
 75
     0
 76
     0
 77
     0
 78
     4
170
     0
171
     2
172
     0
173
     0
174
     1
175
     0
176
     0
177
     0
178
     0
270
     2
271
     3
272
     3
273
     2
274
     2
340
53E85D62
275
     0
280
     0
281
     0
282
     0
283
     1
284
     4
285
     0
286
     0
287
     3
288
     0
  0
ENDTAB
  0
TABLE
  2
BLOCK_RECORD
  5
53E85D37
330
0
100
AcDbSymbolTable
 70
     0
  0
BLOCK_RECORD
  5
53E85D4E
102
{ACAD_XDICTIONARY
360
53E85D95
102
}
330
53E85D37
100
AcDbSymbolTableRecord
100
AcDbBlockTableRecord
  2
*MODEL_SPACE
  0
BLOCK_RECORD
  5
53E85D4B
102
{ACAD_XDICTIONARY
360
53E85D93
102
}
330
53E85D37
100
AcDbSymbolTableRecord
100
AcDbBlockTableRecord
  2
*PAPER_SPACE
  0
ENDTAB
  0
ENDSEC
  0
SECTION
  2
BLOCKS
  0
BLOCK
  5
53E85D58
330
53E85D4E
100
AcDbEntity
  8
0
100
AcDbBlockBegin
  2
*MODEL_SPACE
 70
     0
 10
0.0
 20
0.0
 30
0.0
  3
*MODEL_SPACE
  1

  0
ENDBLK
  5
53E85D59
330
53E85D4E
100
AcDbEntity
  8
0
100
AcDbBlockEnd
  0
BLOCK
  5
53E85D56
330
53E85D4B
100
AcDbEntity
 67
     1
  8
0
100
AcDbBlockBegin
  2
*PAPER_SPACE
 70
     0
 10
0.0
 20
0.0
 30
0.0
  3
*PAPER_SPACE
  1

  0
ENDBLK
  5
53E85D57
330
53E85D4B
100
AcDbEntity
 67
     1
  8
0
100
AcDbBlockEnd
  0
ENDSEC
  0
SECTION
  2
ENTITIES
  0
LWPOLYLINE
  5
53E8497B
330
53E85D4E
100
AcDbEntity
  8
0
100
AcDbPolyline
 90
        4
 70
     1
 43
0.0
 10
2.328125
 20
1.21875
 10
2.328125
 20
1.71875
 10
1.328125
 20
1.71875
 10
1.328125
 20
1.21875
  0
TEXT
  5
53E85BF9
330
53E85D4E
100
AcDbEntity
  8
TEXT
100
AcDbText
 10
1.075148809523809
 20
0.953125
 30
0.0
 40
0.125
  1
PART #110050
  7
ITALICC
 72
     1
 11
1.828125
 21
0.953125
 31
0.0
100
AcDbText
  0
TEXT
  5
53E85BFA
330
53E85D4E
100
AcDbEntity
  8
TEXT
100
AcDbText
 10
2.24143015825032
 20
0.5062023573276249
 30
0.0
 40
0.0522247191011236
  1
Phone  1-800-328-2495
 41
1.272321428571429
 72
     5
 11
3.570362742519984
 21
0.5062023573276249
 31
0.0
100
AcDbText
  0
TEXT
  5
53E85BFB
330
53E85D4E
100
AcDbEntity
  8
TEXT
100
AcDbText
 10
2.24143015825032
 20
0.7859776382265014
 30
0.0
 40
0.0522247191011236
  1
Stylmark  Incorporated
 41
1.221428571428573
 72
     5
 11
3.570362742519984
 21
0.7859776382265014
 31
0.0
100
AcDbText
  0
TEXT
  5
53E85BFC
330
53E85D4E
100
AcDbEntity
  8
TEXT
100
AcDbText
 10
2.24143015825032
 20
0.6927192112602092
 30
0.0
 40
0.0522247191011236
  1
6536 Main St. N.E. * P.O. Box 32008
 41
0.8388932496075366
 72
     5
 11
3.570362742519984
 21
0.6927192112602092
 31
0.0
100
AcDbText
  0
TEXT
  5
53E85BFD
330
53E85D4E
100
AcDbEntity
  8
TEXT
100
AcDbText
 10
2.24143015825032
 20
0.5994607842939171
 30
0.0
 40
0.0522247191011236
  1
Minneapolis, MN 55432-0008
 41
1.11444212721585
 72
     5
 11
3.570362742519984
 21
0.5994607842939171
 31
0.0
100
AcDbText
  0
LWPOLYLINE
  5
53E85BFE
330
53E85D4E
100
AcDbEntity
  8
TEXT
100
AcDbPolyline
 90
        3
 70
     0
 43
0.0006660908203125
 10
0.085476466183013
 20
0.6198471199650597
 10
0.085476466183013
 20
0.5066116805119321
 10
0.1987119056361353
 20
0.5066116805119321
  0
LWPOLYLINE
  5
53E85C03
330
53E85D4E
100
AcDbEntity
  8
TEXT
100
AcDbPolyline
 90
        3
 70
     0
 43
0.0006660908203125
 10
0.1121200989955104
 20
0.6198471199650597
 10
0.1121200989955104
 20
0.5332553133244331
 10
0.1987119056361353
 20
0.5332553133244331
  0
LWPOLYLINE
  5
53E85C08
330
53E85D4E
100
AcDbEntity
  8
TEXT
100
AcDbPolyline
 90
        2
 70
     0
 43
0.0001332181640625
 10
0.1587464564173873
 20
0.629838482269745
 10
0.085476466183013
 20
0.6198471199650597
  0
LWPOLYLINE
  5
53E85C0C
330
53E85D4E
100
AcDbEntity
  8
TEXT
100
AcDbPolyline
 90
        2
 70
     0
 43
0.0001332181640625
 10
0.1121200989955104
 20
0.6198471199650597
 10
0.1720682728236378
 20
0.629838482269745
  0
LWPOLYLINE
  5
53E85C10
330
53E85D4E
100
AcDbEntity
  8
TEXT
100
AcDbPolyline
 90
        2
 70
     0
 43
0.0001332181640625
 10
0.1121200989955104
 20
0.5332553133244331
 10
0.1720682728236378
 20
0.5932034871525587
  0
LWPOLYLINE
  5
53E85C14
330
53E85D4E
100
AcDbEntity
  8
TEXT
100
AcDbPolyline
 90
        3
 70
     0
 43
0.0006660908203125
 10
0.1987119056361353
 20
0.7730480086369354
 10
0.085476466183013
 20
0.7730480086369354
 10
0.085476466183013
 20
0.6598125691838077
  0
LWPOLYLINE
  5
53E85C19
330
53E85D4E
100
AcDbEntity
  8
TEXT
100
AcDbPolyline
 90
        3
 70
     0
 43
0.0006660908203125
 10
0.1987119056361353
 20
0.7464043758244343
 10
0.1121200989955104
 20
0.7464043758244343
 10
0.1121200989955104
 20
0.6598125691838077
  0
LWPOLYLINE
  5
53E85C1E
330
53E85D4E
100
AcDbEntity
  8
TEXT
100
AcDbPolyline
 90
        2
 70
     0
 43
0.0001332181640625
 10
0.1121200989955104
 20
0.7464043758244343
 10
0.172068272823636
 20
0.6864562019963088
  0
LWPOLYLINE
  5
53E85C22
330
53E85D4E
100
AcDbEntity
  8
TEXT
100
AcDbPolyline
 90
        2
 70
     0
 43
0.0001332181640625
 10
0.1121200989955104
 20
0.6598125691838077
 10
0.172068272823636
 20
0.649821206879119
  0
LWPOLYLINE
  5
53E85C26
330
53E85D4E
100
AcDbEntity
  8
TEXT
100
AcDbPolyline
 90
        2
 70
     0
 43
0.0001332181640625
 10
0.085476466183013
 20
0.6598125691838077
 10
0.1587464564173873
 20
0.649821206879119
  0
LWPOLYLINE
  5
53E85C2A
330
53E85D4E
100
AcDbEntity
  8
TEXT
100
AcDbPolyline
 90
        2
 70
     0
 43
0.0006660908203125
 10
0.1121200989955104
 20
0.6198471199650597
 10
0.085476466183013
 20
0.6198471199650597
  0
LWPOLYLINE
  5
53E85C2E
330
53E85D4E
100
AcDbEntity
  8
TEXT
100
AcDbPolyline
 90
        2
 70
     0
 43
0.0006660908203125
 10
0.1121200989955104
 20
0.6598125691838077
 10
0.085476466183013
 20
0.6598125691838077
  0
LINE
  5
53E85C32
330
53E85D4E
100
AcDbEntity
  8
TEXT
100
AcDbLine
 10
1.60066689530951
 20
0.7087713139801664
 30
0.0
 11
1.493460621922221
 21
0.7087713139801664
 31
0.0
  0
LINE
  5
53E85C33
330
53E85D4E
100
AcDbEntity
  8
TEXT
100
AcDbLine
 10
1.629697793653988
 20
0.7730480086369318
 30
0.0
 11
1.494865884436929
 21
0.7730480086369318
 31
0.0
  0
ARC
  5
53E85C34
330
53E85D4E
100
AcDbEntity
  8
TEXT
100
AcDbCircle
 10
1.554179980830246
 20
0.6038107593739155
 30
0.0
 40
0.0676855811441166
100
AcDbArc
 50
90.0
 51
153.7768192527749
  0
LWPOLYLINE
  5
53E85C35
330
53E85D4E
100
AcDbEntity
  8
TEXT
100
AcDbPolyline
 90
        2
 70
     0
 43
0.0
 10
1.492428126467411
 20
0.550065920598859
 42
0.2901071551932823
 10
1.535504059335046
 20
0.5065749756484208
 42
5.328517124445801
  0
ARC
  5
53E85C39
330
53E85D4E
100
AcDbEntity
  8
TEXT
100
AcDbCircle
 10
0.8490486031587609
 20
0.5663673669864706
 30
0.0
 40
0.0601160179737537
100
AcDbArc
 50
180.0000000000003
 51
264.0521544866073
  0
LINE
  5
53E85C3A
330
53E85D4E
100
AcDbEntity
  8
TEXT
100
AcDbLine
 10
0.8525639587843087
 20
0.80743592623107
 30
0.0
 11
0.7925213539403018
 21
0.80743592623107
 31
0.0
  0
ARC
  5
53E85C3B
330
53E85D4E
100
AcDbEntity
  8
TEXT
100
AcDbCircle
 10
0.6167896010417904
 20
0.6909605491904301
 30
0.0
 40
0.0820874594465043
100
AcDbArc
 50
90.0
 51
270.0
  0
LWPOLYLINE
  5
53E85C3C
330
53E85D4E
100
AcDbEntity
  8
TEXT
100
AcDbPolyline
 90
        2
 70
     0
 43
0.0001332181640625
 10
0.2087032679408258
 20
0.6997780184025558
 10
0.1987119056361353
 20
0.7730480086369354
  0
LWPOLYLINE
  5
53E85C40
330
53E85D4E
100
AcDbEntity
  8
TEXT
100
AcDbPolyline
 90
        2
 70
     0
 43
0.0001332181640625
 10
0.1987119056361353
 20
0.7464043758244343
 10
0.2087032679408258
 20
0.6864562019963088
  0
LWPOLYLINE
  5
53E85C44
330
53E85D4E
100
AcDbEntity
  8
TEXT
100
AcDbPolyline
 90
        3
 70
     0
 43
0.0006660908203125
 10
0.3519127943080127
 20
0.6598125691838077
 10
0.3519127943080127
 20
0.7730480086369354
 10
0.2386773548548868
 20
0.7730480086369354
  0
LWPOLYLINE
  5
53E85C49
330
53E85D4E
100
AcDbEntity
  8
TEXT
100
AcDbPolyline
 90
        3
 70
     0
 43
0.0006660908203125
 10
0.3252691614955117
 20
0.6598125691838077
 10
0.3252691614955117
 20
0.7464043758244343
 10
0.2386773548548868
 20
0.7464043758244343
  0
LWPOLYLINE
  5
53E85C4E
330
53E85D4E
100
AcDbEntity
  8
TEXT
100
AcDbPolyline
 90
        2
 70
     0
 43
0.0001332181640625
 10
0.3252691614955117
 20
0.7464043758244343
 10
0.2653209876673879
 20
0.6864562019963088
  0
LWPOLYLINE
  5
53E85C52
330
53E85D4E
100
AcDbEntity
  8
TEXT
100
AcDbPolyline
 90
        2
 70
     0
 43
0.0001332181640625
 10
0.2386773548548868
 20
0.7464043758244343
 10
0.2286859925501981
 20
0.6864562019963088
  0
LWPOLYLINE
  5
53E85C56
330
53E85D4E
100
AcDbEntity
  8
TEXT
100
AcDbPolyline
 90
        2
 70
     0
 43
0.0001332181640625
 10
0.2386773548548868
 20
0.7730480086369354
 10
0.2286859925501981
 20
0.6997780184025558
  0
LWPOLYLINE
  5
53E85C5A
330
53E85D4E
100
AcDbEntity
  8
TEXT
100
AcDbPolyline
 90
        2
 70
     0
 43
0.0001332181640625
 10
0.2786428040736366
 20
0.649821206879119
 10
0.3519127943080127
 20
0.6598125691838077
  0
LWPOLYLINE
  5
53E85C5E
330
53E85D4E
100
AcDbEntity
  8
TEXT
100
AcDbPolyline
 90
        2
 70
     0
 43
0.0001332181640625
 10
0.3252691614955117
 20
0.6598125691838077
 10
0.2653209876673879
 20
0.649821206879119
  0
LWPOLYLINE
  5
53E85C62
330
53E85D4E
100
AcDbEntity
  8
TEXT
100
AcDbPolyline
 90
        2
 70
     0
 43
0.0001332181640625
 10
0.3519127943080127
 20
0.6198471199650597
 10
0.2786428040736366
 20
0.629838482269745
  0
LWPOLYLINE
  5
53E85C66
330
53E85D4E
100
AcDbEntity
  8
TEXT
100
AcDbPolyline
 90
        2
 70
     0
 43
0.0001332181640625
 10
0.3252691614955117
 20
0.6198471199650597
 10
0.2653209876673879
 20
0.629838482269745
  0
LWPOLYLINE
  5
53E85C6A
330
53E85D4E
100
AcDbEntity
  8
TEXT
100
AcDbPolyline
 90
        2
 70
     0
 43
0.0001332181640625
 10
0.3252691614955117
 20
0.5332553133244331
 10
0.2653209876673879
 20
0.5932034871525587
  0
LWPOLYLINE
  5
53E85C6E
330
53E85D4E
100
AcDbEntity
  8
TEXT
100
AcDbPolyline
 90
        3
 70
     0
 43
0.0006660908203125
 10
0.2386773548548868
 20
0.5332553133244331
 10
0.3252691614955117
 20
0.5332553133244331
 10
0.3252691614955117
 20
0.6198471199650597
  0
LWPOLYLINE
  5
53E85C73
330
53E85D4E
100
AcDbEntity
  8
TEXT
100
AcDbPolyline
 90
        3
 70
     0
 43
0.0006660908203125
 10
0.2386773548548868
 20
0.5066116805119321
 10
0.3519127943080127
 20
0.5066116805119321
 10
0.3519127943080127
 20
0.6198471199650597
  0
LWPOLYLINE
  5
53E85C78
330
53E85D4E
100
AcDbEntity
  8
TEXT
100
AcDbPolyline
 90
        5
 70
     0
 43
0.0001332181640625
 10
0.2087032679408258
 20
0.5798816707463082
 10
0.2087032679408258
 20
0.5932034871525587
 10
0.1720682728236378
 20
0.5932034871525587
 10
0.1720682728236378
 20
0.629838482269745
 10
0.1587464564173873
 20
0.629838482269745
  0
LWPOLYLINE
  5
53E85C7F
330
53E85D4E
100
AcDbEntity
  8
TEXT
100
AcDbPolyline
 90
        2
 70
     0
 43
0.0006660908203125
 10
0.1987119056361353
 20
0.5332553133244331
 10
0.1987119056361353
 20
0.5066116805119321
  0
LWPOLYLINE
  5
53E85C83
330
53E85D4E
100
AcDbEntity
  8
TEXT
100
AcDbPolyline
 90
        2
 70
     0
 43
0.0001332181640625
 10
0.1987119056361353
 20
0.5332553133244331
 10
0.2087032679408258
 20
0.5932034871525587
  0
LWPOLYLINE
  5
53E85C87
330
53E85D4E
100
AcDbEntity
  8
TEXT
100
AcDbPolyline
 90
        2
 70
     0
 43
0.0001332181640625
 10
0.1987119056361353
 20
0.5066116805119321
 10
0.2087032679408258
 20
0.5798816707463082
  0
LWPOLYLINE
  5
53E85C8B
330
53E85D4E
100
AcDbEntity
  8
TEXT
100
AcDbPolyline
 90
        5
 70
     0
 43
0.0001332181640625
 10
0.1587464564173873
 20
0.649821206879119
 10
0.172068272823636
 20
0.649821206879119
 10
0.172068272823636
 20
0.6864562019963088
 10
0.2087032679408258
 20
0.6864562019963088
 10
0.2087032679408258
 20
0.6997780184025558
  0
LWPOLYLINE
  5
53E85C92
330
53E85D4E
100
AcDbEntity
  8
TEXT
100
AcDbPolyline
 90
        5
 70
     0
 43
0.0001332181640625
 10
0.2286859925501981
 20
0.6997780184025558
 10
0.2286859925501981
 20
0.6864562019963088
 10
0.2653209876673879
 20
0.6864562019963088
 10
0.2653209876673879
 20
0.649821206879119
 10
0.2786428040736366
 20
0.649821206879119
  0
LWPOLYLINE
  5
53E85C99
330
53E85D4E
100
AcDbEntity
  8
TEXT
100
AcDbPolyline
 90
        2
 70
     0
 43
0.0001332181640625
 10
0.2386773548548868
 20
0.5332553133244331
 10
0.2286859925501981
 20
0.5932034871525587
  0
LWPOLYLINE
  5
53E85C9D
330
53E85D4E
100
AcDbEntity
  8
TEXT
100
AcDbPolyline
 90
        2
 70
     0
 43
0.0001332181640625
 10
0.2286859925501981
 20
0.5798816707463082
 10
0.2386773548548868
 20
0.5066116805119321
  0
LWPOLYLINE
  5
53E85CA1
330
53E85D4E
100
AcDbEntity
  8
TEXT
100
AcDbPolyline
 90
        2
 70
     0
 43
0.0006660908203125
 10
0.2386773548548868
 20
0.5332553133244331
 10
0.2386773548548868
 20
0.5066116805119321
  0
LWPOLYLINE
  5
53E85CA5
330
53E85D4E
100
AcDbEntity
  8
TEXT
100
AcDbPolyline
 90
        5
 70
     0
 43
0.0001332181640625
 10
0.2786428040736366
 20
0.629838482269745
 10
0.2653209876673879
 20
0.629838482269745
 10
0.2653209876673879
 20
0.5932034871525587
 10
0.2286859925501981
 20
0.5932034871525587
 10
0.2286859925501981
 20
0.5798816707463082
  0
LWPOLYLINE
  5
53E85CAC
330
53E85D4E
100
AcDbEntity
  8
TEXT
100
AcDbPolyline
 90
        2
 70
     0
 43
0.0006660908203125
 10
0.3252691614955117
 20
0.6598125691838077
 10
0.3519127943080127
 20
0.6598125691838077
  0
LWPOLYLINE
  5
53E85CB0
330
53E85D4E
100
AcDbEntity
  8
TEXT
100
AcDbPolyline
 90
        2
 70
     0
 43
0.0006660908203125
 10
0.3252691614955117
 20
0.6198471199650597
 10
0.3519127943080127
 20
0.6198471199650597
  0
LINE
  5
53E85CB4
330
53E85D4E
100
AcDbEntity
  8
TEXT
100
AcDbLine
 10
0.6220269311560376
 20
0.7087713139801664
 30
0.0
 11
0.7889325851850089
 21
0.7087713139801664
 31
0.0
  0
LINE
  5
53E85CB5
330
53E85D4E
100
AcDbEntity
  8
TEXT
100
AcDbLine
 10
0.6876270674003387
 20
0.6729665923695385
 30
0.0
 11
0.6220269311560376
 21
0.6729665923695385
 31
0.0
  0
LINE
  5
53E85CB6
330
53E85D4E
100
AcDbEntity
  8
TEXT
100
AcDbLine
 10
0.534702141595286
 20
0.5065749756484208
 30
0.0
 11
0.6876270674003387
 21
0.5065749756484208
 31
0.0
  0
LINE
  5
53E85CB7
330
53E85D4E
100
AcDbEntity
  8
TEXT
100
AcDbLine
 10
0.6925674413066183
 20
0.5749319819818602
 30
0.0
 11
0.5347021415952842
 21
0.5749319819818602
 31
0.0
  0
LINE
  5
53E85CB8
330
53E85D4E
100
AcDbEntity
  8
TEXT
100
AcDbLine
 10
0.6167896010417895
 20
0.6088730897439248
 30
0.0
 11
0.6925674413066183
 21
0.6088730897439248
 31
0.0
  0
ARC
  5
53E85CB9
330
53E85D4E
100
AcDbEntity
  8
TEXT
100
AcDbCircle
 10
0.6220269311560385
 20
0.6908689531748542
 30
0.0
 40
0.017902360805315
100
AcDbArc
 50
90.0
 51
270.0
  0
LINE
  5
53E85CBA
330
53E85D4E
100
AcDbEntity
  8
TEXT
100
AcDbLine
 10
0.5347021415952842
 20
0.5749319819818602
 30
0.0
 11
0.534702141595286
 21
0.5065749756484208
 31
0.0
  0
LINE
  5
53E85CBB
330
53E85D4E
100
AcDbEntity
  8
TEXT
100
AcDbLine
 10
0.7889325851850089
 20
0.7087713139801664
 30
0.0
 11
0.7889325851850089
 21
0.5663673669864706
 31
0.0
  0
ARC
  5
53E85CBC
330
53E85D4E
100
AcDbEntity
  8
TEXT
100
AcDbCircle
 10
0.6876270674003396
 20
0.5897707840089779
 30
0.0
 40
0.0831958083605586
100
AcDbArc
 50
270.0
 51
90.0
  0
ARC
  5
53E85CBD
330
53E85D4E
100
AcDbEntity
  8
TEXT
100
AcDbCircle
 10
0.6925674413066192
 20
0.5919025358628942
 30
0.0
 40
0.0169705538810321
100
AcDbArc
 50
270.0
 51
90.0
  0
LWPOLYLINE
  5
53E85CBE
330
53E85D4E
100
AcDbEntity
  8
TEXT
100
AcDbPolyline
 90
        2
 70
     0
 43
0.0006660908203125
 10
0.1987119056361353
 20
0.7464043758244343
 10
0.1987119056361353
 20
0.7730480086369354
  0
LWPOLYLINE
  5
53E85CC2
330
53E85D4E
100
AcDbEntity
  8
TEXT
100
AcDbPolyline
 90
        2
 70
     0
 43
0.0006660908203125
 10
0.2386773548548868
 20
0.7464043758244343
 10
0.2386773548548868
 20
0.7730480086369354
  0
LINE
  5
53E85CC6
330
53E85D4E
100
AcDbEntity
  8
TEXT
100
AcDbLine
 10
0.7925213539403018
 20
0.7730480086369318
 30
0.0
 11
0.6167896010417895
 21
0.7730480086369318
 31
0.0
  0
LINE
  5
53E85CC7
330
53E85D4E
100
AcDbEntity
  8
TEXT
100
AcDbLine
 10
0.7925213539403018
 20
0.80743592623107
 30
0.0
 11
0.7925213539403018
 21
0.7730480086369318
 31
0.0
  0
LINE
  5
53E85CC8
330
53E85D4E
100
AcDbEntity
  8
TEXT
100
AcDbLine
 10
0.982993245960154
 20
0.6721760125238112
 30
0.0
 11
0.9243629249282161
 21
0.7730480086369318
 31
0.0
  0
LINE
  5
53E85CC9
330
53E85D4E
100
AcDbEntity
  8
TEXT
100
AcDbLine
 10
1.041741808766019
 20
0.7730480086369318
 30
0.0
 11
0.982993245960154
 21
0.6721760125238112
 31
0.0
  0
LINE
  5
53E85CCA
330
53E85D4E
100
AcDbEntity
  8
TEXT
100
AcDbLine
 10
1.13867243412576
 20
0.5889628137514201
 30
0.0
 11
1.13867243412576
 21
0.8410594863757424
 31
0.0
  0
LINE
  5
53E85CCB
330
53E85D4E
100
AcDbEntity
  8
TEXT
100
AcDbLine
 10
1.17098428826342
 20
0.7730480086369318
 30
0.0
 11
1.17098428826342
 21
0.5721838019045236
 31
0.0
  0
LINE
  5
53E85CCC
330
53E85D4E
100
AcDbEntity
  8
TEXT
100
AcDbLine
 10
1.17098428826342
 20
0.5721838019045236
 30
0.0
 11
1.153990651378819
 21
0.5721838019045236
 31
0.0
  0
LINE
  5
53E85CCD
330
53E85D4E
100
AcDbEntity
  8
TEXT
100
AcDbLine
 10
1.139812007621955
 20
0.5065749756484208
 30
0.0
 11
1.23781534132139
 21
0.5065749756484208
 31
0.0
  0
LINE
  5
53E85CCE
330
53E85D4E
100
AcDbEntity
  8
TEXT
100
AcDbLine
 10
0.9733930089631996
 20
0.5265334817534338
 30
0.0
 11
1.070692715056644
 21
0.6908836926887019
 31
0.0
  0
ARC
  5
53E85CCF
330
53E85D4E
100
AcDbEntity
  8
TEXT
100
AcDbCircle
 10
0.9393494490509857
 20
0.5461226979221166
 30
0.0
 40
0.0392772371940762
100
AcDbArc
 50
270.1604552698595
 51
330.0831797321295
  0
LINE
  5
53E85CD0
330
53E85D4E
100
AcDbEntity
  8
TEXT
100
AcDbLine
 10
0.8428191926651145
 20
0.5065749756484208
 30
0.0
 11
0.9394594437401089
 21
0.5068456147467031
 31
0.0
  0
LWPOLYLINE
  5
53E85CD1
330
53E85D4E
100
AcDbEntity
  8
TEXT
100
AcDbPolyline
 90
        6
 70
     1
 43
0.0
 10
0.8853429962402641
 20
0.7087713139801664
 10
0.8550264020200559
 20
0.7087713139801664
 10
0.8550264020200559
 20
0.5856603159252721
 42
0.407328721240804
 10
0.8665700531815323
 20
0.573841401248886
 10
0.9271917522262631
 20
0.573841401248886
 10
0.9446570926335811
 20
0.6066536302923651
  0
LINE
  5
53E85CD9
330
53E85D4E
100
AcDbEntity
  8
TEXT
100
AcDbLine
 10
1.070692715056644
 20
0.6908836926887019
 30
0.0
 11
1.070692715056644
 21
0.5581263178633456
 31
0.0
  0
ARC
  5
53E85CDA
330
53E85D4E
100
AcDbEntity
  8
TEXT
100
AcDbCircle
 10
1.153990651378817
 20
0.587565608147949
 30
0.0
 40
0.0153818062434269
100
AcDbArc
 50
174.7883570302258
 51
270.0
  0
LWPOLYLINE
  5
53E85CDB
330
53E85D4E
100
AcDbEntity
  8
TEXT
100
AcDbPolyline
 90
        2
 70
     0
 43
0.0
 10
1.070692715056642
 20
0.5581263178633491
 42
0.3318488747599744
 10
1.139812007621955
 20
0.5065749756484208
 42
-6.868794160588311
  0
LINE
  5
53E85CDF
330
53E85D4E
100
AcDbEntity
  8
TEXT
100
AcDbLine
 10
1.295204410310651
 20
0.5065749756484208
 30
0.0
 11
1.362262457092491
 21
0.5065749756484208
 31
0.0
  0
LINE
  5
53E85CE0
330
53E85D4E
100
AcDbEntity
  8
TEXT
100
AcDbLine
 10
1.295204410310651
 20
0.7012175248140565
 30
0.0
 11
1.295204410310651
 21
0.5065749756484208
 31
0.0
  0
LINE
  5
53E85CE1
330
53E85D4E
100
AcDbEntity
  8
TEXT
100
AcDbLine
 10
1.23781534132139
 20
0.7087713139801664
 30
0.0
 11
1.287650621144537
 21
0.7087713139801664
 31
0.0
  0
LINE
  5
53E85CE2
330
53E85D4E
100
AcDbEntity
  8
TEXT
100
AcDbLine
 10
1.23781534132139
 20
0.5065749756484208
 30
0.0
 11
1.23781534132139
 21
0.7087713139801664
 31
0.0
  0
LWPOLYLINE
  5
53E85CE3
330
53E85D4E
100
AcDbEntity
  8
TEXT
100
AcDbPolyline
 90
        2
 70
     0
 43
0.0
 10
1.287650621144535
 20
0.7087713139801664
 42
-0.4142135623731017
 10
1.295204410310649
 20
0.7012175248140565
 42
-0.9999999999999998
  0
LINE
  5
53E85CE7
330
53E85D4E
100
AcDbEntity
  8
TEXT
100
AcDbLine
 10
1.493460621922221
 20
0.7087713139801664
 30
0.0
 11
1.493460621922221
 21
0.6337189079059598
 31
0.0
  0
LINE
  5
53E85CE8
330
53E85D4E
100
AcDbEntity
  8
TEXT
100
AcDbLine
 10
1.362262457092491
 20
0.7087713139801664
 30
0.0
 11
1.416396054013441
 21
0.7087713139801664
 31
0.0
  0
LINE
  5
53E85CE9
330
53E85D4E
100
AcDbEntity
  8
TEXT
100
AcDbLine
 10
1.362262457092491
 20
0.5065749756484208
 30
0.0
 11
1.362262457092491
 21
0.7087713139801664
 31
0.0
  0
LWPOLYLINE
  5
53E85CEA
330
53E85D4E
100
AcDbEntity
  8
TEXT
100
AcDbPolyline
 90
        2
 70
     0
 43
0.0
 10
1.416396054013439
 20
0.7087713139801664
 42
-0.4142135623731017
 10
1.423949843179553
 20
0.7012175248140565
 42
-0.9999999999999998
  0
LWPOLYLINE
  5
53E85CEE
330
53E85D4E
100
AcDbEntity
  8
TEXT
100
AcDbPolyline
 90
        4
 70
     0
 43
0.0
 10
1.423949843179553
 20
0.7012175248140565
 10
1.423949843179553
 20
0.5065749756484208
 10
1.492428126467411
 20
0.5065749756484208
 10
1.492428126467411
 20
0.550065920598859
 42
-1.714843617202739
  0
LINE
  5
53E85CF4
330
53E85D4E
100
AcDbEntity
  8
TEXT
100
AcDbLine
 10
0.8525639587843087
 20
0.7730480086369318
 30
0.0
 11
0.8525639587843087
 21
0.80743592623107
 31
0.0
  0
LINE
  5
53E85CF5
330
53E85D4E
100
AcDbEntity
  8
TEXT
100
AcDbLine
 10
0.9243629249282161
 20
0.7730480086369318
 30
0.0
 11
0.8525639587843087
 21
0.7730480086369318
 31
0.0
  0
LINE
  5
53E85CF6
330
53E85D4E
100
AcDbEntity
  8
TEXT
100
AcDbLine
 10
1.071863721559395
 20
0.7730480086369318
 30
0.0
 11
1.041741808766019
 21
0.7730480086369318
 31
0.0
  0
LINE
  5
53E85CF7
330
53E85D4E
100
AcDbEntity
  8
TEXT
100
AcDbLine
 10
1.071863721559395
 20
0.8410594863757424
 30
0.0
 11
1.071863721559395
 21
0.7730480086369318
 31
0.0
  0
LINE
  5
53E85CF8
330
53E85D4E
100
AcDbEntity
  8
TEXT
100
AcDbLine
 10
1.13867243412576
 20
0.8410594863757424
 30
0.0
 11
1.071863721559395
 21
0.8410594863757424
 31
0.0
  0
LWPOLYLINE
  5
53E85CF9
330
53E85D4E
100
AcDbEntity
  8
TEXT
100
AcDbPolyline
 90
        3
 70
     0
 43
0.0
 10
1.459084193723763
 20
0.7730480086369354
 10
1.340784034907718
 20
0.7730480086369354
 10
1.340784034907718
 20
0.7458805118760395
 42
-1.960274751411753
  0
LINE
  5
53E85CFE
330
53E85D4E
100
AcDbEntity
  8
TEXT
100
AcDbLine
 10
1.305002344194557
 20
0.7730480086369318
 30
0.0
 11
1.17098428826342
 21
0.7730480086369318
 31
0.0
  0
LWPOLYLINE
  5
53E85CFF
330
53E85D4E
100
AcDbEntity
  8
TEXT
100
AcDbPolyline
 90
        2
 70
     0
 43
0.0
 10
1.305002344194557
 20
0.7730480086369354
 42
-0.3328679258950098
 10
1.340784034907718
 20
0.7458805118760395
 42
6.772930709997214
  0
LINE
  5
53E85D03
330
53E85D4E
100
AcDbEntity
  8
TEXT
100
AcDbLine
 10
1.494865884436929
 20
0.7730480086369318
 30
0.0
 11
1.494865884436929
 21
0.744725462867288
 31
0.0
  0
LWPOLYLINE
  5
53E85D04
330
53E85D4E
100
AcDbEntity
  8
TEXT
100
AcDbPolyline
 90
        2
 70
     0
 43
0.0
 10
1.459084193723763
 20
0.7730480086369354
 42
-0.3277054968067132
 10
1.494865884436928
 20
0.7447254628672915
 42
6.667889725900311
  0
LINE
  5
53E85D08
330
53E85D4E
100
AcDbEntity
  8
TEXT
100
AcDbLine
 10
1.708657732529029
 20
0.6678360300835045
 30
0.0
 11
1.664906961347128
 21
0.7500863060796497
 31
0.0
  0
LINE
  5
53E85D09
330
53E85D4E
100
AcDbEntity
  8
TEXT
100
AcDbLine
 10
1.708657732529029
 20
0.7730480086369318
 30
0.0
 11
1.708657732529029
 21
0.6678360300835045
 31
0.0
  0
LINE
  5
53E85D0A
330
53E85D4E
100
AcDbEntity
  8
TEXT
100
AcDbLine
 10
1.936341471467398
 20
0.6971826822253937
 30
0.0
 11
1.936341471467398
 21
0.8385122144045325
 31
0.0
  0
LINE
  5
53E85D0B
330
53E85D4E
100
AcDbEntity
  8
TEXT
100
AcDbLine
 10
1.983439630023383
 20
0.7730480086369318
 30
0.0
 11
1.936341471467398
 21
0.6971826822253937
 31
0.0
  0
LINE
  5
53E85D0C
330
53E85D4E
100
AcDbEntity
  8
TEXT
100
AcDbLine
 10
1.993874346787306
 20
0.6631547656959583
 30
0.0
 11
2.058431462753011
 21
0.7730480086369318
 31
0.0
  0
LINE
  5
53E85D0D
330
53E85D4E
100
AcDbEntity
  8
TEXT
100
AcDbLine
 10
1.872506480244625
 20
0.5065749756484208
 30
0.0
 11
1.936884664563246
 21
0.5065749756484208
 31
0.0
  0
LWPOLYLINE
  5
53E85D0E
330
53E85D4E
100
AcDbEntity
  8
TEXT
100
AcDbPolyline
 90
        2
 70
     0
 43
0.0
 10
1.712597409834067
 20
0.550065920598859
 42
-0.2901071551932486
 10
1.669521476966423
 20
0.5065749756484208
 42
-5.328517124445184
  0
ARC
  5
53E85D12
330
53E85D4E
100
AcDbEntity
  8
TEXT
100
AcDbCircle
 10
1.600666895309508
 20
0.6804119389801691
 30
0.0
 40
0.028359375
100
AcDbArc
 50
25.78218179591245
 51
90.0
  0
LINE
  5
53E85D13
330
53E85D4E
100
AcDbEntity
  8
TEXT
100
AcDbLine
 10
1.636467970613631
 20
0.6714963405180341
 30
0.0
 11
1.626203210200067
 21
0.6927468800907284
 31
0.0
  0
LINE
  5
53E85D14
330
53E85D4E
100
AcDbEntity
  8
TEXT
100
AcDbLine
 10
1.554179980830248
 20
0.6714963405180341
 30
0.0
 11
1.636467970613631
 21
0.6714963405180341
 31
0.0
  0
LWPOLYLINE
  5
53E85D15
330
53E85D4E
100
AcDbEntity
  8
TEXT
100
AcDbPolyline
 90
        4
 70
     1
 43
0.0
 10
1.64939901189653
 20
0.6095389536324461
 10
1.560738693236672
 20
0.6095389536324461
 42
0.9999999999999998
 10
1.560738693236672
 20
0.5671404131285854
 10
1.64939901189653
 20
0.5671404131285854
 42
1.0
  0
LWPOLYLINE
  5
53E85D1B
330
53E85D4E
100
AcDbEntity
  8
TEXT
100
AcDbPolyline
 90
        2
 70
     0
 43
0.0
 10
1.535504059335046
 20
0.5065749756484208
 10
1.669521476966423
 20
0.5065749756484208
 42
0.9999999999999998
  0
LINE
  5
53E85D1F
330
53E85D4E
100
AcDbEntity
  8
TEXT
100
AcDbLine
 10
1.795858498952062
 20
0.7087713139801664
 30
0.0
 11
1.87250648024462
 21
0.7087713139801664
 31
0.0
  0
LINE
  5
53E85D20
330
53E85D4E
100
AcDbEntity
  8
TEXT
100
AcDbLine
 10
1.87250648024462
 20
0.7087713139801664
 30
0.0
 11
1.872506480244625
 21
0.5065749756484208
 31
0.0
  0
ARC
  5
53E85D21
330
53E85D4E
100
AcDbEntity
  8
TEXT
100
AcDbCircle
 10
1.79585849895206
 20
0.6838654386975036
 30
0.0
 40
0.0249058752826653
100
AcDbArc
 50
89.99971217465335
 51
179.9999999999985
  0
LINE
  5
53E85D22
330
53E85D4E
100
AcDbEntity
  8
TEXT
100
AcDbLine
 10
1.770952623669403
 20
0.5065749756484208
 30
0.0
 11
1.770952623669398
 21
0.6838654810798892
 31
0.0
  0
LWPOLYLINE
  5
53E85D23
330
53E85D4E
100
AcDbEntity
  8
TEXT
100
AcDbPolyline
 90
        2
 70
     0
 43
0.0
 10
1.712597409834067
 20
0.5065749756484208
 10
1.770952623669401
 20
0.5065749756484208
  0
LWPOLYLINE
  5
53E85D27
330
53E85D4E
100
AcDbEntity
  8
TEXT
100
AcDbPolyline
 90
        2
 70
     0
 43
0.0
 10
1.712597409834067
 20
0.550065920598859
 10
1.712597409834067
 20
0.5065749756484208
  0
LINE
  5
53E85D2B
330
53E85D4E
100
AcDbEntity
  8
TEXT
100
AcDbLine
 10
2.089366570150916
 20
0.5065749756484208
 30
0.0
 11
1.993874346787306
 21
0.6631547656959583
 31
0.0
  0
LINE
  5
53E85D2C
330
53E85D4E
100
AcDbEntity
  8
TEXT
100
AcDbLine
 10
2.01278819777471
 20
0.5065749756484208
 30
0.0
 11
2.089366570150916
 21
0.5065749756484208
 31
0.0
  0
LINE
  5
53E85D2D
330
53E85D4E
100
AcDbEntity
  8
TEXT
100
AcDbLine
 10
1.936884664563246
 20
0.6381545441246011
 30
0.0
 11
2.01278819777471
 21
0.5065749756484208
 31
0.0
  0
LINE
  5
53E85D2E
330
53E85D4E
100
AcDbEntity
  8
TEXT
100
AcDbLine
 10
1.936884664563246
 20
0.5065749756484208
 30
0.0
 11
1.936884664563246
 21
0.6381545441246011
 31
0.0
  0
LINE
  5
53E85D2F
330
53E85D4E
100
AcDbEntity
  8
TEXT
100
AcDbLine
 10
1.936341471467398
 20
0.8385122144045325
 30
0.0
 11
1.868026592918125
 21
0.8385122144045325
 31
0.0
  0
ARC
  5
53E85D30
330
53E85D4E
100
AcDbEntity
  8
TEXT
100
AcDbCircle
 10
1.627670853876919
 20
0.7314644415160294
 30
0.0
 40
0.0416329381542859
100
AcDbArc
 50
26.56974201007528
 51
87.20939649401342
  0
LINE
  5
53E85D31
330
53E85D4E
100
AcDbEntity
  8
TEXT
100
AcDbLine
 10
1.77255463882853
 20
0.7730480086369318
 30
0.0
 11
1.708657732529029
 21
0.7730480086369318
 31
0.0
  0
LINE
  5
53E85D32
330
53E85D4E
100
AcDbEntity
  8
TEXT
100
AcDbLine
 10
1.77255463882853
 20
0.7455003587760572
 30
0.0
 11
1.77255463882853
 21
0.7730480086369318
 31
0.0
  0
ARC
  5
53E85D33
330
53E85D4E
100
AcDbEntity
  8
TEXT
100
AcDbCircle
 10
1.803747455891638
 20
0.741802281354667
 30
0.0
 40
0.0314112657011332
100
AcDbArc
 50
95.88484768694724
 51
173.2388340632136
  0
LINE
  5
53E85D34
330
53E85D4E
100
AcDbEntity
  8
TEXT
100
AcDbLine
 10
1.86802659291812
 20
0.7730480086369318
 30
0.0
 11
1.800526875268603
 21
0.7730480086369318
 31
0.0
  0
LINE
  5
53E85D35
330
53E85D4E
100
AcDbEntity
  8
TEXT
100
AcDbLine
 10
1.868026592918125
 20
0.8385122144045325
 30
0.0
 11
1.86802659291812
 21
0.7730480086369318
 31
0.0
  0
LINE
  5
53E85D36
330
53E85D4E
100
AcDbEntity
  8
TEXT
100
AcDbLine
 10
2.058431462753011
 20
0.7730480086369318
 30
0.0
 11
1.983439630023385
 21
0.7730480086369318
 31
0.0
  0
ENDSEC
  0
SECTION
  2
OBJECTS
  0
DICTIONARY
  5
53E85D42
330
0
100
AcDbDictionary
  3
ACAD_GROUP
350
53E85D43
  3
ACAD_LAYOUT
350
53E85D68
  3
ACAD_MLINESTYLE
350
53E85D44
  3
ACAD_PLOTSETTINGS
350
53E85D69
  3
ACAD_PLOTSTYLENAME
350
53E85D66
  3
ACDBHEADERROUNDTRIPXREC
350
53E85D73
  3
ACDBVARIABLEDICTIONARY
350
53E85D70
  0
DICTIONARY
  5
53E85D95
330
53E85D4E
100
AcDbDictionary
280
     1
  3
ACAD_LAYOUTSELFREF
360
53E85D96
  0
DICTIONARY
  5
53E85D93
330
53E85D4B
100
AcDbDictionary
280
     1
  3
ACAD_LAYOUTSELFREF
360
53E85D94
  0
DICTIONARY
  5
53E85D43
102
{ACAD_REACTORS
330
53E85D42
102
}
330
53E85D42
100
AcDbDictionary
  0
DICTIONARY
  5
53E85D68
102
{ACAD_REACTORS
330
53E85D42
102
}
330
53E85D42
100
AcDbDictionary
  0
DICTIONARY
  5
53E85D44
102
{ACAD_REACTORS
330
53E85D42
102
}
330
53E85D42
100
AcDbDictionary
  3
STANDARD
350
53E85D51
  0
DICTIONARY
  5
53E85D69
102
{ACAD_REACTORS
330
53E85D42
102
}
330
53E85D42
100
AcDbDictionary
  0
ACDBDICTIONARYWDFLT
  5
53E85D66
102
{ACAD_REACTORS
330
53E85D42
102
}
330
53E85D42
100
AcDbDictionary
281
     1
  3
Normal
350
53E85D67
100
AcDbDictionaryWithDefault
340
53E85D67
  0
DICTIONARY
  5
53E85D73
102
{ACAD_REACTORS
330
53E85D42
102
}
330
53E85D42
100
AcDbDictionary
  3
CEPSNTYPE
350
53E85D7D
  3
FINGERPRINTGUID
350
53E85D7E
  3
HYPERLINKBASE
350
53E85D76
  3
INSUNITS
350
53E85D7C
  3
LAYOUTDICT
350
53E85D78
  3
LWETCUNION
350
53E85D7B
  3
PLOTSETDICT
350
53E85D79
  3
PLOTSTYLNAMDICT
350
53E85D7A
  3
PSVPSCALE
350
53E85D80
  3
PUCSBASE
350
53E85D83
  3
PUCSORGBACK
350
53E85D89
  3
PUCSORGBOTTOM
350
53E85D85
  3
PUCSORGFRONT
350
53E85D88
  3
PUCSORGLEFT
350
53E85D86
  3
PUCSORGRIGHT
350
53E85D87
  3
PUCSORGTOP
350
53E85D84
  3
PUCSORTHOREF
350
53E85D81
  3
PUCSORTHOVIEW
350
53E85D82
  3
STYLESHEET
350
53E85D77
  3
TSTACKALIGN
350
53E85D74
  3
TSTACKSIZE
350
53E85D75
  3
UCSBASE
350
53E85D8C
  3
UCSORGBACK
350
53E85D92
  3
UCSORGBOTTOM
350
53E85D8E
  3
UCSORGFRONT
350
53E85D91
  3
UCSORGLEFT
350
53E85D8F
  3
UCSORGRIGHT
350
53E85D90
  3
UCSORGTOP
350
53E85D8D
  3
UCSORTHOREF
350
53E85D8A
  3
UCSORTHOVIEW
350
53E85D8B
  3
VERSIONGUID
350
53E85D7F
  0
DICTIONARY
  5
53E85D70
102
{ACAD_REACTORS
330
53E85D42
102
}
330
53E85D42
100
AcDbDictionary
  3
DIMASSOC
350
53E85D71
  0
XRECORD
  5
53E85D96
102
{ACAD_REACTORS
330
53E85D95
102
}
330
53E85D95
100
AcDbXrecord
340
53E85D4E
  0
XRECORD
  5
53E85D94
102
{ACAD_REACTORS
330
53E85D93
102
}
330
53E85D93
100
AcDbXrecord
340
53E85D4B
  0
MLINESTYLE
  5
53E85D51
102
{ACAD_REACTORS
330
53E85D44
102
}
330
53E85D44
100
AcDbMlineStyle
  2
STANDARD
 70
     0
  3

 62
     0
 51
90.0
 52
90.0
 71
     2
 49
0.5
 62
   256
  6
BYLAYER
 49
-0.5
 62
   256
  6
BYLAYER
  0
ACDBPLACEHOLDER
  5
53E85D67
102
{ACAD_REACTORS
330
53E85D66
102
}
330
53E85D66
100
AcDbPlaceHolder
280
     0
  0
XRECORD
  5
53E85D7D
102
{ACAD_REACTORS
330
53E85D73
102
}
330
53E85D73
100
AcDbXrecord
 90
        0
  0
XRECORD
  5
53E85D7E
102
{ACAD_REACTORS
330
53E85D73
102
}
330
53E85D73
100
AcDbXrecord
  1
{91052360-8DB3-11D6-88E6-0090279574E7}
  0
XRECORD
  5
53E85D76
102
{ACAD_REACTORS
330
53E85D73
102
}
330
53E85D73
100
AcDbXrecord
  1

  0
XRECORD
  5
53E85D7C
102
{ACAD_REACTORS
330
53E85D73
102
}
330
53E85D73
100
AcDbXrecord
 90
        0
  0
XRECORD
  5
53E85D78
102
{ACAD_REACTORS
330
53E85D73
102
}
330
53E85D73
100
AcDbXrecord
340
53E85D68
  0
XRECORD
  5
53E85D7B
102
{ACAD_REACTORS
330
53E85D73
102
}
330
53E85D73
100
AcDbXrecord
 90
    14877
  0
XRECORD
  5
53E85D79
102
{ACAD_REACTORS
330
53E85D73
102
}
330
53E85D73
100
AcDbXrecord
340
53E85D69
  0
XRECORD
  5
53E85D7A
102
{ACAD_REACTORS
330
53E85D73
102
}
330
53E85D73
100
AcDbXrecord
340
53E85D66
  0
XRECORD
  5
53E85D80
102
{ACAD_REACTORS
330
53E85D73
102
}
330
53E85D73
100
AcDbXrecord
 40
0.0
  0
XRECORD
  5
53E85D83
102
{ACAD_REACTORS
330
53E85D73
102
}
330
53E85D73
100
AcDbXrecord
340
0
  0
XRECORD
  5
53E85D89
102
{ACAD_REACTORS
330
53E85D73
102
}
330
53E85D73
100
AcDbXrecord
 10
0.0
 20
0.0
 30
0.0
  0
XRECORD
  5
53E85D85
102
{ACAD_REACTORS
330
53E85D73
102
}
330
53E85D73
100
AcDbXrecord
 10
0.0
 20
0.0
 30
0.0
  0
XRECORD
  5
53E85D88
102
{ACAD_REACTORS
330
53E85D73
102
}
330
53E85D73
100
AcDbXrecord
 10
0.0
 20
0.0
 30
0.0
  0
XRECORD
  5
53E85D86
102
{ACAD_REACTORS
330
53E85D73
102
}
330
53E85D73
100
AcDbXrecord
 10
0.0
 20
0.0
 30
0.0
  0
XRECORD
  5
53E85D87
102
{ACAD_REACTORS
330
53E85D73
102
}
330
53E85D73
100
AcDbXrecord
 10
0.0
 20
0.0
 30
0.0
  0
XRECORD
  5
53E85D84
102
{ACAD_REACTORS
330
53E85D73
102
}
330
53E85D73
100
AcDbXrecord
 10
0.0
 20
0.0
 30
0.0
  0
XRECORD
  5
53E85D81
102
{ACAD_REACTORS
330
53E85D73
102
}
330
53E85D73
100
AcDbXrecord
340
0
  0
XRECORD
  5
53E85D82
102
{ACAD_REACTORS
330
53E85D73
102
}
330
53E85D73
100
AcDbXrecord
 70
     0
  0
XRECORD
  5
53E85D77
102
{ACAD_REACTORS
330
53E85D73
102
}
330
53E85D73
100
AcDbXrecord
  1

  0
XRECORD
  5
53E85D74
102
{ACAD_REACTORS
330
53E85D73
102
}
330
53E85D73
100
AcDbXrecord
 90
        1
  0
XRECORD
  5
53E85D75
102
{ACAD_REACTORS
330
53E85D73
102
}
330
53E85D73
100
AcDbXrecord
 90
       70
  0
XRECORD
  5
53E85D8C
102
{ACAD_REACTORS
330
53E85D73
102
}
330
53E85D73
100
AcDbXrecord
340
0
  0
XRECORD
  5
53E85D92
102
{ACAD_REACTORS
330
53E85D73
102
}
330
53E85D73
100
AcDbXrecord
 10
0.0
 20
0.0
 30
0.0
  0
XRECORD
  5
53E85D8E
102
{ACAD_REACTORS
330
53E85D73
102
}
330
53E85D73
100
AcDbXrecord
 10
0.0
 20
0.0
 30
0.0
  0
XRECORD
  5
53E85D91
102
{ACAD_REACTORS
330
53E85D73
102
}
330
53E85D73
100
AcDbXrecord
 10
0.0
 20
0.0
 30
0.0
  0
XRECORD
  5
53E85D8F
102
{ACAD_REACTORS
330
53E85D73
102
}
330
53E85D73
100
AcDbXrecord
 10
0.0
 20
0.0
 30
0.0
  0
XRECORD
  5
53E85D90
102
{ACAD_REACTORS
330
53E85D73
102
}
330
53E85D73
100
AcDbXrecord
 10
0.0
 20
0.0
 30
0.0
  0
XRECORD
  5
53E85D8D
102
{ACAD_REACTORS
330
53E85D73
102
}
330
53E85D73
100
AcDbXrecord
 10
0.0
 20
0.0
 30
0.0
  0
XRECORD
  5
53E85D8A
102
{ACAD_REACTORS
330
53E85D73
102
}
330
53E85D73
100
AcDbXrecord
340
0
  0
XRECORD
  5
53E85D8B
102
{ACAD_REACTORS
330
53E85D73
102
}
330
53E85D73
100
AcDbXrecord
 70
     0
  0
XRECORD
  5
53E85D7F
102
{ACAD_REACTORS
330
53E85D73
102
}
330
53E85D73
100
AcDbXrecord
  1
{91052362-8DB3-11D6-88E6-0090279574E7}
  0
DICTIONARYVAR
  5
53E85D71
102
{ACAD_REACTORS
330
53E85D70
102
}
330
53E85D70
100
DictionaryVariables
280
     0
  1
1
  0
ENDSEC
  0
EOF
