  0
SECTION
  2
HEADER
  9
$ACADVER
  1
AC1014
  9
$ACADMAINTVER
 70
     9
  9
$DWGCODEPAGE
  3
ANSI_1252
  9
$INSBASE
 10
2.424970225248324
 20
1.680492700692777
 30
0.0
  9
$EXTMIN
 10
0.6819886460211809
 20
0.9412240966101958
 30
0.0
  9
$EXTMAX
 10
4.167207967768309
 20
2.246705904128373
 30
0.0
  9
$LIMMIN
 10
0.0
 20
0.0
  9
$LIMMAX
 10
18.0
 20
12.0
  9
$ORTHOMODE
 70
     1
  9
$REGENMODE
 70
     1
  9
$FILLMODE
 70
     1
  9
$QTEXTMODE
 70
     0
  9
$MIRRTEXT
 70
     0
  9
$DRAGMODE
 70
     2
  9
$LTSCALE
 40
1.0
  9
$OSMODE
 70
    39
  9
$ATTMODE
 70
     1
  9
$TEXTSIZE
 40
0.125
  9
$TRACEWID
 40
0.05
  9
$TEXTSTYLE
  7
ROMANS
  9
$CLAYER
  8
0
  9
$CELTYPE
  6
BYLAYER
  9
$CECOLOR
 62
   256
  9
$CELTSCALE
 40
1.0
  9
$DELOBJ
 70
     1
  9
$DISPSILH
 70
     1
  9
$DIMSCALE
 40
1.0
  9
$DIMASZ
 40
0.125
  9
$DIMEXO
 40
0.125
  9
$DIMDLI
 40
0.375
  9
$DIMRND
 40
0.0
  9
$DIMDLE
 40
0.0
  9
$DIMEXE
 40
0.125
  9
$DIMTP
 40
0.0
  9
$DIMTM
 40
0.0
  9
$DIMTXT
 40
0.125
  9
$DIMCEN
 40
-0.125
  9
$DIMTSZ
 40
0.0
  9
$DIMTOL
 70
     0
  9
$DIMLIM
 70
     0
  9
$DIMTIH
 70
     1
  9
$DIMTOH
 70
     1
  9
$DIMSE1
 70
     0
  9
$DIMSE2
 70
     0
  9
$DIMTAD
 70
     0
  9
$DIMZIN
 70
     4
  9
$DIMBLK
  1

  9
$DIMASO
 70
     1
  9
$DIMSHO
 70
     1
  9
$DIMPOST
  1

  9
$DIMAPOST
  1

  9
$DIMALT
 70
     0
  9
$DIMALTD
 70
     2
  9
$DIMALTF
 40
25.4
  9
$DIMLFAC
 40
1.0
  9
$DIMTOFL
 70
     0
  9
$DIMTVP
 40
0.0
  9
$DIMTIX
 70
     1
  9
$DIMSOXD
 70
     0
  9
$DIMSAH
 70
     0
  9
$DIMBLK1
  1

  9
$DIMBLK2
  1

  9
$DIMSTYLE
  2
STANDARD
  9
$DIMCLRD
 70
     0
  9
$DIMCLRE
 70
     0
  9
$DIMCLRT
 70
     0
  9
$DIMTFAC
 40
1.0
  9
$DIMGAP
 40
0.09
  9
$DIMJUST
 70
     0
  9
$DIMSD1
 70
     0
  9
$DIMSD2
 70
     0
  9
$DIMTOLJ
 70
     1
  9
$DIMTZIN
 70
     4
  9
$DIMALTZ
 70
     0
  9
$DIMALTTZ
 70
     0
  9
$DIMFIT
 70
     3
  9
$DIMUPT
 70
     0
  9
$DIMUNIT
 70
     2
  9
$DIMDEC
 70
     3
  9
$DIMTDEC
 70
     3
  9
$DIMALTU
 70
     2
  9
$DIMALTTD
 70
     2
  9
$DIMTXSTY
  7
ROMANS
  9
$DIMAUNIT
 70
     0
  9
$LUNITS
 70
     2
  9
$LUPREC
 70
     3
  9
$SKETCHINC
 40
0.1
  9
$FILLETRAD
 40
0.03125
  9
$AUNITS
 70
     0
  9
$AUPREC
 70
     0
  9
$MENU
  1
ACAD
  9
$ELEVATION
 40
0.0
  9
$PELEVATION
 40
0.0
  9
$THICKNESS
 40
0.0
  9
$LIMCHECK
 70
     0
  9
$BLIPMODE
 70
     0
  9
$CHAMFERA
 40
0.0
  9
$CHAMFERB
 40
0.0
  9
$CHAMFERC
 40
0.0
  9
$CHAMFERD
 40
0.0
  9
$SKPOLY
 70
     0
  9
$TDCREATE
 40
2448993.437146528
  9
$TDUPDATE
 40
2452458.293262985
  9
$TDINDWG
 40
0.0005993634
  9
$TDUSRTIMER
 40
0.0005993634
  9
$USRTIMER
 70
     1
  9
$ANGBASE
 50
0.0
  9
$ANGDIR
 70
     0
  9
$PDMODE
 70
     0
  9
$PDSIZE
 40
0.0
  9
$PLINEWID
 40
0.0
  9
$COORDS
 70
     2
  9
$SPLFRAME
 70
     0
  9
$SPLINETYPE
 70
     6
  9
$SPLINESEGS
 70
     8
  9
$ATTDIA
 70
     0
  9
$ATTREQ
 70
     1
  9
$HANDLING
 70
 22529
  9
$HANDSEED
  5
29F4364D
  9
$SURFTAB1
 70
     6
  9
$SURFTAB2
 70
     6
  9
$SURFTYPE
 70
     6
  9
$SURFU
 70
     6
  9
$SURFV
 70
     6
  9
$UCSNAME
  2

  9
$UCSORG
 10
0.0
 20
0.0
 30
0.0
  9
$UCSXDIR
 10
1.0
 20
0.0
 30
0.0
  9
$UCSYDIR
 10
0.0
 20
1.0
 30
0.0
  9
$PUCSNAME
  2

  9
$PUCSORG
 10
0.0
 20
0.0
 30
0.0
  9
$PUCSXDIR
 10
1.0
 20
0.0
 30
0.0
  9
$PUCSYDIR
 10
0.0
 20
1.0
 30
0.0
  9
$USERI1
 70
     0
  9
$USERI2
 70
     0
  9
$USERI3
 70
     0
  9
$USERI4
 70
     0
  9
$USERI5
 70
     0
  9
$USERR1
 40
0.0
  9
$USERR2
 40
0.0
  9
$USERR3
 40
0.0
  9
$USERR4
 40
0.0
  9
$USERR5
 40
0.0
  9
$WORLDVIEW
 70
     1
  9
$SHADEDGE
 70
     3
  9
$SHADEDIF
 70
    70
  9
$TILEMODE
 70
     1
  9
$MAXACTVP
 70
    16
  9
$PINSBASE
 10
1.495941561630468
 20
50.00000000000001
 30
1.149390255270422
  9
$PLIMCHECK
 70
     0
  9
$PEXTMIN
 10
1.000000000000000E+20
 20
1.000000000000000E+20
 30
1.000000000000000E+20
  9
$PEXTMAX
 10
-1.000000000000000E+20
 20
-1.000000000000000E+20
 30
-1.000000000000000E+20
  9
$PLIMMIN
 10
0.0
 20
0.0
  9
$PLIMMAX
 10
12.0
 20
9.0
  9
$UNITMODE
 70
     0
  9
$VISRETAIN
 70
     0
  9
$PLINEGEN
 70
     1
  9
$PSLTSCALE
 70
     0
  9
$TREEDEPTH
 70
  3020
  9
$PICKSTYLE
 70
     1
  9
$CMLSTYLE
  2
STANDARD
  9
$CMLJUST
 70
     0
  9
$CMLSCALE
 40
1.0
  9
$PROXYGRAPHICS
 70
     1
  9
$MEASUREMENT
 70
     0
  0
ENDSEC
  0
SECTION
  2
CLASSES
  0
CLASS
  1
LWPOLYLINE
  2
AcDbPolyline
  3
AutoCAD 2000
 90
        0
280
     0
281
     1
  0
CLASS
  1
ACDBDICTIONARYWDFLT
  2
AcDbDictionaryWithDefault
  3
AutoCAD 2000
 90
        0
280
     0
281
     0
  0
CLASS
  1
ACDBPLACEHOLDER
  2
AcDbPlaceHolder
  3
AutoCAD 2000
 90
        0
280
     0
281
     0
  0
CLASS
  1
LAYOUT
  2
AcDbLayout
  3
AutoCAD 2000
 90
        0
280
     0
281
     0
  0
CLASS
  1
DICTIONARYVAR
  2
AcDbDictionaryVar
  3
AutoCAD 2000
 90
        0
280
     0
281
     0
  0
CLASS
  1
LONG_TRANSACTION
  2
AcDbLongTransaction
  3
AutoCAD 2000
 90
        0
280
     0
281
     0
  0
CLASS
  1
LWPOLYLINE
  2
AcDbPolyline
  3
AutoCAD 2000
 90
        0
280
     0
281
     1
  0
CLASS
  1
HATCH
  2
AcDbHatch
  3
AutoCAD 2000
 90
        0
280
     0
281
     1
  0
CLASS
  1
XRECORD
  2
AcDbXrecord
  3
AutoCAD 2000
 90
        0
280
     0
281
     0
  0
ENDSEC
  0
SECTION
  2
TABLES
  0
TABLE
  2
VPORT
  5
29F435F4
330
0
100
AcDbSymbolTable
 70
     2
  0
VPORT
  5
29F43628
330
29F435F4
100
AcDbSymbolTableRecord
100
AcDbViewportTableRecord
  2
*ACTIVE
 70
     0
 10
0.0
 20
0.0
 11
1.0
 21
1.0
 12
5.399846693018588
 22
1.594024681013571
 13
0.0
 23
0.0
 14
0.015625
 24
0.015625
 15
0.0
 25
0.0
 16
0.0
 26
0.0
 36
1.0
 17
0.0
 27
0.0
 37
0.0
 40
2.281748181188984
 41
4.320930232558139
 42
50.0
 43
0.0
 44
0.0
 50
0.0
 51
0.0
 71
     0
 72
  2000
 73
     1
 74
     0
 75
     1
 76
     0
 77
     0
 78
     0
  0
ENDTAB
  0
TABLE
  2
LTYPE
  5
29F435F1
330
0
100
AcDbSymbolTable
 70
     1
  0
LTYPE
  5
29F435FE
330
29F435F1
100
AcDbSymbolTableRecord
100
AcDbLinetypeTableRecord
  2
BYBLOCK
 70
     0
  3

 72
    65
 73
     0
 40
0.0
  0
LTYPE
  5
29F435FF
330
29F435F1
100
AcDbSymbolTableRecord
100
AcDbLinetypeTableRecord
  2
BYLAYER
 70
     0
  3

 72
    65
 73
     0
 40
0.0
  0
LTYPE
  5
29F43600
330
29F435F1
100
AcDbSymbolTableRecord
100
AcDbLinetypeTableRecord
  2
CONTINUOUS
 70
     0
  3
Solid line
 72
    65
 73
     0
 40
0.0
  0
ENDTAB
  0
TABLE
  2
LAYER
  5
29F435EE
330
0
100
AcDbSymbolTable
 70
     2
  0
LAYER
  5
29F435FB
330
29F435EE
100
AcDbSymbolTableRecord
100
AcDbLayerTableRecord
  2
0
 70
     0
 62
     7
  6
CONTINUOUS
  0
LAYER
  5
29F4360B
330
29F435EE
100
AcDbSymbolTableRecord
100
AcDbLayerTableRecord
  2
TEXT
 70
     0
 62
     3
  6
CONTINUOUS
  0
ENDTAB
  0
TABLE
  2
STYLE
  5
29F435EF
330
0
100
AcDbSymbolTable
 70
     3
  0
STYLE
  5
29F435FC
330
29F435EF
100
AcDbSymbolTableRecord
100
AcDbTextStyleTableRecord
  2
STANDARD
 70
     0
 40
0.0
 41
1.0
 50
0.0
 71
     0
 42
0.3125
  3
txt
  4

  0
STYLE
  5
29F43608
330
29F435EF
100
AcDbSymbolTableRecord
100
AcDbTextStyleTableRecord
  2
ITALICC
 70
     0
 40
0.0
 41
1.0
 50
0.0
 71
     0
 42
0.125
  3
italicc
  4

  0
STYLE
  5
29F43618
330
29F435EF
100
AcDbSymbolTableRecord
100
AcDbTextStyleTableRecord
  2
ROMANS
 70
     0
 40
0.0
 41
1.0
 50
0.0
 71
     0
 42
0.125
  3
romans.shx
  4

  0
ENDTAB
  0
TABLE
  2
VIEW
  5
29F435F2
330
0
100
AcDbSymbolTable
 70
     0
  0
ENDTAB
  0
TABLE
  2
UCS
  5
29F435F3
330
0
100
AcDbSymbolTable
 70
     0
  0
ENDTAB
  0
TABLE
  2
APPID
  5
29F435F5
330
0
100
AcDbSymbolTable
 70
     1
  0
APPID
  5
29F435FD
330
29F435F5
100
AcDbSymbolTableRecord
100
AcDbRegAppTableRecord
  2
ACAD
 70
     0
  0
ENDTAB
  0
TABLE
  2
DIMSTYLE
  5
29F435F6
330
0
100
AcDbSymbolTable
 70
     1
  0
DIMSTYLE
105
29F43610
330
29F435F6
100
AcDbSymbolTableRecord
100
AcDbDimStyleTableRecord
  2
STANDARD
 70
     0
  3

  4

  5

  6

  7

 40
1.0
 41
0.125
 42
0.125
 43
0.375
 44
0.125
 45
0.0
 46
0.0
 47
0.0
 48
0.0
140
0.125
141
-0.125
142
0.0
143
25.4
144
1.0
145
0.0
146
1.0
147
0.09
 71
     0
 72
     0
 73
     1
 74
     1
 75
     0
 76
     0
 77
     0
 78
     4
170
     0
171
     2
172
     0
173
     0
174
     1
175
     0
176
     0
177
     0
178
     0
270
     2
271
     3
272
     3
273
     2
274
     2
340
29F43618
275
     0
280
     0
281
     0
282
     0
283
     1
284
     4
285
     0
286
     0
287
     3
288
     0
  0
ENDTAB
  0
TABLE
  2
BLOCK_RECORD
  5
29F435ED
330
0
100
AcDbSymbolTable
 70
     0
  0
BLOCK_RECORD
  5
29F43604
102
{ACAD_XDICTIONARY
360
29F4364B
102
}
330
29F435ED
100
AcDbSymbolTableRecord
100
AcDbBlockTableRecord
  2
*MODEL_SPACE
  0
BLOCK_RECORD
  5
29F43601
102
{ACAD_XDICTIONARY
360
29F43649
102
}
330
29F435ED
100
AcDbSymbolTableRecord
100
AcDbBlockTableRecord
  2
*PAPER_SPACE
  0
ENDTAB
  0
ENDSEC
  0
SECTION
  2
BLOCKS
  0
BLOCK
  5
29F4360E
330
29F43604
100
AcDbEntity
  8
0
100
AcDbBlockBegin
  2
*MODEL_SPACE
 70
     0
 10
0.0
 20
0.0
 30
0.0
  3
*MODEL_SPACE
  1

  0
ENDBLK
  5
29F4360F
330
29F43604
100
AcDbEntity
  8
0
100
AcDbBlockEnd
  0
BLOCK
  5
29F4360C
330
29F43601
100
AcDbEntity
 67
     1
  8
0
100
AcDbBlockBegin
  2
*PAPER_SPACE
 70
     0
 10
0.0
 20
0.0
 30
0.0
  3
*PAPER_SPACE
  1

  0
ENDBLK
  5
29F4360D
330
29F43601
100
AcDbEntity
 67
     1
  8
0
100
AcDbBlockEnd
  0
ENDSEC
  0
SECTION
  2
ENTITIES
  0
LWPOLYLINE
  5
29F421DB
330
29F43604
100
AcDbEntity
  8
0
100
AcDbPolyline
 90
       26
 70
     1
 43
0.0
 10
2.601157725248323
 20
1.730492700692777
 10
2.611157725248324
 20
1.740492700692777
 10
2.732157725248324
 20
1.740492700692777
 10
2.732157725248324
 20
2.210492700692777
 42
-1.0
 10
2.792157725248324
 20
2.210492700692777
 10
2.792157725248324
 20
1.710492700692777
 42
-0.4142135623730951
 10
2.762157725248323
 20
1.680492700692777
 10
2.087782725248324
 20
1.680492700692777
 42
-0.4142135623730951
 10
2.057782725248324
 20
1.710492700692777
 10
2.057782725248324
 20
2.210492700692777
 42
-1.0
 10
2.117782725248324
 20
2.210492700692777
 10
2.117782725248324
 20
1.740492700692777
 10
2.238782725248324
 20
1.740492700692777
 10
2.248782725248323
 20
1.730492700692777
 10
2.258782725248324
 20
1.740492700692777
 10
2.394970225248323
 20
1.740492700692777
 10
2.394970225248323
 20
2.115492700692777
 10
2.379782725248324
 20
2.115492700692777
 10
2.379782725248324
 20
2.210492700692777
 42
-0.4142135623730951
 10
2.409782725248324
 20
2.240492700692777
 10
2.440157725248323
 20
2.240492700692777
 42
-0.4142135623730951
 10
2.470157725248323
 20
2.210492700692777
 10
2.470157725248323
 20
2.115492700692777
 10
2.454970225248324
 20
2.115492700692777
 10
2.454970225248324
 20
1.740492700692777
 10
2.591157725248323
 20
1.740492700692777
  0
TEXT
  5
29F434AF
330
29F43604
100
AcDbEntity
  8
TEXT
100
AcDbText
 10
1.671994034772133
 20
1.399242700692777
 30
0.0
 40
0.125
  1
PART #110036
  7
ITALICC
 72
     1
 11
2.424970225248324
 21
1.399242700692777
 31
0.0
100
AcDbText
  0
TEXT
  5
29F434B0
330
29F43604
100
AcDbEntity
  8
TEXT
100
AcDbText
 10
2.838275383498644
 20
0.9523200580204022
 30
0.0
 40
0.0522247191011236
  1
Phone  1-800-328-2495
 41
1.272321428571429
 72
     5
 11
4.167207967768308
 21
0.9523200580204022
 31
0.0
100
AcDbText
  0
TEXT
  5
29F434B1
330
29F43604
100
AcDbEntity
  8
TEXT
100
AcDbText
 10
2.838275383498644
 20
1.232095338919278
 30
0.0
 40
0.0522247191011236
  1
Stylmark  Incorporated
 41
1.221428571428573
 72
     5
 11
4.167207967768308
 21
1.232095338919278
 31
0.0
100
AcDbText
  0
TEXT
  5
29F434B2
330
29F43604
100
AcDbEntity
  8
TEXT
100
AcDbText
 10
2.838275383498644
 20
1.138836911952986
 30
0.0
 40
0.0522247191011236
  1
6536 Main St. N.E. * P.O. Box 32008
 41
0.8388932496075366
 72
     5
 11
4.167207967768308
 21
1.138836911952986
 31
0.0
100
AcDbText
  0
TEXT
  5
29F434B3
330
29F43604
100
AcDbEntity
  8
TEXT
100
AcDbText
 10
2.838275383498644
 20
1.045578484986694
 30
0.0
 40
0.0522247191011236
  1
Minneapolis, MN 55432-0008
 41
1.11444212721585
 72
     5
 11
4.167207967768308
 21
1.045578484986694
 31
0.0
100
AcDbText
  0
LWPOLYLINE
  5
29F434B4
330
29F43604
100
AcDbEntity
  8
TEXT
100
AcDbPolyline
 90
        3
 70
     0
 43
0.0006660908203125
 10
0.6823216914313371
 20
1.065964820657837
 10
0.6823216914313371
 20
0.9527293812047094
 10
0.7955571308844594
 20
0.9527293812047094
  0
LWPOLYLINE
  5
29F434B9
330
29F43604
100
AcDbEntity
  8
TEXT
100
AcDbPolyline
 90
        3
 70
     0
 43
0.0006660908203125
 10
0.7089653242438346
 20
1.065964820657837
 10
0.7089653242438346
 20
0.9793730140172105
 10
0.7955571308844594
 20
0.9793730140172105
  0
LWPOLYLINE
  5
29F434BE
330
29F43604
100
AcDbEntity
  8
TEXT
100
AcDbPolyline
 90
        2
 70
     0
 43
0.0001332181640625
 10
0.7555916816657114
 20
1.075956182962522
 10
0.6823216914313371
 20
1.065964820657837
  0
LWPOLYLINE
  5
29F434C2
330
29F43604
100
AcDbEntity
  8
TEXT
100
AcDbPolyline
 90
        2
 70
     0
 43
0.0001332181640625
 10
0.7089653242438346
 20
1.065964820657837
 10
0.7689134980719619
 20
1.075956182962522
  0
LWPOLYLINE
  5
29F434C6
330
29F43604
100
AcDbEntity
  8
TEXT
100
AcDbPolyline
 90
        2
 70
     0
 43
0.0001332181640625
 10
0.7089653242438346
 20
0.9793730140172105
 10
0.7689134980719619
 20
1.039321187845336
  0
LWPOLYLINE
  5
29F434CA
330
29F43604
100
AcDbEntity
  8
TEXT
100
AcDbPolyline
 90
        3
 70
     0
 43
0.0006660908203125
 10
0.7955571308844594
 20
1.219165709329712
 10
0.6823216914313371
 20
1.219165709329712
 10
0.6823216914313371
 20
1.105930269876585
  0
LWPOLYLINE
  5
29F434CF
330
29F43604
100
AcDbEntity
  8
TEXT
100
AcDbPolyline
 90
        3
 70
     0
 43
0.0006660908203125
 10
0.7955571308844594
 20
1.192522076517211
 10
0.7089653242438346
 20
1.192522076517211
 10
0.7089653242438346
 20
1.105930269876585
  0
LWPOLYLINE
  5
29F434D4
330
29F43604
100
AcDbEntity
  8
TEXT
100
AcDbPolyline
 90
        2
 70
     0
 43
0.0001332181640625
 10
0.7089653242438346
 20
1.192522076517211
 10
0.7689134980719601
 20
1.132573902689086
  0
LWPOLYLINE
  5
29F434D8
330
29F43604
100
AcDbEntity
  8
TEXT
100
AcDbPolyline
 90
        2
 70
     0
 43
0.0001332181640625
 10
0.7089653242438346
 20
1.105930269876585
 10
0.7689134980719601
 20
1.095938907571896
  0
LWPOLYLINE
  5
29F434DC
330
29F43604
100
AcDbEntity
  8
TEXT
100
AcDbPolyline
 90
        2
 70
     0
 43
0.0001332181640625
 10
0.6823216914313371
 20
1.105930269876585
 10
0.7555916816657114
 20
1.095938907571896
  0
LWPOLYLINE
  5
29F434E0
330
29F43604
100
AcDbEntity
  8
TEXT
100
AcDbPolyline
 90
        2
 70
     0
 43
0.0006660908203125
 10
0.7089653242438346
 20
1.065964820657837
 10
0.6823216914313371
 20
1.065964820657837
  0
LWPOLYLINE
  5
29F434E4
330
29F43604
100
AcDbEntity
  8
TEXT
100
AcDbPolyline
 90
        2
 70
     0
 43
0.0006660908203125
 10
0.7089653242438346
 20
1.105930269876585
 10
0.6823216914313371
 20
1.105930269876585
  0
LINE
  5
29F434E8
330
29F43604
100
AcDbEntity
  8
TEXT
100
AcDbLine
 10
2.197512120557834
 20
1.154889014672943
 30
0.0
 11
2.090305847170545
 21
1.154889014672943
 31
0.0
  0
LINE
  5
29F434E9
330
29F43604
100
AcDbEntity
  8
TEXT
100
AcDbLine
 10
2.226543018902312
 20
1.219165709329709
 30
0.0
 11
2.091711109685253
 21
1.219165709329709
 31
0.0
  0
ARC
  5
29F434EA
330
29F43604
100
AcDbEntity
  8
TEXT
100
AcDbCircle
 10
2.15102520607857
 20
1.049928460066692
 30
0.0
 40
0.0676855811441166
100
AcDbArc
 50
90.0
 51
153.7768192527749
  0
LWPOLYLINE
  5
29F434EB
330
29F43604
100
AcDbEntity
  8
TEXT
100
AcDbPolyline
 90
        2
 70
     0
 43
0.0
 10
2.089273351715735
 20
0.9961836212916363
 42
0.2901071551932823
 10
2.13234928458337
 20
0.9526926763411982
 42
5.328517124445801
  0
ARC
  5
29F434EF
330
29F43604
100
AcDbEntity
  8
TEXT
100
AcDbCircle
 10
1.445893828407085
 20
1.012485067679248
 30
0.0
 40
0.0601160179737537
100
AcDbArc
 50
180.0000000000003
 51
264.0521544866073
  0
LINE
  5
29F434F0
330
29F43604
100
AcDbEntity
  8
TEXT
100
AcDbLine
 10
1.449409184032632
 20
1.253553626923847
 30
0.0
 11
1.389366579188625
 21
1.253553626923847
 31
0.0
  0
ARC
  5
29F434F1
330
29F43604
100
AcDbEntity
  8
TEXT
100
AcDbCircle
 10
1.213634826290114
 20
1.137078249883207
 30
0.0
 40
0.0820874594465043
100
AcDbArc
 50
90.0
 51
270.0
  0
LWPOLYLINE
  5
29F434F2
330
29F43604
100
AcDbEntity
  8
TEXT
100
AcDbPolyline
 90
        2
 70
     0
 43
0.0001332181640625
 10
0.8055484931891498
 20
1.145895719095333
 10
0.7955571308844594
 20
1.219165709329712
  0
LWPOLYLINE
  5
29F434F6
330
29F43604
100
AcDbEntity
  8
TEXT
100
AcDbPolyline
 90
        2
 70
     0
 43
0.0001332181640625
 10
0.7955571308844594
 20
1.192522076517211
 10
0.8055484931891498
 20
1.132573902689086
  0
LWPOLYLINE
  5
29F434FA
330
29F43604
100
AcDbEntity
  8
TEXT
100
AcDbPolyline
 90
        3
 70
     0
 43
0.0006660908203125
 10
0.9487580195563367
 20
1.105930269876585
 10
0.9487580195563367
 20
1.219165709329712
 10
0.8355225801032108
 20
1.219165709329712
  0
LWPOLYLINE
  5
29F434FF
330
29F43604
100
AcDbEntity
  8
TEXT
100
AcDbPolyline
 90
        3
 70
     0
 43
0.0006660908203125
 10
0.9221143867438357
 20
1.105930269876585
 10
0.9221143867438357
 20
1.192522076517211
 10
0.8355225801032108
 20
1.192522076517211
  0
LWPOLYLINE
  5
29F43504
330
29F43604
100
AcDbEntity
  8
TEXT
100
AcDbPolyline
 90
        2
 70
     0
 43
0.0001332181640625
 10
0.9221143867438357
 20
1.192522076517211
 10
0.8621662129157119
 20
1.132573902689086
  0
LWPOLYLINE
  5
29F43508
330
29F43604
100
AcDbEntity
  8
TEXT
100
AcDbPolyline
 90
        2
 70
     0
 43
0.0001332181640625
 10
0.8355225801032108
 20
1.192522076517211
 10
0.8255312177985221
 20
1.132573902689086
  0
LWPOLYLINE
  5
29F4350C
330
29F43604
100
AcDbEntity
  8
TEXT
100
AcDbPolyline
 90
        2
 70
     0
 43
0.0001332181640625
 10
0.8355225801032108
 20
1.219165709329712
 10
0.8255312177985221
 20
1.145895719095333
  0
LWPOLYLINE
  5
29F43510
330
29F43604
100
AcDbEntity
  8
TEXT
100
AcDbPolyline
 90
        2
 70
     0
 43
0.0001332181640625
 10
0.8754880293219606
 20
1.095938907571896
 10
0.9487580195563367
 20
1.105930269876585
  0
LWPOLYLINE
  5
29F43514
330
29F43604
100
AcDbEntity
  8
TEXT
100
AcDbPolyline
 90
        2
 70
     0
 43
0.0001332181640625
 10
0.9221143867438357
 20
1.105930269876585
 10
0.8621662129157119
 20
1.095938907571896
  0
LWPOLYLINE
  5
29F43518
330
29F43604
100
AcDbEntity
  8
TEXT
100
AcDbPolyline
 90
        2
 70
     0
 43
0.0001332181640625
 10
0.9487580195563367
 20
1.065964820657837
 10
0.8754880293219606
 20
1.075956182962522
  0
LWPOLYLINE
  5
29F4351C
330
29F43604
100
AcDbEntity
  8
TEXT
100
AcDbPolyline
 90
        2
 70
     0
 43
0.0001332181640625
 10
0.9221143867438357
 20
1.065964820657837
 10
0.8621662129157119
 20
1.075956182962522
  0
LWPOLYLINE
  5
29F43520
330
29F43604
100
AcDbEntity
  8
TEXT
100
AcDbPolyline
 90
        2
 70
     0
 43
0.0001332181640625
 10
0.9221143867438357
 20
0.9793730140172105
 10
0.8621662129157119
 20
1.039321187845336
  0
LWPOLYLINE
  5
29F43524
330
29F43604
100
AcDbEntity
  8
TEXT
100
AcDbPolyline
 90
        3
 70
     0
 43
0.0006660908203125
 10
0.8355225801032108
 20
0.9793730140172105
 10
0.9221143867438357
 20
0.9793730140172105
 10
0.9221143867438357
 20
1.065964820657837
  0
LWPOLYLINE
  5
29F43529
330
29F43604
100
AcDbEntity
  8
TEXT
100
AcDbPolyline
 90
        3
 70
     0
 43
0.0006660908203125
 10
0.8355225801032108
 20
0.9527293812047094
 10
0.9487580195563367
 20
0.9527293812047094
 10
0.9487580195563367
 20
1.065964820657837
  0
LWPOLYLINE
  5
29F4352E
330
29F43604
100
AcDbEntity
  8
TEXT
100
AcDbPolyline
 90
        5
 70
     0
 43
0.0001332181640625
 10
0.8055484931891498
 20
1.025999371439085
 10
0.8055484931891498
 20
1.039321187845336
 10
0.7689134980719619
 20
1.039321187845336
 10
0.7689134980719619
 20
1.075956182962522
 10
0.7555916816657114
 20
1.075956182962522
  0
LWPOLYLINE
  5
29F43535
330
29F43604
100
AcDbEntity
  8
TEXT
100
AcDbPolyline
 90
        2
 70
     0
 43
0.0006660908203125
 10
0.7955571308844594
 20
0.9793730140172105
 10
0.7955571308844594
 20
0.9527293812047094
  0
LWPOLYLINE
  5
29F43539
330
29F43604
100
AcDbEntity
  8
TEXT
100
AcDbPolyline
 90
        2
 70
     0
 43
0.0001332181640625
 10
0.7955571308844594
 20
0.9793730140172105
 10
0.8055484931891498
 20
1.039321187845336
  0
LWPOLYLINE
  5
29F4353D
330
29F43604
100
AcDbEntity
  8
TEXT
100
AcDbPolyline
 90
        2
 70
     0
 43
0.0001332181640625
 10
0.7955571308844594
 20
0.9527293812047094
 10
0.8055484931891498
 20
1.025999371439085
  0
LWPOLYLINE
  5
29F43541
330
29F43604
100
AcDbEntity
  8
TEXT
100
AcDbPolyline
 90
        5
 70
     0
 43
0.0001332181640625
 10
0.7555916816657114
 20
1.095938907571896
 10
0.7689134980719601
 20
1.095938907571896
 10
0.7689134980719601
 20
1.132573902689086
 10
0.8055484931891498
 20
1.132573902689086
 10
0.8055484931891498
 20
1.145895719095333
  0
LWPOLYLINE
  5
29F43548
330
29F43604
100
AcDbEntity
  8
TEXT
100
AcDbPolyline
 90
        5
 70
     0
 43
0.0001332181640625
 10
0.8255312177985221
 20
1.145895719095333
 10
0.8255312177985221
 20
1.132573902689086
 10
0.8621662129157119
 20
1.132573902689086
 10
0.8621662129157119
 20
1.095938907571896
 10
0.8754880293219606
 20
1.095938907571896
  0
LWPOLYLINE
  5
29F4354F
330
29F43604
100
AcDbEntity
  8
TEXT
100
AcDbPolyline
 90
        2
 70
     0
 43
0.0001332181640625
 10
0.8355225801032108
 20
0.9793730140172105
 10
0.8255312177985221
 20
1.039321187845336
  0
LWPOLYLINE
  5
29F43553
330
29F43604
100
AcDbEntity
  8
TEXT
100
AcDbPolyline
 90
        2
 70
     0
 43
0.0001332181640625
 10
0.8255312177985221
 20
1.025999371439085
 10
0.8355225801032108
 20
0.9527293812047094
  0
LWPOLYLINE
  5
29F43557
330
29F43604
100
AcDbEntity
  8
TEXT
100
AcDbPolyline
 90
        2
 70
     0
 43
0.0006660908203125
 10
0.8355225801032108
 20
0.9793730140172105
 10
0.8355225801032108
 20
0.9527293812047094
  0
LWPOLYLINE
  5
29F4355B
330
29F43604
100
AcDbEntity
  8
TEXT
100
AcDbPolyline
 90
        5
 70
     0
 43
0.0001332181640625
 10
0.8754880293219606
 20
1.075956182962522
 10
0.8621662129157119
 20
1.075956182962522
 10
0.8621662129157119
 20
1.039321187845336
 10
0.8255312177985221
 20
1.039321187845336
 10
0.8255312177985221
 20
1.025999371439085
  0
LWPOLYLINE
  5
29F43562
330
29F43604
100
AcDbEntity
  8
TEXT
100
AcDbPolyline
 90
        2
 70
     0
 43
0.0006660908203125
 10
0.9221143867438357
 20
1.105930269876585
 10
0.9487580195563367
 20
1.105930269876585
  0
LWPOLYLINE
  5
29F43566
330
29F43604
100
AcDbEntity
  8
TEXT
100
AcDbPolyline
 90
        2
 70
     0
 43
0.0006660908203125
 10
0.9221143867438357
 20
1.065964820657837
 10
0.9487580195563367
 20
1.065964820657837
  0
LINE
  5
29F4356A
330
29F43604
100
AcDbEntity
  8
TEXT
100
AcDbLine
 10
1.218872156404361
 20
1.154889014672943
 30
0.0
 11
1.385777810433332
 21
1.154889014672943
 31
0.0
  0
LINE
  5
29F4356B
330
29F43604
100
AcDbEntity
  8
TEXT
100
AcDbLine
 10
1.284472292648662
 20
1.119084293062315
 30
0.0
 11
1.218872156404361
 21
1.119084293062315
 31
0.0
  0
LINE
  5
29F4356C
330
29F43604
100
AcDbEntity
  8
TEXT
100
AcDbLine
 10
1.13154736684361
 20
0.9526926763411982
 30
0.0
 11
1.284472292648662
 21
0.9526926763411982
 31
0.0
  0
LINE
  5
29F4356D
330
29F43604
100
AcDbEntity
  8
TEXT
100
AcDbLine
 10
1.289412666554942
 20
1.021049682674637
 30
0.0
 11
1.131547366843608
 21
1.021049682674637
 31
0.0
  0
LINE
  5
29F4356E
330
29F43604
100
AcDbEntity
  8
TEXT
100
AcDbLine
 10
1.213634826290113
 20
1.054990790436702
 30
0.0
 11
1.289412666554942
 21
1.054990790436702
 31
0.0
  0
ARC
  5
29F4356F
330
29F43604
100
AcDbEntity
  8
TEXT
100
AcDbCircle
 10
1.218872156404362
 20
1.136986653867631
 30
0.0
 40
0.017902360805315
100
AcDbArc
 50
90.0
 51
270.0
  0
LINE
  5
29F43570
330
29F43604
100
AcDbEntity
  8
TEXT
100
AcDbLine
 10
1.131547366843608
 20
1.021049682674637
 30
0.0
 11
1.13154736684361
 21
0.9526926763411982
 31
0.0
  0
LINE
  5
29F43571
330
29F43604
100
AcDbEntity
  8
TEXT
100
AcDbLine
 10
1.385777810433332
 20
1.154889014672943
 30
0.0
 11
1.385777810433332
 21
1.012485067679248
 31
0.0
  0
ARC
  5
29F43572
330
29F43604
100
AcDbEntity
  8
TEXT
100
AcDbCircle
 10
1.284472292648663
 20
1.035888484701755
 30
0.0
 40
0.0831958083605586
100
AcDbArc
 50
270.0
 51
90.0
  0
ARC
  5
29F43573
330
29F43604
100
AcDbEntity
  8
TEXT
100
AcDbCircle
 10
1.289412666554943
 20
1.038020236555671
 30
0.0
 40
0.0169705538810321
100
AcDbArc
 50
270.0
 51
90.0
  0
LWPOLYLINE
  5
29F43574
330
29F43604
100
AcDbEntity
  8
TEXT
100
AcDbPolyline
 90
        2
 70
     0
 43
0.0006660908203125
 10
0.7955571308844594
 20
1.192522076517211
 10
0.7955571308844594
 20
1.219165709329712
  0
LWPOLYLINE
  5
29F43578
330
29F43604
100
AcDbEntity
  8
TEXT
100
AcDbPolyline
 90
        2
 70
     0
 43
0.0006660908203125
 10
0.8355225801032108
 20
1.192522076517211
 10
0.8355225801032108
 20
1.219165709329712
  0
LINE
  5
29F4357C
330
29F43604
100
AcDbEntity
  8
TEXT
100
AcDbLine
 10
1.389366579188625
 20
1.219165709329709
 30
0.0
 11
1.213634826290113
 21
1.219165709329709
 31
0.0
  0
LINE
  5
29F4357D
330
29F43604
100
AcDbEntity
  8
TEXT
100
AcDbLine
 10
1.389366579188625
 20
1.253553626923847
 30
0.0
 11
1.389366579188625
 21
1.219165709329709
 31
0.0
  0
LINE
  5
29F4357E
330
29F43604
100
AcDbEntity
  8
TEXT
100
AcDbLine
 10
1.579838471208478
 20
1.118293713216588
 30
0.0
 11
1.52120815017654
 21
1.219165709329709
 31
0.0
  0
LINE
  5
29F4357F
330
29F43604
100
AcDbEntity
  8
TEXT
100
AcDbLine
 10
1.638587034014343
 20
1.219165709329709
 30
0.0
 11
1.579838471208478
 21
1.118293713216588
 31
0.0
  0
LINE
  5
29F43580
330
29F43604
100
AcDbEntity
  8
TEXT
100
AcDbLine
 10
1.735517659374084
 20
1.035080514444197
 30
0.0
 11
1.735517659374084
 21
1.287177187068519
 31
0.0
  0
LINE
  5
29F43581
330
29F43604
100
AcDbEntity
  8
TEXT
100
AcDbLine
 10
1.767829513511744
 20
1.219165709329709
 30
0.0
 11
1.767829513511744
 21
1.018301502597301
 31
0.0
  0
LINE
  5
29F43582
330
29F43604
100
AcDbEntity
  8
TEXT
100
AcDbLine
 10
1.767829513511744
 20
1.018301502597301
 30
0.0
 11
1.750835876627143
 21
1.018301502597301
 31
0.0
  0
LINE
  5
29F43583
330
29F43604
100
AcDbEntity
  8
TEXT
100
AcDbLine
 10
1.736657232870279
 20
0.9526926763411982
 30
0.0
 11
1.834660566569714
 21
0.9526926763411982
 31
0.0
  0
LINE
  5
29F43584
330
29F43604
100
AcDbEntity
  8
TEXT
100
AcDbLine
 10
1.570238234211523
 20
0.9726511824462111
 30
0.0
 11
1.667537940304968
 21
1.137001393381479
 31
0.0
  0
ARC
  5
29F43585
330
29F43604
100
AcDbEntity
  8
TEXT
100
AcDbCircle
 10
1.536194674299309
 20
0.9922403986148939
 30
0.0
 40
0.0392772371940762
100
AcDbArc
 50
270.1604552698595
 51
330.0831797321295
  0
LINE
  5
29F43586
330
29F43604
100
AcDbEntity
  8
TEXT
100
AcDbLine
 10
1.439664417913438
 20
0.9526926763411982
 30
0.0
 11
1.536304668988432
 21
0.9529633154394804
 31
0.0
  0
LWPOLYLINE
  5
29F43587
330
29F43604
100
AcDbEntity
  8
TEXT
100
AcDbPolyline
 90
        6
 70
     1
 43
0.0
 10
1.482188221488588
 20
1.154889014672943
 10
1.45187162726838
 20
1.154889014672943
 10
1.45187162726838
 20
1.031778016618049
 42
0.407328721240804
 10
1.463415278429856
 20
1.019959101941663
 10
1.524036977474587
 20
1.019959101941663
 10
1.541502317881905
 20
1.052771330985142
  0
LINE
  5
29F4358F
330
29F43604
100
AcDbEntity
  8
TEXT
100
AcDbLine
 10
1.667537940304968
 20
1.137001393381479
 30
0.0
 11
1.667537940304968
 21
1.004244018556122
 31
0.0
  0
ARC
  5
29F43590
330
29F43604
100
AcDbEntity
  8
TEXT
100
AcDbCircle
 10
1.750835876627141
 20
1.033683308840726
 30
0.0
 40
0.0153818062434269
100
AcDbArc
 50
174.7883570302258
 51
270.0
  0
LWPOLYLINE
  5
29F43591
330
29F43604
100
AcDbEntity
  8
TEXT
100
AcDbPolyline
 90
        2
 70
     0
 43
0.0
 10
1.667537940304966
 20
1.004244018556126
 42
0.3318488747599744
 10
1.736657232870279
 20
0.9526926763411982
 42
-6.868794160588311
  0
LINE
  5
29F43595
330
29F43604
100
AcDbEntity
  8
TEXT
100
AcDbLine
 10
1.892049635558975
 20
0.9526926763411982
 30
0.0
 11
1.959107682340815
 21
0.9526926763411982
 31
0.0
  0
LINE
  5
29F43596
330
29F43604
100
AcDbEntity
  8
TEXT
100
AcDbLine
 10
1.892049635558975
 20
1.147335225506833
 30
0.0
 11
1.892049635558975
 21
0.9526926763411982
 31
0.0
  0
LINE
  5
29F43597
330
29F43604
100
AcDbEntity
  8
TEXT
100
AcDbLine
 10
1.834660566569714
 20
1.154889014672943
 30
0.0
 11
1.884495846392861
 21
1.154889014672943
 31
0.0
  0
LINE
  5
29F43598
330
29F43604
100
AcDbEntity
  8
TEXT
100
AcDbLine
 10
1.834660566569714
 20
0.9526926763411982
 30
0.0
 11
1.834660566569714
 21
1.154889014672943
 31
0.0
  0
LWPOLYLINE
  5
29F43599
330
29F43604
100
AcDbEntity
  8
TEXT
100
AcDbPolyline
 90
        2
 70
     0
 43
0.0
 10
1.88449584639286
 20
1.154889014672943
 42
-0.4142135623731017
 10
1.892049635558973
 20
1.147335225506833
 42
-0.9999999999999998
  0
LINE
  5
29F4359D
330
29F43604
100
AcDbEntity
  8
TEXT
100
AcDbLine
 10
2.090305847170545
 20
1.154889014672943
 30
0.0
 11
2.090305847170545
 21
1.079836608598737
 31
0.0
  0
LINE
  5
29F4359E
330
29F43604
100
AcDbEntity
  8
TEXT
100
AcDbLine
 10
1.959107682340815
 20
1.154889014672943
 30
0.0
 11
2.013241279261765
 21
1.154889014672943
 31
0.0
  0
LINE
  5
29F4359F
330
29F43604
100
AcDbEntity
  8
TEXT
100
AcDbLine
 10
1.959107682340815
 20
0.9526926763411982
 30
0.0
 11
1.959107682340815
 21
1.154889014672943
 31
0.0
  0
LWPOLYLINE
  5
29F435A0
330
29F43604
100
AcDbEntity
  8
TEXT
100
AcDbPolyline
 90
        2
 70
     0
 43
0.0
 10
2.013241279261763
 20
1.154889014672943
 42
-0.4142135623731017
 10
2.020795068427877
 20
1.147335225506833
 42
-0.9999999999999998
  0
LWPOLYLINE
  5
29F435A4
330
29F43604
100
AcDbEntity
  8
TEXT
100
AcDbPolyline
 90
        4
 70
     0
 43
0.0
 10
2.020795068427877
 20
1.147335225506833
 10
2.020795068427877
 20
0.9526926763411982
 10
2.089273351715735
 20
0.9526926763411982
 10
2.089273351715735
 20
0.9961836212916363
 42
-1.714843617202739
  0
LINE
  5
29F435AA
330
29F43604
100
AcDbEntity
  8
TEXT
100
AcDbLine
 10
1.449409184032632
 20
1.219165709329709
 30
0.0
 11
1.449409184032632
 21
1.253553626923847
 31
0.0
  0
LINE
  5
29F435AB
330
29F43604
100
AcDbEntity
  8
TEXT
100
AcDbLine
 10
1.52120815017654
 20
1.219165709329709
 30
0.0
 11
1.449409184032632
 21
1.219165709329709
 31
0.0
  0
LINE
  5
29F435AC
330
29F43604
100
AcDbEntity
  8
TEXT
100
AcDbLine
 10
1.668708946807719
 20
1.219165709329709
 30
0.0
 11
1.638587034014343
 21
1.219165709329709
 31
0.0
  0
LINE
  5
29F435AD
330
29F43604
100
AcDbEntity
  8
TEXT
100
AcDbLine
 10
1.668708946807719
 20
1.287177187068519
 30
0.0
 11
1.668708946807719
 21
1.219165709329709
 31
0.0
  0
LINE
  5
29F435AE
330
29F43604
100
AcDbEntity
  8
TEXT
100
AcDbLine
 10
1.735517659374084
 20
1.287177187068519
 30
0.0
 11
1.668708946807719
 21
1.287177187068519
 31
0.0
  0
LWPOLYLINE
  5
29F435AF
330
29F43604
100
AcDbEntity
  8
TEXT
100
AcDbPolyline
 90
        3
 70
     0
 43
0.0
 10
2.055929418972087
 20
1.219165709329712
 10
1.937629260156042
 20
1.219165709329712
 10
1.937629260156042
 20
1.191998212568816
 42
-1.960274751411753
  0
LINE
  5
29F435B4
330
29F43604
100
AcDbEntity
  8
TEXT
100
AcDbLine
 10
1.901847569442881
 20
1.219165709329709
 30
0.0
 11
1.767829513511744
 21
1.219165709329709
 31
0.0
  0
LWPOLYLINE
  5
29F435B5
330
29F43604
100
AcDbEntity
  8
TEXT
100
AcDbPolyline
 90
        2
 70
     0
 43
0.0
 10
1.901847569442881
 20
1.219165709329712
 42
-0.3328679258950098
 10
1.937629260156042
 20
1.191998212568816
 42
6.772930709997214
  0
LINE
  5
29F435B9
330
29F43604
100
AcDbEntity
  8
TEXT
100
AcDbLine
 10
2.091711109685253
 20
1.219165709329709
 30
0.0
 11
2.091711109685253
 21
1.190843163560065
 31
0.0
  0
LWPOLYLINE
  5
29F435BA
330
29F43604
100
AcDbEntity
  8
TEXT
100
AcDbPolyline
 90
        2
 70
     0
 43
0.0
 10
2.055929418972087
 20
1.219165709329712
 42
-0.3277054968067132
 10
2.091711109685252
 20
1.190843163560068
 42
6.667889725900311
  0
LINE
  5
29F435BE
330
29F43604
100
AcDbEntity
  8
TEXT
100
AcDbLine
 10
2.305502957777354
 20
1.113953730776281
 30
0.0
 11
2.261752186595452
 21
1.196204006772427
 31
0.0
  0
LINE
  5
29F435BF
330
29F43604
100
AcDbEntity
  8
TEXT
100
AcDbLine
 10
2.305502957777354
 20
1.219165709329709
 30
0.0
 11
2.305502957777354
 21
1.113953730776281
 31
0.0
  0
LINE
  5
29F435C0
330
29F43604
100
AcDbEntity
  8
TEXT
100
AcDbLine
 10
2.533186696715723
 20
1.143300382918171
 30
0.0
 11
2.533186696715723
 21
1.284629915097309
 31
0.0
  0
LINE
  5
29F435C1
330
29F43604
100
AcDbEntity
  8
TEXT
100
AcDbLine
 10
2.580284855271707
 20
1.219165709329709
 30
0.0
 11
2.533186696715723
 21
1.143300382918171
 31
0.0
  0
LINE
  5
29F435C2
330
29F43604
100
AcDbEntity
  8
TEXT
100
AcDbLine
 10
2.59071957203563
 20
1.109272466388735
 30
0.0
 11
2.655276688001335
 21
1.219165709329709
 31
0.0
  0
LINE
  5
29F435C3
330
29F43604
100
AcDbEntity
  8
TEXT
100
AcDbLine
 10
2.469351705492949
 20
0.9526926763411982
 30
0.0
 11
2.53372988981157
 21
0.9526926763411982
 31
0.0
  0
LWPOLYLINE
  5
29F435C4
330
29F43604
100
AcDbEntity
  8
TEXT
100
AcDbPolyline
 90
        2
 70
     0
 43
0.0
 10
2.309442635082391
 20
0.9961836212916363
 42
-0.2901071551932486
 10
2.266366702214747
 20
0.9526926763411982
 42
-5.328517124445184
  0
ARC
  5
29F435C8
330
29F43604
100
AcDbEntity
  8
TEXT
100
AcDbCircle
 10
2.197512120557832
 20
1.126529639672946
 30
0.0
 40
0.028359375
100
AcDbArc
 50
25.78218179591245
 51
90.0
  0
LINE
  5
29F435C9
330
29F43604
100
AcDbEntity
  8
TEXT
100
AcDbLine
 10
2.233313195861955
 20
1.117614041210811
 30
0.0
 11
2.223048435448391
 21
1.138864580783505
 31
0.0
  0
LINE
  5
29F435CA
330
29F43604
100
AcDbEntity
  8
TEXT
100
AcDbLine
 10
2.151025206078572
 20
1.117614041210811
 30
0.0
 11
2.233313195861955
 21
1.117614041210811
 31
0.0
  0
LWPOLYLINE
  5
29F435CB
330
29F43604
100
AcDbEntity
  8
TEXT
100
AcDbPolyline
 90
        4
 70
     1
 43
0.0
 10
2.246244237144854
 20
1.055656654325223
 10
2.157583918484996
 20
1.055656654325223
 42
0.9999999999999998
 10
2.157583918484996
 20
1.013258113821362
 10
2.246244237144854
 20
1.013258113821362
 42
1.0
  0
LWPOLYLINE
  5
29F435D1
330
29F43604
100
AcDbEntity
  8
TEXT
100
AcDbPolyline
 90
        2
 70
     0
 43
0.0
 10
2.13234928458337
 20
0.9526926763411982
 10
2.266366702214747
 20
0.9526926763411982
 42
0.9999999999999998
  0
LINE
  5
29F435D5
330
29F43604
100
AcDbEntity
  8
TEXT
100
AcDbLine
 10
2.392703724200386
 20
1.154889014672943
 30
0.0
 11
2.469351705492944
 21
1.154889014672943
 31
0.0
  0
LINE
  5
29F435D6
330
29F43604
100
AcDbEntity
  8
TEXT
100
AcDbLine
 10
2.469351705492944
 20
1.154889014672943
 30
0.0
 11
2.469351705492949
 21
0.9526926763411982
 31
0.0
  0
ARC
  5
29F435D7
330
29F43604
100
AcDbEntity
  8
TEXT
100
AcDbCircle
 10
2.392703724200385
 20
1.129983139390281
 30
0.0
 40
0.0249058752826653
100
AcDbArc
 50
89.99971217465335
 51
179.9999999999985
  0
LINE
  5
29F435D8
330
29F43604
100
AcDbEntity
  8
TEXT
100
AcDbLine
 10
2.367797848917727
 20
0.9526926763411982
 30
0.0
 11
2.367797848917722
 21
1.129983181772666
 31
0.0
  0
LWPOLYLINE
  5
29F435D9
330
29F43604
100
AcDbEntity
  8
TEXT
100
AcDbPolyline
 90
        2
 70
     0
 43
0.0
 10
2.309442635082391
 20
0.9526926763411982
 10
2.367797848917725
 20
0.9526926763411982
  0
LWPOLYLINE
  5
29F435DD
330
29F43604
100
AcDbEntity
  8
TEXT
100
AcDbPolyline
 90
        2
 70
     0
 43
0.0
 10
2.309442635082391
 20
0.9961836212916363
 10
2.309442635082391
 20
0.9526926763411982
  0
LINE
  5
29F435E1
330
29F43604
100
AcDbEntity
  8
TEXT
100
AcDbLine
 10
2.68621179539924
 20
0.9526926763411982
 30
0.0
 11
2.59071957203563
 21
1.109272466388735
 31
0.0
  0
LINE
  5
29F435E2
330
29F43604
100
AcDbEntity
  8
TEXT
100
AcDbLine
 10
2.609633423023034
 20
0.9526926763411982
 30
0.0
 11
2.68621179539924
 21
0.9526926763411982
 31
0.0
  0
LINE
  5
29F435E3
330
29F43604
100
AcDbEntity
  8
TEXT
100
AcDbLine
 10
2.53372988981157
 20
1.084272244817378
 30
0.0
 11
2.609633423023034
 21
0.9526926763411982
 31
0.0
  0
LINE
  5
29F435E4
330
29F43604
100
AcDbEntity
  8
TEXT
100
AcDbLine
 10
2.53372988981157
 20
0.9526926763411982
 30
0.0
 11
2.53372988981157
 21
1.084272244817378
 31
0.0
  0
LINE
  5
29F435E5
330
29F43604
100
AcDbEntity
  8
TEXT
100
AcDbLine
 10
2.533186696715723
 20
1.284629915097309
 30
0.0
 11
2.464871818166449
 21
1.284629915097309
 31
0.0
  0
ARC
  5
29F435E6
330
29F43604
100
AcDbEntity
  8
TEXT
100
AcDbCircle
 10
2.224516079125243
 20
1.177582142208806
 30
0.0
 40
0.0416329381542859
100
AcDbArc
 50
26.56974201007528
 51
87.20939649401342
  0
LINE
  5
29F435E7
330
29F43604
100
AcDbEntity
  8
TEXT
100
AcDbLine
 10
2.369399864076854
 20
1.219165709329709
 30
0.0
 11
2.305502957777354
 21
1.219165709329709
 31
0.0
  0
LINE
  5
29F435E8
330
29F43604
100
AcDbEntity
  8
TEXT
100
AcDbLine
 10
2.369399864076854
 20
1.191618059468834
 30
0.0
 11
2.369399864076854
 21
1.219165709329709
 31
0.0
  0
ARC
  5
29F435E9
330
29F43604
100
AcDbEntity
  8
TEXT
100
AcDbCircle
 10
2.400592681139962
 20
1.187919982047444
 30
0.0
 40
0.0314112657011332
100
AcDbArc
 50
95.88484768694724
 51
173.2388340632136
  0
LINE
  5
29F435EA
330
29F43604
100
AcDbEntity
  8
TEXT
100
AcDbLine
 10
2.464871818166444
 20
1.219165709329709
 30
0.0
 11
2.397372100516927
 21
1.219165709329709
 31
0.0
  0
LINE
  5
29F435EB
330
29F43604
100
AcDbEntity
  8
TEXT
100
AcDbLine
 10
2.464871818166449
 20
1.284629915097309
 30
0.0
 11
2.464871818166444
 21
1.219165709329709
 31
0.0
  0
LINE
  5
29F435EC
330
29F43604
100
AcDbEntity
  8
TEXT
100
AcDbLine
 10
2.655276688001335
 20
1.219165709329709
 30
0.0
 11
2.580284855271709
 21
1.219165709329709
 31
0.0
  0
ENDSEC
  0
SECTION
  2
OBJECTS
  0
DICTIONARY
  5
29F435F8
330
0
100
AcDbDictionary
  3
ACAD_GROUP
350
29F435F9
  3
ACAD_LAYOUT
350
29F4361E
  3
ACAD_MLINESTYLE
350
29F435FA
  3
ACAD_PLOTSETTINGS
350
29F4361F
  3
ACAD_PLOTSTYLENAME
350
29F4361C
  3
ACDBHEADERROUNDTRIPXREC
350
29F43629
  3
ACDBVARIABLEDICTIONARY
350
29F43626
  0
DICTIONARY
  5
29F4364B
330
29F43604
100
AcDbDictionary
280
     1
  3
ACAD_LAYOUTSELFREF
360
29F4364C
  0
DICTIONARY
  5
29F43649
330
29F43601
100
AcDbDictionary
280
     1
  3
ACAD_LAYOUTSELFREF
360
29F4364A
  0
DICTIONARY
  5
29F435F9
102
{ACAD_REACTORS
330
29F435F8
102
}
330
29F435F8
100
AcDbDictionary
  0
DICTIONARY
  5
29F4361E
102
{ACAD_REACTORS
330
29F435F8
102
}
330
29F435F8
100
AcDbDictionary
  0
DICTIONARY
  5
29F435FA
102
{ACAD_REACTORS
330
29F435F8
102
}
330
29F435F8
100
AcDbDictionary
  3
STANDARD
350
29F43607
  0
DICTIONARY
  5
29F4361F
102
{ACAD_REACTORS
330
29F435F8
102
}
330
29F435F8
100
AcDbDictionary
  0
ACDBDICTIONARYWDFLT
  5
29F4361C
102
{ACAD_REACTORS
330
29F435F8
102
}
330
29F435F8
100
AcDbDictionary
281
     1
  3
Normal
350
29F4361D
100
AcDbDictionaryWithDefault
340
29F4361D
  0
DICTIONARY
  5
29F43629
102
{ACAD_REACTORS
330
29F435F8
102
}
330
29F435F8
100
AcDbDictionary
  3
CEPSNTYPE
350
29F43633
  3
FINGERPRINTGUID
350
29F43634
  3
HYPERLINKBASE
350
29F4362C
  3
INSUNITS
350
29F43632
  3
LAYOUTDICT
350
29F4362E
  3
LWETCUNION
350
29F43631
  3
PLOTSETDICT
350
29F4362F
  3
PLOTSTYLNAMDICT
350
29F43630
  3
PSVPSCALE
350
29F43636
  3
PUCSBASE
350
29F43639
  3
PUCSORGBACK
350
29F4363F
  3
PUCSORGBOTTOM
350
29F4363B
  3
PUCSORGFRONT
350
29F4363E
  3
PUCSORGLEFT
350
29F4363C
  3
PUCSORGRIGHT
350
29F4363D
  3
PUCSORGTOP
350
29F4363A
  3
PUCSORTHOREF
350
29F43637
  3
PUCSORTHOVIEW
350
29F43638
  3
STYLESHEET
350
29F4362D
  3
TSTACKALIGN
350
29F4362A
  3
TSTACKSIZE
350
29F4362B
  3
UCSBASE
350
29F43642
  3
UCSORGBACK
350
29F43648
  3
UCSORGBOTTOM
350
29F43644
  3
UCSORGFRONT
350
29F43647
  3
UCSORGLEFT
350
29F43645
  3
UCSORGRIGHT
350
29F43646
  3
UCSORGTOP
350
29F43643
  3
UCSORTHOREF
350
29F43640
  3
UCSORTHOVIEW
350
29F43641
  3
VERSIONGUID
350
29F43635
  0
DICTIONARY
  5
29F43626
102
{ACAD_REACTORS
330
29F435F8
102
}
330
29F435F8
100
AcDbDictionary
  3
DIMASSOC
350
29F43627
  0
XRECORD
  5
29F4364C
102
{ACAD_REACTORS
330
29F4364B
102
}
330
29F4364B
100
AcDbXrecord
340
29F43604
  0
XRECORD
  5
29F4364A
102
{ACAD_REACTORS
330
29F43649
102
}
330
29F43649
100
AcDbXrecord
340
29F43601
  0
MLINESTYLE
  5
29F43607
102
{ACAD_REACTORS
330
29F435FA
102
}
330
29F435FA
100
AcDbMlineStyle
  2
STANDARD
 70
     0
  3

 62
     0
 51
90.0
 52
90.0
 71
     2
 49
0.5
 62
   256
  6
BYLAYER
 49
-0.5
 62
   256
  6
BYLAYER
  0
ACDBPLACEHOLDER
  5
29F4361D
102
{ACAD_REACTORS
330
29F4361C
102
}
330
29F4361C
100
AcDbPlaceHolder
280
     0
  0
XRECORD
  5
29F43633
102
{ACAD_REACTORS
330
29F43629
102
}
330
29F43629
100
AcDbXrecord
 90
        0
  0
XRECORD
  5
29F43634
102
{ACAD_REACTORS
330
29F43629
102
}
330
29F43629
100
AcDbXrecord
  1
{8CBBFAC0-8DB3-11D6-88E6-0090279574E7}
  0
XRECORD
  5
29F4362C
102
{ACAD_REACTORS
330
29F43629
102
}
330
29F43629
100
AcDbXrecord
  1

  0
XRECORD
  5
29F43632
102
{ACAD_REACTORS
330
29F43629
102
}
330
29F43629
100
AcDbXrecord
 90
        0
  0
XRECORD
  5
29F4362E
102
{ACAD_REACTORS
330
29F43629
102
}
330
29F43629
100
AcDbXrecord
340
29F4361E
  0
XRECORD
  5
29F43631
102
{ACAD_REACTORS
330
29F43629
102
}
330
29F43629
100
AcDbXrecord
 90
    14877
  0
XRECORD
  5
29F4362F
102
{ACAD_REACTORS
330
29F43629
102
}
330
29F43629
100
AcDbXrecord
340
29F4361F
  0
XRECORD
  5
29F43630
102
{ACAD_REACTORS
330
29F43629
102
}
330
29F43629
100
AcDbXrecord
340
29F4361C
  0
XRECORD
  5
29F43636
102
{ACAD_REACTORS
330
29F43629
102
}
330
29F43629
100
AcDbXrecord
 40
0.0
  0
XRECORD
  5
29F43639
102
{ACAD_REACTORS
330
29F43629
102
}
330
29F43629
100
AcDbXrecord
340
0
  0
XRECORD
  5
29F4363F
102
{ACAD_REACTORS
330
29F43629
102
}
330
29F43629
100
AcDbXrecord
 10
0.0
 20
0.0
 30
0.0
  0
XRECORD
  5
29F4363B
102
{ACAD_REACTORS
330
29F43629
102
}
330
29F43629
100
AcDbXrecord
 10
0.0
 20
0.0
 30
0.0
  0
XRECORD
  5
29F4363E
102
{ACAD_REACTORS
330
29F43629
102
}
330
29F43629
100
AcDbXrecord
 10
0.0
 20
0.0
 30
0.0
  0
XRECORD
  5
29F4363C
102
{ACAD_REACTORS
330
29F43629
102
}
330
29F43629
100
AcDbXrecord
 10
0.0
 20
0.0
 30
0.0
  0
XRECORD
  5
29F4363D
102
{ACAD_REACTORS
330
29F43629
102
}
330
29F43629
100
AcDbXrecord
 10
0.0
 20
0.0
 30
0.0
  0
XRECORD
  5
29F4363A
102
{ACAD_REACTORS
330
29F43629
102
}
330
29F43629
100
AcDbXrecord
 10
0.0
 20
0.0
 30
0.0
  0
XRECORD
  5
29F43637
102
{ACAD_REACTORS
330
29F43629
102
}
330
29F43629
100
AcDbXrecord
340
0
  0
XRECORD
  5
29F43638
102
{ACAD_REACTORS
330
29F43629
102
}
330
29F43629
100
AcDbXrecord
 70
     0
  0
XRECORD
  5
29F4362D
102
{ACAD_REACTORS
330
29F43629
102
}
330
29F43629
100
AcDbXrecord
  1

  0
XRECORD
  5
29F4362A
102
{ACAD_REACTORS
330
29F43629
102
}
330
29F43629
100
AcDbXrecord
 90
        1
  0
XRECORD
  5
29F4362B
102
{ACAD_REACTORS
330
29F43629
102
}
330
29F43629
100
AcDbXrecord
 90
       70
  0
XRECORD
  5
29F43642
102
{ACAD_REACTORS
330
29F43629
102
}
330
29F43629
100
AcDbXrecord
340
0
  0
XRECORD
  5
29F43648
102
{ACAD_REACTORS
330
29F43629
102
}
330
29F43629
100
AcDbXrecord
 10
0.0
 20
0.0
 30
0.0
  0
XRECORD
  5
29F43644
102
{ACAD_REACTORS
330
29F43629
102
}
330
29F43629
100
AcDbXrecord
 10
0.0
 20
0.0
 30
0.0
  0
XRECORD
  5
29F43647
102
{ACAD_REACTORS
330
29F43629
102
}
330
29F43629
100
AcDbXrecord
 10
0.0
 20
0.0
 30
0.0
  0
XRECORD
  5
29F43645
102
{ACAD_REACTORS
330
29F43629
102
}
330
29F43629
100
AcDbXrecord
 10
0.0
 20
0.0
 30
0.0
  0
XRECORD
  5
29F43646
102
{ACAD_REACTORS
330
29F43629
102
}
330
29F43629
100
AcDbXrecord
 10
0.0
 20
0.0
 30
0.0
  0
XRECORD
  5
29F43643
102
{ACAD_REACTORS
330
29F43629
102
}
330
29F43629
100
AcDbXrecord
 10
0.0
 20
0.0
 30
0.0
  0
XRECORD
  5
29F43640
102
{ACAD_REACTORS
330
29F43629
102
}
330
29F43629
100
AcDbXrecord
340
0
  0
XRECORD
  5
29F43641
102
{ACAD_REACTORS
330
29F43629
102
}
330
29F43629
100
AcDbXrecord
 70
     0
  0
XRECORD
  5
29F43635
102
{ACAD_REACTORS
330
29F43629
102
}
330
29F43629
100
AcDbXrecord
  1
{8CBBFAC2-8DB3-11D6-88E6-0090279574E7}
  0
DICTIONARYVAR
  5
29F43627
102
{ACAD_REACTORS
330
29F43626
102
}
330
29F43626
100
DictionaryVariables
280
     0
  1
1
  0
ENDSEC
  0
EOF
