  0
SECTION
  2
HEADER
  9
$ACADVER
  1
AC1014
  9
$ACADMAINTVER
 70
     9
  9
$DWGCODEPAGE
  3
ANSI_1252
  9
$INSBASE
 10
2.273592250194473
 20
1.390625
 30
0.0
  9
$EXTMIN
 10
0.5306106709673307
 20
0.6513563959174185
 30
0.0
  9
$EXTMAX
 10
4.015829992714458
 20
1.640625
 30
0.0
  9
$LIMMIN
 10
0.0
 20
0.0
  9
$LIMMAX
 10
18.0
 20
12.0
  9
$ORTHOMODE
 70
     1
  9
$REGENMODE
 70
     1
  9
$FILLMODE
 70
     1
  9
$QTEXTMODE
 70
     0
  9
$MIRRTEXT
 70
     0
  9
$DRAGMODE
 70
     2
  9
$LTSCALE
 40
1.0
  9
$OSMODE
 70
    39
  9
$ATTMODE
 70
     1
  9
$TEXTSIZE
 40
0.125
  9
$TRACEWID
 40
0.05
  9
$TEXTSTYLE
  7
ROMANS
  9
$CLAYER
  8
0
  9
$CELTYPE
  6
BYLAYER
  9
$CECOLOR
 62
   256
  9
$CELTSCALE
 40
1.0
  9
$DELOBJ
 70
     1
  9
$DISPSILH
 70
     1
  9
$DIMSCALE
 40
1.0
  9
$DIMASZ
 40
0.125
  9
$DIMEXO
 40
0.125
  9
$DIMDLI
 40
0.375
  9
$DIMRND
 40
0.0
  9
$DIMDLE
 40
0.0
  9
$DIMEXE
 40
0.125
  9
$DIMTP
 40
0.0
  9
$DIMTM
 40
0.0
  9
$DIMTXT
 40
0.125
  9
$DIMCEN
 40
-0.125
  9
$DIMTSZ
 40
0.0
  9
$DIMTOL
 70
     0
  9
$DIMLIM
 70
     0
  9
$DIMTIH
 70
     1
  9
$DIMTOH
 70
     1
  9
$DIMSE1
 70
     0
  9
$DIMSE2
 70
     0
  9
$DIMTAD
 70
     0
  9
$DIMZIN
 70
     4
  9
$DIMBLK
  1

  9
$DIMASO
 70
     1
  9
$DIMSHO
 70
     1
  9
$DIMPOST
  1

  9
$DIMAPOST
  1

  9
$DIMALT
 70
     0
  9
$DIMALTD
 70
     2
  9
$DIMALTF
 40
25.4
  9
$DIMLFAC
 40
1.0
  9
$DIMTOFL
 70
     0
  9
$DIMTVP
 40
0.0
  9
$DIMTIX
 70
     1
  9
$DIMSOXD
 70
     0
  9
$DIMSAH
 70
     0
  9
$DIMBLK1
  1

  9
$DIMBLK2
  1

  9
$DIMSTYLE
  2
STANDARD
  9
$DIMCLRD
 70
     0
  9
$DIMCLRE
 70
     0
  9
$DIMCLRT
 70
     0
  9
$DIMTFAC
 40
1.0
  9
$DIMGAP
 40
0.09
  9
$DIMJUST
 70
     0
  9
$DIMSD1
 70
     0
  9
$DIMSD2
 70
     0
  9
$DIMTOLJ
 70
     1
  9
$DIMTZIN
 70
     4
  9
$DIMALTZ
 70
     0
  9
$DIMALTTZ
 70
     0
  9
$DIMFIT
 70
     3
  9
$DIMUPT
 70
     0
  9
$DIMUNIT
 70
     2
  9
$DIMDEC
 70
     3
  9
$DIMTDEC
 70
     3
  9
$DIMALTU
 70
     2
  9
$DIMALTTD
 70
     2
  9
$DIMTXSTY
  7
ROMANS
  9
$DIMAUNIT
 70
     0
  9
$LUNITS
 70
     2
  9
$LUPREC
 70
     3
  9
$SKETCHINC
 40
0.1
  9
$FILLETRAD
 40
0.03125
  9
$AUNITS
 70
     0
  9
$AUPREC
 70
     0
  9
$MENU
  1
ACAD
  9
$ELEVATION
 40
0.0
  9
$PELEVATION
 40
0.0
  9
$THICKNESS
 40
0.0
  9
$LIMCHECK
 70
     0
  9
$BLIPMODE
 70
     0
  9
$CHAMFERA
 40
0.0
  9
$CHAMFERB
 40
0.0
  9
$CHAMFERC
 40
0.0
  9
$CHAMFERD
 40
0.0
  9
$SKPOLY
 70
     0
  9
$TDCREATE
 40
2448993.425964930
  9
$TDUPDATE
 40
2452458.293179756
  9
$TDINDWG
 40
0.0006263657
  9
$TDUSRTIMER
 40
0.0006263657
  9
$USRTIMER
 70
     1
  9
$ANGBASE
 50
0.0
  9
$ANGDIR
 70
     0
  9
$PDMODE
 70
     0
  9
$PDSIZE
 40
0.0
  9
$PLINEWID
 40
0.0
  9
$COORDS
 70
     2
  9
$SPLFRAME
 70
     0
  9
$SPLINETYPE
 70
     6
  9
$SPLINESEGS
 70
     8
  9
$ATTDIA
 70
     0
  9
$ATTREQ
 70
     1
  9
$HANDLING
 70
 22529
  9
$HANDSEED
  5
14FA2325
  9
$SURFTAB1
 70
     6
  9
$SURFTAB2
 70
     6
  9
$SURFTYPE
 70
     6
  9
$SURFU
 70
     6
  9
$SURFV
 70
     6
  9
$UCSNAME
  2

  9
$UCSORG
 10
0.0
 20
0.0
 30
0.0
  9
$UCSXDIR
 10
1.0
 20
0.0
 30
0.0
  9
$UCSYDIR
 10
0.0
 20
1.0
 30
0.0
  9
$PUCSNAME
  2

  9
$PUCSORG
 10
0.0
 20
0.0
 30
0.0
  9
$PUCSXDIR
 10
1.0
 20
0.0
 30
0.0
  9
$PUCSYDIR
 10
0.0
 20
1.0
 30
0.0
  9
$USERI1
 70
     0
  9
$USERI2
 70
     0
  9
$USERI3
 70
     0
  9
$USERI4
 70
     0
  9
$USERI5
 70
     0
  9
$USERR1
 40
0.0
  9
$USERR2
 40
0.0
  9
$USERR3
 40
0.0
  9
$USERR4
 40
0.0
  9
$USERR5
 40
0.0
  9
$WORLDVIEW
 70
     1
  9
$SHADEDGE
 70
     3
  9
$SHADEDIF
 70
    70
  9
$TILEMODE
 70
     1
  9
$MAXACTVP
 70
    16
  9
$PINSBASE
 10
1.270483970302066
 20
50.00000000000001
 30
2.362804885342381
  9
$PLIMCHECK
 70
     0
  9
$PEXTMIN
 10
1.000000000000000E+20
 20
1.000000000000000E+20
 30
1.000000000000000E+20
  9
$PEXTMAX
 10
-1.000000000000000E+20
 20
-1.000000000000000E+20
 30
-1.000000000000000E+20
  9
$PLIMMIN
 10
0.0
 20
0.0
  9
$PLIMMAX
 10
12.0
 20
9.0
  9
$UNITMODE
 70
     0
  9
$VISRETAIN
 70
     0
  9
$PLINEGEN
 70
     1
  9
$PSLTSCALE
 70
     0
  9
$TREEDEPTH
 70
  3020
  9
$PICKSTYLE
 70
     1
  9
$CMLSTYLE
  2
STANDARD
  9
$CMLJUST
 70
     0
  9
$CMLSCALE
 40
1.0
  9
$PROXYGRAPHICS
 70
     1
  9
$MEASUREMENT
 70
     0
  0
ENDSEC
  0
SECTION
  2
CLASSES
  0
CLASS
  1
LWPOLYLINE
  2
AcDbPolyline
  3
AutoCAD 2000
 90
        0
280
     0
281
     1
  0
CLASS
  1
ACDBDICTIONARYWDFLT
  2
AcDbDictionaryWithDefault
  3
AutoCAD 2000
 90
        0
280
     0
281
     0
  0
CLASS
  1
ACDBPLACEHOLDER
  2
AcDbPlaceHolder
  3
AutoCAD 2000
 90
        0
280
     0
281
     0
  0
CLASS
  1
LAYOUT
  2
AcDbLayout
  3
AutoCAD 2000
 90
        0
280
     0
281
     0
  0
CLASS
  1
DICTIONARYVAR
  2
AcDbDictionaryVar
  3
AutoCAD 2000
 90
        0
280
     0
281
     0
  0
CLASS
  1
LONG_TRANSACTION
  2
AcDbLongTransaction
  3
AutoCAD 2000
 90
        0
280
     0
281
     0
  0
CLASS
  1
LWPOLYLINE
  2
AcDbPolyline
  3
AutoCAD 2000
 90
        0
280
     0
281
     1
  0
CLASS
  1
HATCH
  2
AcDbHatch
  3
AutoCAD 2000
 90
        0
280
     0
281
     1
  0
CLASS
  1
XRECORD
  2
AcDbXrecord
  3
AutoCAD 2000
 90
        0
280
     0
281
     0
  0
ENDSEC
  0
SECTION
  2
TABLES
  0
TABLE
  2
VPORT
  5
14FA22C6
330
0
100
AcDbSymbolTable
 70
     2
  0
VPORT
  5
14FA2300
330
14FA22C6
100
AcDbSymbolTableRecord
100
AcDbViewportTableRecord
  2
*ACTIVE
 70
     0
 10
0.0
 20
0.0
 11
1.0
 21
1.0
 12
5.249270283077724
 22
1.14587404572623
 13
0.0
 23
0.0
 14
0.015625
 24
0.015625
 15
0.0
 25
0.0
 16
0.0
 26
0.0
 36
1.0
 17
0.0
 27
0.0
 37
0.0
 40
2.282647215150728
 41
4.320930232558139
 42
50.0
 43
0.0
 44
0.0
 50
0.0
 51
0.0
 71
     0
 72
  2000
 73
     1
 74
     0
 75
     1
 76
     0
 77
     0
 78
     0
  0
ENDTAB
  0
TABLE
  2
LTYPE
  5
14FA22C3
330
0
100
AcDbSymbolTable
 70
     1
  0
LTYPE
  5
14FA22D0
330
14FA22C3
100
AcDbSymbolTableRecord
100
AcDbLinetypeTableRecord
  2
BYBLOCK
 70
     0
  3

 72
    65
 73
     0
 40
0.0
  0
LTYPE
  5
14FA22D1
330
14FA22C3
100
AcDbSymbolTableRecord
100
AcDbLinetypeTableRecord
  2
BYLAYER
 70
     0
  3

 72
    65
 73
     0
 40
0.0
  0
LTYPE
  5
14FA22D2
330
14FA22C3
100
AcDbSymbolTableRecord
100
AcDbLinetypeTableRecord
  2
CONTINUOUS
 70
     0
  3
Solid line
 72
    65
 73
     0
 40
0.0
  0
ENDTAB
  0
TABLE
  2
LAYER
  5
14FA22C0
330
0
100
AcDbSymbolTable
 70
     2
  0
LAYER
  5
14FA22CD
330
14FA22C0
100
AcDbSymbolTableRecord
100
AcDbLayerTableRecord
  2
0
 70
     0
 62
     7
  6
CONTINUOUS
  0
LAYER
  5
14FA22DD
330
14FA22C0
100
AcDbSymbolTableRecord
100
AcDbLayerTableRecord
  2
TEXT
 70
     0
 62
     3
  6
CONTINUOUS
  0
ENDTAB
  0
TABLE
  2
STYLE
  5
14FA22C1
330
0
100
AcDbSymbolTable
 70
     3
  0
STYLE
  5
14FA22CE
330
14FA22C1
100
AcDbSymbolTableRecord
100
AcDbTextStyleTableRecord
  2
STANDARD
 70
     0
 40
0.0
 41
1.0
 50
0.0
 71
     0
 42
0.3125
  3
txt
  4

  0
STYLE
  5
14FA22DA
330
14FA22C1
100
AcDbSymbolTableRecord
100
AcDbTextStyleTableRecord
  2
ITALICC
 70
     0
 40
0.0
 41
1.0
 50
0.0
 71
     0
 42
0.125
  3
italicc
  4

  0
STYLE
  5
14FA22EA
330
14FA22C1
100
AcDbSymbolTableRecord
100
AcDbTextStyleTableRecord
  2
ROMANS
 70
     0
 40
0.0
 41
1.0
 50
0.0
 71
     0
 42
0.125
  3
romans.shx
  4

  0
ENDTAB
  0
TABLE
  2
VIEW
  5
14FA22C4
330
0
100
AcDbSymbolTable
 70
     0
  0
ENDTAB
  0
TABLE
  2
UCS
  5
14FA22C5
330
0
100
AcDbSymbolTable
 70
     0
  0
ENDTAB
  0
TABLE
  2
APPID
  5
14FA22C7
330
0
100
AcDbSymbolTable
 70
     1
  0
APPID
  5
14FA22CF
330
14FA22C7
100
AcDbSymbolTableRecord
100
AcDbRegAppTableRecord
  2
ACAD
 70
     0
  0
ENDTAB
  0
TABLE
  2
DIMSTYLE
  5
14FA22C8
330
0
100
AcDbSymbolTable
 70
     1
  0
DIMSTYLE
105
14FA22E2
330
14FA22C8
100
AcDbSymbolTableRecord
100
AcDbDimStyleTableRecord
  2
STANDARD
 70
     0
  3

  4

  5

  6

  7

 40
1.0
 41
0.125
 42
0.125
 43
0.375
 44
0.125
 45
0.0
 46
0.0
 47
0.0
 48
0.0
140
0.125
141
-0.125
142
0.0
143
25.4
144
1.0
145
0.0
146
1.0
147
0.09
 71
     0
 72
     0
 73
     1
 74
     1
 75
     0
 76
     0
 77
     0
 78
     4
170
     0
171
     2
172
     0
173
     0
174
     1
175
     0
176
     0
177
     0
178
     0
270
     2
271
     3
272
     3
273
     2
274
     2
340
14FA22EA
275
     0
280
     0
281
     0
282
     0
283
     1
284
     4
285
     0
286
     0
287
     3
288
     0
  0
ENDTAB
  0
TABLE
  2
BLOCK_RECORD
  5
14FA22BF
330
0
100
AcDbSymbolTable
 70
     0
  0
BLOCK_RECORD
  5
14FA22D6
102
{ACAD_XDICTIONARY
360
14FA2323
102
}
330
14FA22BF
100
AcDbSymbolTableRecord
100
AcDbBlockTableRecord
  2
*MODEL_SPACE
  0
BLOCK_RECORD
  5
14FA22D3
102
{ACAD_XDICTIONARY
360
14FA2321
102
}
330
14FA22BF
100
AcDbSymbolTableRecord
100
AcDbBlockTableRecord
  2
*PAPER_SPACE
  0
ENDTAB
  0
ENDSEC
  0
SECTION
  2
BLOCKS
  0
BLOCK
  5
14FA22E0
330
14FA22D6
100
AcDbEntity
  8
0
100
AcDbBlockBegin
  2
*MODEL_SPACE
 70
     0
 10
0.0
 20
0.0
 30
0.0
  3
*MODEL_SPACE
  1

  0
ENDBLK
  5
14FA22E1
330
14FA22D6
100
AcDbEntity
  8
0
100
AcDbBlockEnd
  0
BLOCK
  5
14FA22DE
330
14FA22D3
100
AcDbEntity
 67
     1
  8
0
100
AcDbBlockBegin
  2
*PAPER_SPACE
 70
     0
 10
0.0
 20
0.0
 30
0.0
  3
*PAPER_SPACE
  1

  0
ENDBLK
  5
14FA22DF
330
14FA22D3
100
AcDbEntity
 67
     1
  8
0
100
AcDbBlockEnd
  0
ENDSEC
  0
SECTION
  2
ENTITIES
  0
LWPOLYLINE
  5
14FA0E86
330
14FA22D6
100
AcDbEntity
  8
0
100
AcDbPolyline
 90
       26
 70
     1
 43
0.0
 10
2.640779750194473
 20
1.390625
 10
2.640779750194473
 20
1.640625
 10
2.580779750194474
 20
1.640625
 10
2.580779750194474
 20
1.505625
 10
2.590779750194474
 20
1.505625
 10
2.590779750194474
 20
1.445625
 10
2.459779750194473
 20
1.445624999999999
 10
2.449779750194474
 20
1.435624999999999
 10
2.439779750194473
 20
1.445625
 10
2.300779750194474
 20
1.445625
 10
2.300779750194474
 20
1.505625
 10
2.318779750194473
 20
1.505625
 10
2.318779750194473
 20
1.640624999999999
 10
2.228404750194473
 20
1.640625
 10
2.228404750194473
 20
1.505625
 10
2.246404750194474
 20
1.505625
 10
2.246404750194474
 20
1.445625
 10
2.107404750194474
 20
1.445625
 10
2.097404750194474
 20
1.435624999999999
 10
2.087404750194473
 20
1.445624999999999
 10
1.956404750194474
 20
1.445625
 10
1.956404750194474
 20
1.505625
 10
1.966404750194474
 20
1.505625
 10
1.966404750194474
 20
1.640625
 10
1.906404750194474
 20
1.640625
 10
1.906404750194474
 20
1.390625
  0
TEXT
  5
14FA2181
330
14FA22D6
100
AcDbEntity
  8
TEXT
100
AcDbText
 10
1.517639869242092
 20
1.109375
 30
0.0
 40
0.125
  1
PART #110035
  7
ITALICC
 72
     1
 11
2.273592250194473
 21
1.109375
 31
0.0
100
AcDbText
  0
TEXT
  5
14FA2182
330
14FA22D6
100
AcDbEntity
  8
TEXT
100
AcDbText
 10
2.686897408444794
 20
0.6624523573276249
 30
0.0
 40
0.0522247191011236
  1
Phone  1-800-328-2495
 41
1.272321428571429
 72
     5
 11
4.015829992714458
 21
0.6624523573276249
 31
0.0
100
AcDbText
  0
TEXT
  5
14FA2183
330
14FA22D6
100
AcDbEntity
  8
TEXT
100
AcDbText
 10
2.686897408444794
 20
0.9422276382265014
 30
0.0
 40
0.0522247191011236
  1
Stylmark  Incorporated
 41
1.221428571428571
 72
     5
 11
4.015829992714458
 21
0.9422276382265014
 31
0.0
100
AcDbText
  0
TEXT
  5
14FA2184
330
14FA22D6
100
AcDbEntity
  8
TEXT
100
AcDbText
 10
2.686897408444794
 20
0.8489692112602092
 30
0.0
 40
0.0522247191011236
  1
6536 Main St. N.E. * P.O. Box 32008
 41
0.8388932496075355
 72
     5
 11
4.015829992714458
 21
0.8489692112602092
 31
0.0
100
AcDbText
  0
TEXT
  5
14FA2185
330
14FA22D6
100
AcDbEntity
  8
TEXT
100
AcDbText
 10
2.686897408444794
 20
0.7557107842939171
 30
0.0
 40
0.0522247191011236
  1
Minneapolis, MN 55432-0008
 41
1.11444212721585
 72
     5
 11
4.015829992714458
 21
0.7557107842939171
 31
0.0
100
AcDbText
  0
LWPOLYLINE
  5
14FA2186
330
14FA22D6
100
AcDbEntity
  8
TEXT
100
AcDbPolyline
 90
        3
 70
     0
 43
0.0006660908203125
 10
0.5309437163774869
 20
0.7760971199650597
 10
0.5309437163774869
 20
0.6628616805119321
 10
0.6441791558306092
 20
0.6628616805119321
  0
LWPOLYLINE
  5
14FA218B
330
14FA22D6
100
AcDbEntity
  8
TEXT
100
AcDbPolyline
 90
        3
 70
     0
 43
0.0006660908203125
 10
0.5575873491899844
 20
0.7760971199650597
 10
0.5575873491899844
 20
0.6895053133244331
 10
0.6441791558306092
 20
0.6895053133244331
  0
LWPOLYLINE
  5
14FA2190
330
14FA22D6
100
AcDbEntity
  8
TEXT
100
AcDbPolyline
 90
        2
 70
     0
 43
0.0001332181640625
 10
0.6042137066118612
 20
0.786088482269745
 10
0.5309437163774869
 20
0.7760971199650597
  0
LWPOLYLINE
  5
14FA2194
330
14FA22D6
100
AcDbEntity
  8
TEXT
100
AcDbPolyline
 90
        2
 70
     0
 43
0.0001332181640625
 10
0.5575873491899844
 20
0.7760971199650597
 10
0.6175355230181117
 20
0.786088482269745
  0
LWPOLYLINE
  5
14FA2198
330
14FA22D6
100
AcDbEntity
  8
TEXT
100
AcDbPolyline
 90
        2
 70
     0
 43
0.0001332181640625
 10
0.5575873491899844
 20
0.6895053133244331
 10
0.6175355230181117
 20
0.7494534871525587
  0
LWPOLYLINE
  5
14FA219C
330
14FA22D6
100
AcDbEntity
  8
TEXT
100
AcDbPolyline
 90
        3
 70
     0
 43
0.0006660908203125
 10
0.6441791558306092
 20
0.9292980086369354
 10
0.5309437163774869
 20
0.9292980086369354
 10
0.5309437163774869
 20
0.8160625691838077
  0
LWPOLYLINE
  5
14FA21A1
330
14FA22D6
100
AcDbEntity
  8
TEXT
100
AcDbPolyline
 90
        3
 70
     0
 43
0.0006660908203125
 10
0.6441791558306092
 20
0.9026543758244343
 10
0.5575873491899844
 20
0.9026543758244343
 10
0.5575873491899844
 20
0.8160625691838077
  0
LWPOLYLINE
  5
14FA21A6
330
14FA22D6
100
AcDbEntity
  8
TEXT
100
AcDbPolyline
 90
        2
 70
     0
 43
0.0001332181640625
 10
0.5575873491899844
 20
0.9026543758244343
 10
0.6175355230181099
 20
0.8427062019963088
  0
LWPOLYLINE
  5
14FA21AA
330
14FA22D6
100
AcDbEntity
  8
TEXT
100
AcDbPolyline
 90
        2
 70
     0
 43
0.0001332181640625
 10
0.5575873491899844
 20
0.8160625691838077
 10
0.6175355230181099
 20
0.806071206879119
  0
LWPOLYLINE
  5
14FA21AE
330
14FA22D6
100
AcDbEntity
  8
TEXT
100
AcDbPolyline
 90
        2
 70
     0
 43
0.0001332181640625
 10
0.5309437163774869
 20
0.8160625691838077
 10
0.6042137066118612
 20
0.806071206879119
  0
LWPOLYLINE
  5
14FA21B2
330
14FA22D6
100
AcDbEntity
  8
TEXT
100
AcDbPolyline
 90
        2
 70
     0
 43
0.0006660908203125
 10
0.5575873491899844
 20
0.7760971199650597
 10
0.5309437163774869
 20
0.7760971199650597
  0
LWPOLYLINE
  5
14FA21B6
330
14FA22D6
100
AcDbEntity
  8
TEXT
100
AcDbPolyline
 90
        2
 70
     0
 43
0.0006660908203125
 10
0.5575873491899844
 20
0.8160625691838077
 10
0.5309437163774869
 20
0.8160625691838077
  0
LINE
  5
14FA21BA
330
14FA22D6
100
AcDbEntity
  8
TEXT
100
AcDbLine
 10
2.046134145503984
 20
0.8650213139801664
 30
0.0
 11
1.938927872116694
 21
0.8650213139801664
 31
0.0
  0
LINE
  5
14FA21BB
330
14FA22D6
100
AcDbEntity
  8
TEXT
100
AcDbLine
 10
2.075165043848462
 20
0.9292980086369318
 30
0.0
 11
1.940333134631403
 21
0.9292980086369318
 31
0.0
  0
ARC
  5
14FA21BC
330
14FA22D6
100
AcDbEntity
  8
TEXT
100
AcDbCircle
 10
1.99964723102472
 20
0.7600607593739155
 30
0.0
 40
0.0676855811441166
100
AcDbArc
 50
90.0
 51
153.7768192527749
  0
LWPOLYLINE
  5
14FA21BD
330
14FA22D6
100
AcDbEntity
  8
TEXT
100
AcDbPolyline
 90
        2
 70
     0
 43
0.0
 10
1.937895376661884
 20
0.706315920598859
 42
0.2901071551932823
 10
1.98097130952952
 20
0.6628249756484208
 42
5.328517124445801
  0
ARC
  5
14FA21C1
330
14FA22D6
100
AcDbEntity
  8
TEXT
100
AcDbCircle
 10
1.294515853353234
 20
0.7226173669864706
 30
0.0
 40
0.0601160179737537
100
AcDbArc
 50
180.0000000000003
 51
264.0521544866073
  0
LINE
  5
14FA21C2
330
14FA22D6
100
AcDbEntity
  8
TEXT
100
AcDbLine
 10
1.298031208978782
 20
0.96368592623107
 30
0.0
 11
1.237988604134775
 21
0.96368592623107
 31
0.0
  0
ARC
  5
14FA21C3
330
14FA22D6
100
AcDbEntity
  8
TEXT
100
AcDbCircle
 10
1.062256851236264
 20
0.8472105491904301
 30
0.0
 40
0.0820874594465043
100
AcDbArc
 50
90.0
 51
270.0
  0
LWPOLYLINE
  5
14FA21C4
330
14FA22D6
100
AcDbEntity
  8
TEXT
100
AcDbPolyline
 90
        2
 70
     0
 43
0.0001332181640625
 10
0.6541705181352997
 20
0.8560280184025558
 10
0.6441791558306092
 20
0.9292980086369354
  0
LWPOLYLINE
  5
14FA21C8
330
14FA22D6
100
AcDbEntity
  8
TEXT
100
AcDbPolyline
 90
        2
 70
     0
 43
0.0001332181640625
 10
0.6441791558306092
 20
0.9026543758244343
 10
0.6541705181352997
 20
0.8427062019963088
  0
LWPOLYLINE
  5
14FA21CC
330
14FA22D6
100
AcDbEntity
  8
TEXT
100
AcDbPolyline
 90
        3
 70
     0
 43
0.0006660908203125
 10
0.7973800445024866
 20
0.8160625691838077
 10
0.7973800445024866
 20
0.9292980086369354
 10
0.6841446050493607
 20
0.9292980086369354
  0
LWPOLYLINE
  5
14FA21D1
330
14FA22D6
100
AcDbEntity
  8
TEXT
100
AcDbPolyline
 90
        3
 70
     0
 43
0.0006660908203125
 10
0.7707364116899856
 20
0.8160625691838077
 10
0.7707364116899856
 20
0.9026543758244343
 10
0.6841446050493607
 20
0.9026543758244343
  0
LWPOLYLINE
  5
14FA21D6
330
14FA22D6
100
AcDbEntity
  8
TEXT
100
AcDbPolyline
 90
        2
 70
     0
 43
0.0001332181640625
 10
0.7707364116899856
 20
0.9026543758244343
 10
0.7107882378618618
 20
0.8427062019963088
  0
LWPOLYLINE
  5
14FA21DA
330
14FA22D6
100
AcDbEntity
  8
TEXT
100
AcDbPolyline
 90
        2
 70
     0
 43
0.0001332181640625
 10
0.6841446050493607
 20
0.9026543758244343
 10
0.674153242744672
 20
0.8427062019963088
  0
LWPOLYLINE
  5
14FA21DE
330
14FA22D6
100
AcDbEntity
  8
TEXT
100
AcDbPolyline
 90
        2
 70
     0
 43
0.0001332181640625
 10
0.6841446050493607
 20
0.9292980086369354
 10
0.674153242744672
 20
0.8560280184025558
  0
LWPOLYLINE
  5
14FA21E2
330
14FA22D6
100
AcDbEntity
  8
TEXT
100
AcDbPolyline
 90
        2
 70
     0
 43
0.0001332181640625
 10
0.7241100542681105
 20
0.806071206879119
 10
0.7973800445024866
 20
0.8160625691838077
  0
LWPOLYLINE
  5
14FA21E6
330
14FA22D6
100
AcDbEntity
  8
TEXT
100
AcDbPolyline
 90
        2
 70
     0
 43
0.0001332181640625
 10
0.7707364116899856
 20
0.8160625691838077
 10
0.7107882378618618
 20
0.806071206879119
  0
LWPOLYLINE
  5
14FA21EA
330
14FA22D6
100
AcDbEntity
  8
TEXT
100
AcDbPolyline
 90
        2
 70
     0
 43
0.0001332181640625
 10
0.7973800445024866
 20
0.7760971199650597
 10
0.7241100542681105
 20
0.786088482269745
  0
LWPOLYLINE
  5
14FA21EE
330
14FA22D6
100
AcDbEntity
  8
TEXT
100
AcDbPolyline
 90
        2
 70
     0
 43
0.0001332181640625
 10
0.7707364116899856
 20
0.7760971199650597
 10
0.7107882378618618
 20
0.786088482269745
  0
LWPOLYLINE
  5
14FA21F2
330
14FA22D6
100
AcDbEntity
  8
TEXT
100
AcDbPolyline
 90
        2
 70
     0
 43
0.0001332181640625
 10
0.7707364116899856
 20
0.6895053133244331
 10
0.7107882378618618
 20
0.7494534871525587
  0
LWPOLYLINE
  5
14FA21F6
330
14FA22D6
100
AcDbEntity
  8
TEXT
100
AcDbPolyline
 90
        3
 70
     0
 43
0.0006660908203125
 10
0.6841446050493607
 20
0.6895053133244331
 10
0.7707364116899856
 20
0.6895053133244331
 10
0.7707364116899856
 20
0.7760971199650597
  0
LWPOLYLINE
  5
14FA21FB
330
14FA22D6
100
AcDbEntity
  8
TEXT
100
AcDbPolyline
 90
        3
 70
     0
 43
0.0006660908203125
 10
0.6841446050493607
 20
0.6628616805119321
 10
0.7973800445024866
 20
0.6628616805119321
 10
0.7973800445024866
 20
0.7760971199650597
  0
LWPOLYLINE
  5
14FA2200
330
14FA22D6
100
AcDbEntity
  8
TEXT
100
AcDbPolyline
 90
        5
 70
     0
 43
0.0001332181640625
 10
0.6541705181352997
 20
0.7361316707463082
 10
0.6541705181352997
 20
0.7494534871525587
 10
0.6175355230181117
 20
0.7494534871525587
 10
0.6175355230181117
 20
0.786088482269745
 10
0.6042137066118612
 20
0.786088482269745
  0
LWPOLYLINE
  5
14FA2207
330
14FA22D6
100
AcDbEntity
  8
TEXT
100
AcDbPolyline
 90
        2
 70
     0
 43
0.0006660908203125
 10
0.6441791558306092
 20
0.6895053133244331
 10
0.6441791558306092
 20
0.6628616805119321
  0
LWPOLYLINE
  5
14FA220B
330
14FA22D6
100
AcDbEntity
  8
TEXT
100
AcDbPolyline
 90
        2
 70
     0
 43
0.0001332181640625
 10
0.6441791558306092
 20
0.6895053133244331
 10
0.6541705181352997
 20
0.7494534871525587
  0
LWPOLYLINE
  5
14FA220F
330
14FA22D6
100
AcDbEntity
  8
TEXT
100
AcDbPolyline
 90
        2
 70
     0
 43
0.0001332181640625
 10
0.6441791558306092
 20
0.6628616805119321
 10
0.6541705181352997
 20
0.7361316707463082
  0
LWPOLYLINE
  5
14FA2213
330
14FA22D6
100
AcDbEntity
  8
TEXT
100
AcDbPolyline
 90
        5
 70
     0
 43
0.0001332181640625
 10
0.6042137066118612
 20
0.806071206879119
 10
0.6175355230181099
 20
0.806071206879119
 10
0.6175355230181099
 20
0.8427062019963088
 10
0.6541705181352997
 20
0.8427062019963088
 10
0.6541705181352997
 20
0.8560280184025558
  0
LWPOLYLINE
  5
14FA221A
330
14FA22D6
100
AcDbEntity
  8
TEXT
100
AcDbPolyline
 90
        5
 70
     0
 43
0.0001332181640625
 10
0.674153242744672
 20
0.8560280184025558
 10
0.674153242744672
 20
0.8427062019963088
 10
0.7107882378618618
 20
0.8427062019963088
 10
0.7107882378618618
 20
0.806071206879119
 10
0.7241100542681105
 20
0.806071206879119
  0
LWPOLYLINE
  5
14FA2221
330
14FA22D6
100
AcDbEntity
  8
TEXT
100
AcDbPolyline
 90
        2
 70
     0
 43
0.0001332181640625
 10
0.6841446050493607
 20
0.6895053133244331
 10
0.674153242744672
 20
0.7494534871525587
  0
LWPOLYLINE
  5
14FA2225
330
14FA22D6
100
AcDbEntity
  8
TEXT
100
AcDbPolyline
 90
        2
 70
     0
 43
0.0001332181640625
 10
0.674153242744672
 20
0.7361316707463082
 10
0.6841446050493607
 20
0.6628616805119321
  0
LWPOLYLINE
  5
14FA2229
330
14FA22D6
100
AcDbEntity
  8
TEXT
100
AcDbPolyline
 90
        2
 70
     0
 43
0.0006660908203125
 10
0.6841446050493607
 20
0.6895053133244331
 10
0.6841446050493607
 20
0.6628616805119321
  0
LWPOLYLINE
  5
14FA222D
330
14FA22D6
100
AcDbEntity
  8
TEXT
100
AcDbPolyline
 90
        5
 70
     0
 43
0.0001332181640625
 10
0.7241100542681105
 20
0.786088482269745
 10
0.7107882378618618
 20
0.786088482269745
 10
0.7107882378618618
 20
0.7494534871525587
 10
0.674153242744672
 20
0.7494534871525587
 10
0.674153242744672
 20
0.7361316707463082
  0
LWPOLYLINE
  5
14FA2234
330
14FA22D6
100
AcDbEntity
  8
TEXT
100
AcDbPolyline
 90
        2
 70
     0
 43
0.0006660908203125
 10
0.7707364116899856
 20
0.8160625691838077
 10
0.7973800445024866
 20
0.8160625691838077
  0
LWPOLYLINE
  5
14FA2238
330
14FA22D6
100
AcDbEntity
  8
TEXT
100
AcDbPolyline
 90
        2
 70
     0
 43
0.0006660908203125
 10
0.7707364116899856
 20
0.7760971199650597
 10
0.7973800445024866
 20
0.7760971199650597
  0
LINE
  5
14FA223C
330
14FA22D6
100
AcDbEntity
  8
TEXT
100
AcDbLine
 10
1.067494181350511
 20
0.8650213139801664
 30
0.0
 11
1.234399835379482
 21
0.8650213139801664
 31
0.0
  0
LINE
  5
14FA223D
330
14FA22D6
100
AcDbEntity
  8
TEXT
100
AcDbLine
 10
1.133094317594812
 20
0.8292165923695385
 30
0.0
 11
1.067494181350511
 21
0.8292165923695385
 31
0.0
  0
LINE
  5
14FA223E
330
14FA22D6
100
AcDbEntity
  8
TEXT
100
AcDbLine
 10
0.9801693917897598
 20
0.6628249756484208
 30
0.0
 11
1.133094317594812
 21
0.6628249756484208
 31
0.0
  0
LINE
  5
14FA223F
330
14FA22D6
100
AcDbEntity
  8
TEXT
100
AcDbLine
 10
1.138034691501092
 20
0.7311819819818602
 30
0.0
 11
0.980169391789758
 21
0.7311819819818602
 31
0.0
  0
LINE
  5
14FA2240
330
14FA22D6
100
AcDbEntity
  8
TEXT
100
AcDbLine
 10
1.062256851236263
 20
0.7651230897439248
 30
0.0
 11
1.138034691501092
 21
0.7651230897439248
 31
0.0
  0
ARC
  5
14FA2241
330
14FA22D6
100
AcDbEntity
  8
TEXT
100
AcDbCircle
 10
1.067494181350512
 20
0.8471189531748542
 30
0.0
 40
0.017902360805315
100
AcDbArc
 50
90.0
 51
270.0
  0
LINE
  5
14FA2242
330
14FA22D6
100
AcDbEntity
  8
TEXT
100
AcDbLine
 10
0.980169391789758
 20
0.7311819819818602
 30
0.0
 11
0.9801693917897598
 21
0.6628249756484208
 31
0.0
  0
LINE
  5
14FA2243
330
14FA22D6
100
AcDbEntity
  8
TEXT
100
AcDbLine
 10
1.234399835379482
 20
0.8650213139801664
 30
0.0
 11
1.234399835379482
 21
0.7226173669864706
 31
0.0
  0
ARC
  5
14FA2244
330
14FA22D6
100
AcDbEntity
  8
TEXT
100
AcDbCircle
 10
1.133094317594813
 20
0.7460207840089779
 30
0.0
 40
0.0831958083605586
100
AcDbArc
 50
270.0
 51
90.0
  0
ARC
  5
14FA2245
330
14FA22D6
100
AcDbEntity
  8
TEXT
100
AcDbCircle
 10
1.138034691501093
 20
0.7481525358628942
 30
0.0
 40
0.0169705538810321
100
AcDbArc
 50
270.0
 51
90.0
  0
LWPOLYLINE
  5
14FA2246
330
14FA22D6
100
AcDbEntity
  8
TEXT
100
AcDbPolyline
 90
        2
 70
     0
 43
0.0006660908203125
 10
0.6441791558306092
 20
0.9026543758244343
 10
0.6441791558306092
 20
0.9292980086369354
  0
LWPOLYLINE
  5
14FA224A
330
14FA22D6
100
AcDbEntity
  8
TEXT
100
AcDbPolyline
 90
        2
 70
     0
 43
0.0006660908203125
 10
0.6841446050493607
 20
0.9026543758244343
 10
0.6841446050493607
 20
0.9292980086369354
  0
LINE
  5
14FA224E
330
14FA22D6
100
AcDbEntity
  8
TEXT
100
AcDbLine
 10
1.237988604134775
 20
0.9292980086369318
 30
0.0
 11
1.062256851236263
 21
0.9292980086369318
 31
0.0
  0
LINE
  5
14FA224F
330
14FA22D6
100
AcDbEntity
  8
TEXT
100
AcDbLine
 10
1.237988604134775
 20
0.96368592623107
 30
0.0
 11
1.237988604134775
 21
0.9292980086369318
 31
0.0
  0
LINE
  5
14FA2250
330
14FA22D6
100
AcDbEntity
  8
TEXT
100
AcDbLine
 10
1.428460496154627
 20
0.8284260125238112
 30
0.0
 11
1.36983017512269
 21
0.9292980086369318
 31
0.0
  0
LINE
  5
14FA2251
330
14FA22D6
100
AcDbEntity
  8
TEXT
100
AcDbLine
 10
1.487209058960493
 20
0.9292980086369318
 30
0.0
 11
1.428460496154627
 21
0.8284260125238112
 31
0.0
  0
LINE
  5
14FA2252
330
14FA22D6
100
AcDbEntity
  8
TEXT
100
AcDbLine
 10
1.584139684320234
 20
0.7452128137514201
 30
0.0
 11
1.584139684320234
 21
0.9973094863757424
 31
0.0
  0
LINE
  5
14FA2253
330
14FA22D6
100
AcDbEntity
  8
TEXT
100
AcDbLine
 10
1.616451538457894
 20
0.9292980086369318
 30
0.0
 11
1.616451538457894
 21
0.7284338019045236
 31
0.0
  0
LINE
  5
14FA2254
330
14FA22D6
100
AcDbEntity
  8
TEXT
100
AcDbLine
 10
1.616451538457894
 20
0.7284338019045236
 30
0.0
 11
1.599457901573293
 21
0.7284338019045236
 31
0.0
  0
LINE
  5
14FA2255
330
14FA22D6
100
AcDbEntity
  8
TEXT
100
AcDbLine
 10
1.585279257816429
 20
0.6628249756484208
 30
0.0
 11
1.683282591515864
 21
0.6628249756484208
 31
0.0
  0
LINE
  5
14FA2256
330
14FA22D6
100
AcDbEntity
  8
TEXT
100
AcDbLine
 10
1.418860259157673
 20
0.6827834817534338
 30
0.0
 11
1.516159965251118
 21
0.8471336926887019
 31
0.0
  0
ARC
  5
14FA2257
330
14FA22D6
100
AcDbEntity
  8
TEXT
100
AcDbCircle
 10
1.384816699245459
 20
0.7023726979221166
 30
0.0
 40
0.0392772371940762
100
AcDbArc
 50
270.1604552698595
 51
330.0831797321295
  0
LINE
  5
14FA2258
330
14FA22D6
100
AcDbEntity
  8
TEXT
100
AcDbLine
 10
1.288286442859588
 20
0.6628249756484208
 30
0.0
 11
1.384926693934582
 21
0.6630956147467031
 31
0.0
  0
LWPOLYLINE
  5
14FA2259
330
14FA22D6
100
AcDbEntity
  8
TEXT
100
AcDbPolyline
 90
        6
 70
     1
 43
0.0
 10
1.330810246434737
 20
0.8650213139801664
 10
1.300493652214529
 20
0.8650213139801664
 10
1.300493652214529
 20
0.7419103159252721
 42
0.407328721240804
 10
1.312037303376006
 20
0.730091401248886
 10
1.372659002420737
 20
0.730091401248886
 10
1.390124342828054
 20
0.7629036302923651
  0
LINE
  5
14FA2261
330
14FA22D6
100
AcDbEntity
  8
TEXT
100
AcDbLine
 10
1.516159965251118
 20
0.8471336926887019
 30
0.0
 11
1.516159965251118
 21
0.7143763178633456
 31
0.0
  0
ARC
  5
14FA2262
330
14FA22D6
100
AcDbEntity
  8
TEXT
100
AcDbCircle
 10
1.599457901573291
 20
0.743815608147949
 30
0.0
 40
0.0153818062434269
100
AcDbArc
 50
174.7883570302258
 51
270.0
  0
LWPOLYLINE
  5
14FA2263
330
14FA22D6
100
AcDbEntity
  8
TEXT
100
AcDbPolyline
 90
        2
 70
     0
 43
0.0
 10
1.516159965251116
 20
0.7143763178633491
 42
0.3318488747599744
 10
1.585279257816429
 20
0.6628249756484208
 42
-6.868794160588311
  0
LINE
  5
14FA2267
330
14FA22D6
100
AcDbEntity
  8
TEXT
100
AcDbLine
 10
1.740671660505125
 20
0.6628249756484208
 30
0.0
 11
1.807729707286965
 21
0.6628249756484208
 31
0.0
  0
LINE
  5
14FA2268
330
14FA22D6
100
AcDbEntity
  8
TEXT
100
AcDbLine
 10
1.740671660505125
 20
0.8574675248140565
 30
0.0
 11
1.740671660505125
 21
0.6628249756484208
 31
0.0
  0
LINE
  5
14FA2269
330
14FA22D6
100
AcDbEntity
  8
TEXT
100
AcDbLine
 10
1.683282591515864
 20
0.8650213139801664
 30
0.0
 11
1.733117871339011
 21
0.8650213139801664
 31
0.0
  0
LINE
  5
14FA226A
330
14FA22D6
100
AcDbEntity
  8
TEXT
100
AcDbLine
 10
1.683282591515864
 20
0.6628249756484208
 30
0.0
 11
1.683282591515864
 21
0.8650213139801664
 31
0.0
  0
LWPOLYLINE
  5
14FA226B
330
14FA22D6
100
AcDbEntity
  8
TEXT
100
AcDbPolyline
 90
        2
 70
     0
 43
0.0
 10
1.733117871339009
 20
0.8650213139801664
 42
-0.4142135623731017
 10
1.740671660505123
 20
0.8574675248140565
 42
-0.9999999999999998
  0
LINE
  5
14FA226F
330
14FA22D6
100
AcDbEntity
  8
TEXT
100
AcDbLine
 10
1.938927872116694
 20
0.8650213139801664
 30
0.0
 11
1.938927872116694
 21
0.7899689079059598
 31
0.0
  0
LINE
  5
14FA2270
330
14FA22D6
100
AcDbEntity
  8
TEXT
100
AcDbLine
 10
1.807729707286965
 20
0.8650213139801664
 30
0.0
 11
1.861863304207915
 21
0.8650213139801664
 31
0.0
  0
LINE
  5
14FA2271
330
14FA22D6
100
AcDbEntity
  8
TEXT
100
AcDbLine
 10
1.807729707286965
 20
0.6628249756484208
 30
0.0
 11
1.807729707286965
 21
0.8650213139801664
 31
0.0
  0
LWPOLYLINE
  5
14FA2272
330
14FA22D6
100
AcDbEntity
  8
TEXT
100
AcDbPolyline
 90
        2
 70
     0
 43
0.0
 10
1.861863304207913
 20
0.8650213139801664
 42
-0.4142135623731017
 10
1.869417093374027
 20
0.8574675248140565
 42
-0.9999999999999998
  0
LWPOLYLINE
  5
14FA2276
330
14FA22D6
100
AcDbEntity
  8
TEXT
100
AcDbPolyline
 90
        4
 70
     0
 43
0.0
 10
1.869417093374027
 20
0.8574675248140565
 10
1.869417093374027
 20
0.6628249756484208
 10
1.937895376661884
 20
0.6628249756484208
 10
1.937895376661884
 20
0.706315920598859
 42
-1.714843617202739
  0
LINE
  5
14FA227C
330
14FA22D6
100
AcDbEntity
  8
TEXT
100
AcDbLine
 10
1.298031208978782
 20
0.9292980086369318
 30
0.0
 11
1.298031208978782
 21
0.96368592623107
 31
0.0
  0
LINE
  5
14FA227D
330
14FA22D6
100
AcDbEntity
  8
TEXT
100
AcDbLine
 10
1.36983017512269
 20
0.9292980086369318
 30
0.0
 11
1.298031208978782
 21
0.9292980086369318
 31
0.0
  0
LINE
  5
14FA227E
330
14FA22D6
100
AcDbEntity
  8
TEXT
100
AcDbLine
 10
1.517330971753869
 20
0.9292980086369318
 30
0.0
 11
1.487209058960493
 21
0.9292980086369318
 31
0.0
  0
LINE
  5
14FA227F
330
14FA22D6
100
AcDbEntity
  8
TEXT
100
AcDbLine
 10
1.517330971753869
 20
0.9973094863757424
 30
0.0
 11
1.517330971753869
 21
0.9292980086369318
 31
0.0
  0
LINE
  5
14FA2280
330
14FA22D6
100
AcDbEntity
  8
TEXT
100
AcDbLine
 10
1.584139684320234
 20
0.9973094863757424
 30
0.0
 11
1.517330971753869
 21
0.9973094863757424
 31
0.0
  0
LWPOLYLINE
  5
14FA2281
330
14FA22D6
100
AcDbEntity
  8
TEXT
100
AcDbPolyline
 90
        3
 70
     0
 43
0.0
 10
1.904551443918236
 20
0.9292980086369354
 10
1.786251285102192
 20
0.9292980086369354
 10
1.786251285102192
 20
0.9021305118760395
 42
-1.960274751411753
  0
LINE
  5
14FA2286
330
14FA22D6
100
AcDbEntity
  8
TEXT
100
AcDbLine
 10
1.750469594389031
 20
0.9292980086369318
 30
0.0
 11
1.616451538457894
 21
0.9292980086369318
 31
0.0
  0
LWPOLYLINE
  5
14FA2287
330
14FA22D6
100
AcDbEntity
  8
TEXT
100
AcDbPolyline
 90
        2
 70
     0
 43
0.0
 10
1.750469594389031
 20
0.9292980086369354
 42
-0.3328679258950098
 10
1.786251285102192
 20
0.9021305118760395
 42
6.772930709997214
  0
LINE
  5
14FA228B
330
14FA22D6
100
AcDbEntity
  8
TEXT
100
AcDbLine
 10
1.940333134631403
 20
0.9292980086369318
 30
0.0
 11
1.940333134631403
 21
0.900975462867288
 31
0.0
  0
LWPOLYLINE
  5
14FA228C
330
14FA22D6
100
AcDbEntity
  8
TEXT
100
AcDbPolyline
 90
        2
 70
     0
 43
0.0
 10
1.904551443918236
 20
0.9292980086369354
 42
-0.3277054968067132
 10
1.940333134631401
 20
0.9009754628672915
 42
6.667889725900311
  0
LINE
  5
14FA2290
330
14FA22D6
100
AcDbEntity
  8
TEXT
100
AcDbLine
 10
2.154124982723503
 20
0.8240860300835045
 30
0.0
 11
2.110374211541602
 21
0.9063363060796497
 31
0.0
  0
LINE
  5
14FA2291
330
14FA22D6
100
AcDbEntity
  8
TEXT
100
AcDbLine
 10
2.154124982723503
 20
0.9292980086369318
 30
0.0
 11
2.154124982723503
 21
0.8240860300835045
 31
0.0
  0
LINE
  5
14FA2292
330
14FA22D6
100
AcDbEntity
  8
TEXT
100
AcDbLine
 10
2.381808721661872
 20
0.8534326822253937
 30
0.0
 11
2.381808721661872
 21
0.9947622144045325
 31
0.0
  0
LINE
  5
14FA2293
330
14FA22D6
100
AcDbEntity
  8
TEXT
100
AcDbLine
 10
2.428906880217857
 20
0.9292980086369318
 30
0.0
 11
2.381808721661872
 21
0.8534326822253937
 31
0.0
  0
LINE
  5
14FA2294
330
14FA22D6
100
AcDbEntity
  8
TEXT
100
AcDbLine
 10
2.43934159698178
 20
0.8194047656959583
 30
0.0
 11
2.503898712947485
 21
0.9292980086369318
 31
0.0
  0
LINE
  5
14FA2295
330
14FA22D6
100
AcDbEntity
  8
TEXT
100
AcDbLine
 10
2.317973730439099
 20
0.6628249756484208
 30
0.0
 11
2.38235191475772
 21
0.6628249756484208
 31
0.0
  0
LWPOLYLINE
  5
14FA2296
330
14FA22D6
100
AcDbEntity
  8
TEXT
100
AcDbPolyline
 90
        2
 70
     0
 43
0.0
 10
2.158064660028541
 20
0.706315920598859
 42
-0.2901071551932486
 10
2.114988727160897
 20
0.6628249756484208
 42
-5.328517124445184
  0
ARC
  5
14FA229A
330
14FA22D6
100
AcDbEntity
  8
TEXT
100
AcDbCircle
 10
2.046134145503982
 20
0.8366619389801691
 30
0.0
 40
0.028359375
100
AcDbArc
 50
25.78218179591245
 51
90.0
  0
LINE
  5
14FA229B
330
14FA22D6
100
AcDbEntity
  8
TEXT
100
AcDbLine
 10
2.081935220808105
 20
0.8277463405180341
 30
0.0
 11
2.071670460394541
 21
0.8489968800907284
 31
0.0
  0
LINE
  5
14FA229C
330
14FA22D6
100
AcDbEntity
  8
TEXT
100
AcDbLine
 10
1.999647231024722
 20
0.8277463405180341
 30
0.0
 11
2.081935220808105
 21
0.8277463405180341
 31
0.0
  0
LWPOLYLINE
  5
14FA229D
330
14FA22D6
100
AcDbEntity
  8
TEXT
100
AcDbPolyline
 90
        4
 70
     1
 43
0.0
 10
2.094866262091004
 20
0.7657889536324461
 10
2.006205943431146
 20
0.7657889536324461
 42
0.9999999999999998
 10
2.006205943431146
 20
0.7233904131285854
 10
2.094866262091004
 20
0.7233904131285854
 42
1.0
  0
LWPOLYLINE
  5
14FA22A3
330
14FA22D6
100
AcDbEntity
  8
TEXT
100
AcDbPolyline
 90
        2
 70
     0
 43
0.0
 10
1.98097130952952
 20
0.6628249756484208
 10
2.114988727160897
 20
0.6628249756484208
 42
0.9999999999999998
  0
LINE
  5
14FA22A7
330
14FA22D6
100
AcDbEntity
  8
TEXT
100
AcDbLine
 10
2.241325749146536
 20
0.8650213139801664
 30
0.0
 11
2.317973730439094
 21
0.8650213139801664
 31
0.0
  0
LINE
  5
14FA22A8
330
14FA22D6
100
AcDbEntity
  8
TEXT
100
AcDbLine
 10
2.317973730439094
 20
0.8650213139801664
 30
0.0
 11
2.317973730439099
 21
0.6628249756484208
 31
0.0
  0
ARC
  5
14FA22A9
330
14FA22D6
100
AcDbEntity
  8
TEXT
100
AcDbCircle
 10
2.241325749146534
 20
0.8401154386975036
 30
0.0
 40
0.0249058752826653
100
AcDbArc
 50
89.99971217465335
 51
179.9999999999985
  0
LINE
  5
14FA22AA
330
14FA22D6
100
AcDbEntity
  8
TEXT
100
AcDbLine
 10
2.216419873863877
 20
0.6628249756484208
 30
0.0
 11
2.216419873863872
 21
0.8401154810798892
 31
0.0
  0
LWPOLYLINE
  5
14FA22AB
330
14FA22D6
100
AcDbEntity
  8
TEXT
100
AcDbPolyline
 90
        2
 70
     0
 43
0.0
 10
2.158064660028541
 20
0.6628249756484208
 10
2.216419873863875
 20
0.6628249756484208
  0
LWPOLYLINE
  5
14FA22AF
330
14FA22D6
100
AcDbEntity
  8
TEXT
100
AcDbPolyline
 90
        2
 70
     0
 43
0.0
 10
2.158064660028541
 20
0.706315920598859
 10
2.158064660028541
 20
0.6628249756484208
  0
LINE
  5
14FA22B3
330
14FA22D6
100
AcDbEntity
  8
TEXT
100
AcDbLine
 10
2.53483382034539
 20
0.6628249756484208
 30
0.0
 11
2.43934159698178
 21
0.8194047656959583
 31
0.0
  0
LINE
  5
14FA22B4
330
14FA22D6
100
AcDbEntity
  8
TEXT
100
AcDbLine
 10
2.458255447969184
 20
0.6628249756484208
 30
0.0
 11
2.53483382034539
 21
0.6628249756484208
 31
0.0
  0
LINE
  5
14FA22B5
330
14FA22D6
100
AcDbEntity
  8
TEXT
100
AcDbLine
 10
2.38235191475772
 20
0.7944045441246011
 30
0.0
 11
2.458255447969184
 21
0.6628249756484208
 31
0.0
  0
LINE
  5
14FA22B6
330
14FA22D6
100
AcDbEntity
  8
TEXT
100
AcDbLine
 10
2.38235191475772
 20
0.6628249756484208
 30
0.0
 11
2.38235191475772
 21
0.7944045441246011
 31
0.0
  0
LINE
  5
14FA22B7
330
14FA22D6
100
AcDbEntity
  8
TEXT
100
AcDbLine
 10
2.381808721661872
 20
0.9947622144045325
 30
0.0
 11
2.313493843112599
 21
0.9947622144045325
 31
0.0
  0
ARC
  5
14FA22B8
330
14FA22D6
100
AcDbEntity
  8
TEXT
100
AcDbCircle
 10
2.073138104071393
 20
0.8877144415160294
 30
0.0
 40
0.0416329381542859
100
AcDbArc
 50
26.56974201007528
 51
87.20939649401342
  0
LINE
  5
14FA22B9
330
14FA22D6
100
AcDbEntity
  8
TEXT
100
AcDbLine
 10
2.218021889023004
 20
0.9292980086369318
 30
0.0
 11
2.154124982723503
 21
0.9292980086369318
 31
0.0
  0
LINE
  5
14FA22BA
330
14FA22D6
100
AcDbEntity
  8
TEXT
100
AcDbLine
 10
2.218021889023004
 20
0.9017503587760572
 30
0.0
 11
2.218021889023004
 21
0.9292980086369318
 31
0.0
  0
ARC
  5
14FA22BB
330
14FA22D6
100
AcDbEntity
  8
TEXT
100
AcDbCircle
 10
2.249214706086112
 20
0.898052281354667
 30
0.0
 40
0.0314112657011332
100
AcDbArc
 50
95.88484768694724
 51
173.2388340632136
  0
LINE
  5
14FA22BC
330
14FA22D6
100
AcDbEntity
  8
TEXT
100
AcDbLine
 10
2.313493843112594
 20
0.9292980086369318
 30
0.0
 11
2.245994125463077
 21
0.9292980086369318
 31
0.0
  0
LINE
  5
14FA22BD
330
14FA22D6
100
AcDbEntity
  8
TEXT
100
AcDbLine
 10
2.313493843112599
 20
0.9947622144045325
 30
0.0
 11
2.313493843112594
 21
0.9292980086369318
 31
0.0
  0
LINE
  5
14FA22BE
330
14FA22D6
100
AcDbEntity
  8
TEXT
100
AcDbLine
 10
2.503898712947485
 20
0.9292980086369318
 30
0.0
 11
2.428906880217859
 21
0.9292980086369318
 31
0.0
  0
ENDSEC
  0
SECTION
  2
OBJECTS
  0
DICTIONARY
  5
14FA22CA
330
0
100
AcDbDictionary
  3
ACAD_GROUP
350
14FA22CB
  3
ACAD_LAYOUT
350
14FA22F6
  3
ACAD_MLINESTYLE
350
14FA22CC
  3
ACAD_PLOTSETTINGS
350
14FA22F7
  3
ACAD_PLOTSTYLENAME
350
14FA22F4
  3
ACDBHEADERROUNDTRIPXREC
350
14FA2301
  3
ACDBVARIABLEDICTIONARY
350
14FA22FE
  0
DICTIONARY
  5
14FA2323
330
14FA22D6
100
AcDbDictionary
280
     1
  3
ACAD_LAYOUTSELFREF
360
14FA2324
  0
DICTIONARY
  5
14FA2321
330
14FA22D3
100
AcDbDictionary
280
     1
  3
ACAD_LAYOUTSELFREF
360
14FA2322
  0
DICTIONARY
  5
14FA22CB
102
{ACAD_REACTORS
330
14FA22CA
102
}
330
14FA22CA
100
AcDbDictionary
  0
DICTIONARY
  5
14FA22F6
102
{ACAD_REACTORS
330
14FA22CA
102
}
330
14FA22CA
100
AcDbDictionary
  0
DICTIONARY
  5
14FA22CC
102
{ACAD_REACTORS
330
14FA22CA
102
}
330
14FA22CA
100
AcDbDictionary
  3
STANDARD
350
14FA22D9
  0
DICTIONARY
  5
14FA22F7
102
{ACAD_REACTORS
330
14FA22CA
102
}
330
14FA22CA
100
AcDbDictionary
  0
ACDBDICTIONARYWDFLT
  5
14FA22F4
102
{ACAD_REACTORS
330
14FA22CA
102
}
330
14FA22CA
100
AcDbDictionary
281
     1
  3
Normal
350
14FA22F5
100
AcDbDictionaryWithDefault
340
14FA22F5
  0
DICTIONARY
  5
14FA2301
102
{ACAD_REACTORS
330
14FA22CA
102
}
330
14FA22CA
100
AcDbDictionary
  3
CEPSNTYPE
350
14FA230B
  3
FINGERPRINTGUID
350
14FA230C
  3
HYPERLINKBASE
350
14FA2304
  3
INSUNITS
350
14FA230A
  3
LAYOUTDICT
350
14FA2306
  3
LWETCUNION
350
14FA2309
  3
PLOTSETDICT
350
14FA2307
  3
PLOTSTYLNAMDICT
350
14FA2308
  3
PSVPSCALE
350
14FA230E
  3
PUCSBASE
350
14FA2311
  3
PUCSORGBACK
350
14FA2317
  3
PUCSORGBOTTOM
350
14FA2313
  3
PUCSORGFRONT
350
14FA2316
  3
PUCSORGLEFT
350
14FA2314
  3
PUCSORGRIGHT
350
14FA2315
  3
PUCSORGTOP
350
14FA2312
  3
PUCSORTHOREF
350
14FA230F
  3
PUCSORTHOVIEW
350
14FA2310
  3
STYLESHEET
350
14FA2305
  3
TSTACKALIGN
350
14FA2302
  3
TSTACKSIZE
350
14FA2303
  3
UCSBASE
350
14FA231A
  3
UCSORGBACK
350
14FA2320
  3
UCSORGBOTTOM
350
14FA231C
  3
UCSORGFRONT
350
14FA231F
  3
UCSORGLEFT
350
14FA231D
  3
UCSORGRIGHT
350
14FA231E
  3
UCSORGTOP
350
14FA231B
  3
UCSORTHOREF
350
14FA2318
  3
UCSORTHOVIEW
350
14FA2319
  3
VERSIONGUID
350
14FA230D
  0
DICTIONARY
  5
14FA22FE
102
{ACAD_REACTORS
330
14FA22CA
102
}
330
14FA22CA
100
AcDbDictionary
  3
DIMASSOC
350
14FA22FF
  0
XRECORD
  5
14FA2324
102
{ACAD_REACTORS
330
14FA2323
102
}
330
14FA2323
100
AcDbXrecord
340
14FA22D6
  0
XRECORD
  5
14FA2322
102
{ACAD_REACTORS
330
14FA2321
102
}
330
14FA2321
100
AcDbXrecord
340
14FA22D3
  0
MLINESTYLE
  5
14FA22D9
102
{ACAD_REACTORS
330
14FA22CC
102
}
330
14FA22CC
100
AcDbMlineStyle
  2
STANDARD
 70
     0
  3

 62
     0
 51
90.0
 52
90.0
 71
     2
 49
0.5
 62
   256
  6
BYLAYER
 49
-0.5
 62
   256
  6
BYLAYER
  0
ACDBPLACEHOLDER
  5
14FA22F5
102
{ACAD_REACTORS
330
14FA22F4
102
}
330
14FA22F4
100
AcDbPlaceHolder
280
     0
  0
XRECORD
  5
14FA230B
102
{ACAD_REACTORS
330
14FA2301
102
}
330
14FA2301
100
AcDbXrecord
 90
        0
  0
XRECORD
  5
14FA230C
102
{ACAD_REACTORS
330
14FA2301
102
}
330
14FA2301
100
AcDbXrecord
  1
{88745950-8DB3-11D6-88E6-0090279574E7}
  0
XRECORD
  5
14FA2304
102
{ACAD_REACTORS
330
14FA2301
102
}
330
14FA2301
100
AcDbXrecord
  1

  0
XRECORD
  5
14FA230A
102
{ACAD_REACTORS
330
14FA2301
102
}
330
14FA2301
100
AcDbXrecord
 90
        0
  0
XRECORD
  5
14FA2306
102
{ACAD_REACTORS
330
14FA2301
102
}
330
14FA2301
100
AcDbXrecord
340
14FA22F6
  0
XRECORD
  5
14FA2309
102
{ACAD_REACTORS
330
14FA2301
102
}
330
14FA2301
100
AcDbXrecord
 90
    14877
  0
XRECORD
  5
14FA2307
102
{ACAD_REACTORS
330
14FA2301
102
}
330
14FA2301
100
AcDbXrecord
340
14FA22F7
  0
XRECORD
  5
14FA2308
102
{ACAD_REACTORS
330
14FA2301
102
}
330
14FA2301
100
AcDbXrecord
340
14FA22F4
  0
XRECORD
  5
14FA230E
102
{ACAD_REACTORS
330
14FA2301
102
}
330
14FA2301
100
AcDbXrecord
 40
0.0
  0
XRECORD
  5
14FA2311
102
{ACAD_REACTORS
330
14FA2301
102
}
330
14FA2301
100
AcDbXrecord
340
0
  0
XRECORD
  5
14FA2317
102
{ACAD_REACTORS
330
14FA2301
102
}
330
14FA2301
100
AcDbXrecord
 10
0.0
 20
0.0
 30
0.0
  0
XRECORD
  5
14FA2313
102
{ACAD_REACTORS
330
14FA2301
102
}
330
14FA2301
100
AcDbXrecord
 10
0.0
 20
0.0
 30
0.0
  0
XRECORD
  5
14FA2316
102
{ACAD_REACTORS
330
14FA2301
102
}
330
14FA2301
100
AcDbXrecord
 10
0.0
 20
0.0
 30
0.0
  0
XRECORD
  5
14FA2314
102
{ACAD_REACTORS
330
14FA2301
102
}
330
14FA2301
100
AcDbXrecord
 10
0.0
 20
0.0
 30
0.0
  0
XRECORD
  5
14FA2315
102
{ACAD_REACTORS
330
14FA2301
102
}
330
14FA2301
100
AcDbXrecord
 10
0.0
 20
0.0
 30
0.0
  0
XRECORD
  5
14FA2312
102
{ACAD_REACTORS
330
14FA2301
102
}
330
14FA2301
100
AcDbXrecord
 10
0.0
 20
0.0
 30
0.0
  0
XRECORD
  5
14FA230F
102
{ACAD_REACTORS
330
14FA2301
102
}
330
14FA2301
100
AcDbXrecord
340
0
  0
XRECORD
  5
14FA2310
102
{ACAD_REACTORS
330
14FA2301
102
}
330
14FA2301
100
AcDbXrecord
 70
     0
  0
XRECORD
  5
14FA2305
102
{ACAD_REACTORS
330
14FA2301
102
}
330
14FA2301
100
AcDbXrecord
  1

  0
XRECORD
  5
14FA2302
102
{ACAD_REACTORS
330
14FA2301
102
}
330
14FA2301
100
AcDbXrecord
 90
        1
  0
XRECORD
  5
14FA2303
102
{ACAD_REACTORS
330
14FA2301
102
}
330
14FA2301
100
AcDbXrecord
 90
       70
  0
XRECORD
  5
14FA231A
102
{ACAD_REACTORS
330
14FA2301
102
}
330
14FA2301
100
AcDbXrecord
340
0
  0
XRECORD
  5
14FA2320
102
{ACAD_REACTORS
330
14FA2301
102
}
330
14FA2301
100
AcDbXrecord
 10
0.0
 20
0.0
 30
0.0
  0
XRECORD
  5
14FA231C
102
{ACAD_REACTORS
330
14FA2301
102
}
330
14FA2301
100
AcDbXrecord
 10
0.0
 20
0.0
 30
0.0
  0
XRECORD
  5
14FA231F
102
{ACAD_REACTORS
330
14FA2301
102
}
330
14FA2301
100
AcDbXrecord
 10
0.0
 20
0.0
 30
0.0
  0
XRECORD
  5
14FA231D
102
{ACAD_REACTORS
330
14FA2301
102
}
330
14FA2301
100
AcDbXrecord
 10
0.0
 20
0.0
 30
0.0
  0
XRECORD
  5
14FA231E
102
{ACAD_REACTORS
330
14FA2301
102
}
330
14FA2301
100
AcDbXrecord
 10
0.0
 20
0.0
 30
0.0
  0
XRECORD
  5
14FA231B
102
{ACAD_REACTORS
330
14FA2301
102
}
330
14FA2301
100
AcDbXrecord
 10
0.0
 20
0.0
 30
0.0
  0
XRECORD
  5
14FA2318
102
{ACAD_REACTORS
330
14FA2301
102
}
330
14FA2301
100
AcDbXrecord
340
0
  0
XRECORD
  5
14FA2319
102
{ACAD_REACTORS
330
14FA2301
102
}
330
14FA2301
100
AcDbXrecord
 70
     0
  0
XRECORD
  5
14FA230D
102
{ACAD_REACTORS
330
14FA2301
102
}
330
14FA2301
100
AcDbXrecord
  1
{88745952-8DB3-11D6-88E6-0090279574E7}
  0
DICTIONARYVAR
  5
14FA22FF
102
{ACAD_REACTORS
330
14FA22FE
102
}
330
14FA22FE
100
DictionaryVariables
280
     0
  1
1
  0
ENDSEC
  0
EOF
