  0
SECTION
  2
HEADER
  9
$ACADVER
  1
AC1014
  9
$ACADMAINTVER
 70
     9
  9
$DWGCODEPAGE
  3
ANSI_1252
  9
$INSBASE
 10
2.671456137259609
 20
1.644103439415211
 30
0.0
  9
$EXTMIN
 10
0.9284745580324658
 20
0.9360848353326293
 30
0.0
  9
$EXTMAX
 10
4.413693879779596
 20
2.39410343941521
 30
0.0
  9
$LIMMIN
 10
0.0
 20
0.0
  9
$LIMMAX
 10
18.0
 20
12.0
  9
$ORTHOMODE
 70
     1
  9
$REGENMODE
 70
     1
  9
$FILLMODE
 70
     1
  9
$QTEXTMODE
 70
     0
  9
$MIRRTEXT
 70
     0
  9
$DRAGMODE
 70
     2
  9
$LTSCALE
 40
1.0
  9
$OSMODE
 70
    39
  9
$ATTMODE
 70
     1
  9
$TEXTSIZE
 40
0.125
  9
$TRACEWID
 40
0.05
  9
$TEXTSTYLE
  7
ROMANS
  9
$CLAYER
  8
0
  9
$CELTYPE
  6
BYLAYER
  9
$CECOLOR
 62
   256
  9
$CELTSCALE
 40
1.0
  9
$DELOBJ
 70
     1
  9
$DISPSILH
 70
     1
  9
$DIMSCALE
 40
1.0
  9
$DIMASZ
 40
0.125
  9
$DIMEXO
 40
0.125
  9
$DIMDLI
 40
0.375
  9
$DIMRND
 40
0.0
  9
$DIMDLE
 40
0.0
  9
$DIMEXE
 40
0.125
  9
$DIMTP
 40
0.0
  9
$DIMTM
 40
0.0
  9
$DIMTXT
 40
0.125
  9
$DIMCEN
 40
-0.125
  9
$DIMTSZ
 40
0.0
  9
$DIMTOL
 70
     0
  9
$DIMLIM
 70
     0
  9
$DIMTIH
 70
     1
  9
$DIMTOH
 70
     1
  9
$DIMSE1
 70
     0
  9
$DIMSE2
 70
     0
  9
$DIMTAD
 70
     0
  9
$DIMZIN
 70
     4
  9
$DIMBLK
  1

  9
$DIMASO
 70
     1
  9
$DIMSHO
 70
     1
  9
$DIMPOST
  1

  9
$DIMAPOST
  1

  9
$DIMALT
 70
     0
  9
$DIMALTD
 70
     2
  9
$DIMALTF
 40
25.4
  9
$DIMLFAC
 40
1.0
  9
$DIMTOFL
 70
     0
  9
$DIMTVP
 40
0.0
  9
$DIMTIX
 70
     1
  9
$DIMSOXD
 70
     0
  9
$DIMSAH
 70
     0
  9
$DIMBLK1
  1

  9
$DIMBLK2
  1

  9
$DIMSTYLE
  2
STANDARD
  9
$DIMCLRD
 70
     0
  9
$DIMCLRE
 70
     0
  9
$DIMCLRT
 70
     0
  9
$DIMTFAC
 40
1.0
  9
$DIMGAP
 40
0.09
  9
$DIMJUST
 70
     0
  9
$DIMSD1
 70
     0
  9
$DIMSD2
 70
     0
  9
$DIMTOLJ
 70
     1
  9
$DIMTZIN
 70
     4
  9
$DIMALTZ
 70
     0
  9
$DIMALTTZ
 70
     0
  9
$DIMFIT
 70
     3
  9
$DIMUPT
 70
     0
  9
$DIMUNIT
 70
     2
  9
$DIMDEC
 70
     3
  9
$DIMTDEC
 70
     3
  9
$DIMALTU
 70
     2
  9
$DIMALTTD
 70
     2
  9
$DIMTXSTY
  7
ROMANS
  9
$DIMAUNIT
 70
     0
  9
$LUNITS
 70
     2
  9
$LUPREC
 70
     3
  9
$SKETCHINC
 40
0.1
  9
$FILLETRAD
 40
0.03125
  9
$AUNITS
 70
     0
  9
$AUPREC
 70
     0
  9
$MENU
  1
ACAD
  9
$ELEVATION
 40
0.0
  9
$PELEVATION
 40
0.0
  9
$THICKNESS
 40
0.0
  9
$LIMCHECK
 70
     0
  9
$BLIPMODE
 70
     0
  9
$CHAMFERA
 40
0.0
  9
$CHAMFERB
 40
0.0
  9
$CHAMFERC
 40
0.0
  9
$CHAMFERD
 40
0.0
  9
$SKPOLY
 70
     0
  9
$TDCREATE
 40
2448993.424966203
  9
$TDUPDATE
 40
2452458.293092373
  9
$TDINDWG
 40
0.0009784838
  9
$TDUSRTIMER
 40
0.0009784838
  9
$USRTIMER
 70
     1
  9
$ANGBASE
 50
0.0
  9
$ANGDIR
 70
     0
  9
$PDMODE
 70
     0
  9
$PDSIZE
 40
0.0
  9
$PLINEWID
 40
0.0
  9
$COORDS
 70
     2
  9
$SPLFRAME
 70
     0
  9
$SPLINETYPE
 70
     6
  9
$SPLINESEGS
 70
     8
  9
$ATTDIA
 70
     0
  9
$ATTREQ
 70
     1
  9
$HANDLING
 70
 22529
  9
$HANDSEED
  5
A7D1965
  9
$SURFTAB1
 70
     6
  9
$SURFTAB2
 70
     6
  9
$SURFTYPE
 70
     6
  9
$SURFU
 70
     6
  9
$SURFV
 70
     6
  9
$UCSNAME
  2

  9
$UCSORG
 10
0.0
 20
0.0
 30
0.0
  9
$UCSXDIR
 10
1.0
 20
0.0
 30
0.0
  9
$UCSYDIR
 10
0.0
 20
1.0
 30
0.0
  9
$PUCSNAME
  2

  9
$PUCSORG
 10
0.0
 20
0.0
 30
0.0
  9
$PUCSXDIR
 10
1.0
 20
0.0
 30
0.0
  9
$PUCSYDIR
 10
0.0
 20
1.0
 30
0.0
  9
$USERI1
 70
     0
  9
$USERI2
 70
     0
  9
$USERI3
 70
     0
  9
$USERI4
 70
     0
  9
$USERI5
 70
     0
  9
$USERR1
 40
0.0
  9
$USERR2
 40
0.0
  9
$USERR3
 40
0.0
  9
$USERR4
 40
0.0
  9
$USERR5
 40
0.0
  9
$WORLDVIEW
 70
     1
  9
$SHADEDGE
 70
     3
  9
$SHADEDIF
 70
    70
  9
$TILEMODE
 70
     1
  9
$MAXACTVP
 70
    16
  9
$PINSBASE
 10
1.319231556317443
 20
50.00000000000001
 30
1.685975609899178
  9
$PLIMCHECK
 70
     0
  9
$PEXTMIN
 10
1.000000000000000E+20
 20
1.000000000000000E+20
 30
1.000000000000000E+20
  9
$PEXTMAX
 10
-1.000000000000000E+20
 20
-1.000000000000000E+20
 30
-1.000000000000000E+20
  9
$PLIMMIN
 10
0.0
 20
0.0
  9
$PLIMMAX
 10
12.0
 20
9.0
  9
$UNITMODE
 70
     0
  9
$VISRETAIN
 70
     0
  9
$PLINEGEN
 70
     1
  9
$PSLTSCALE
 70
     0
  9
$TREEDEPTH
 70
  3020
  9
$PICKSTYLE
 70
     1
  9
$CMLSTYLE
  2
STANDARD
  9
$CMLJUST
 70
     0
  9
$CMLSCALE
 40
1.0
  9
$PROXYGRAPHICS
 70
     1
  9
$MEASUREMENT
 70
     0
  0
ENDSEC
  0
SECTION
  2
CLASSES
  0
CLASS
  1
LWPOLYLINE
  2
AcDbPolyline
  3
AutoCAD 2000
 90
        0
280
     0
281
     1
  0
CLASS
  1
ACDBDICTIONARYWDFLT
  2
AcDbDictionaryWithDefault
  3
AutoCAD 2000
 90
        0
280
     0
281
     0
  0
CLASS
  1
ACDBPLACEHOLDER
  2
AcDbPlaceHolder
  3
AutoCAD 2000
 90
        0
280
     0
281
     0
  0
CLASS
  1
LAYOUT
  2
AcDbLayout
  3
AutoCAD 2000
 90
        0
280
     0
281
     0
  0
CLASS
  1
DICTIONARYVAR
  2
AcDbDictionaryVar
  3
AutoCAD 2000
 90
        0
280
     0
281
     0
  0
CLASS
  1
LONG_TRANSACTION
  2
AcDbLongTransaction
  3
AutoCAD 2000
 90
        0
280
     0
281
     0
  0
CLASS
  1
LWPOLYLINE
  2
AcDbPolyline
  3
AutoCAD 2000
 90
        0
280
     0
281
     1
  0
CLASS
  1
HATCH
  2
AcDbHatch
  3
AutoCAD 2000
 90
        0
280
     0
281
     1
  0
CLASS
  1
XRECORD
  2
AcDbXrecord
  3
AutoCAD 2000
 90
        0
280
     0
281
     0
  0
ENDSEC
  0
SECTION
  2
TABLES
  0
TABLE
  2
VPORT
  5
A7D1906
330
0
100
AcDbSymbolTable
 70
     2
  0
VPORT
  5
A7D1940
330
A7D1906
100
AcDbSymbolTableRecord
100
AcDbViewportTableRecord
  2
*ACTIVE
 70
     0
 10
0.0
 20
0.0
 11
1.0
 21
1.0
 12
5.647524678072604
 22
1.664978050236797
 13
0.0
 23
0.0
 14
0.015625
 24
0.015625
 15
0.0
 25
0.0
 16
0.0
 26
0.0
 36
1.0
 17
0.0
 27
0.0
 37
0.0
 40
2.282647215150728
 41
4.320930232558139
 42
50.0
 43
0.0
 44
0.0
 50
0.0
 51
0.0
 71
     0
 72
  2000
 73
     1
 74
     0
 75
     1
 76
     0
 77
     0
 78
     0
  0
ENDTAB
  0
TABLE
  2
LTYPE
  5
A7D1903
330
0
100
AcDbSymbolTable
 70
     1
  0
LTYPE
  5
A7D1910
330
A7D1903
100
AcDbSymbolTableRecord
100
AcDbLinetypeTableRecord
  2
BYBLOCK
 70
     0
  3

 72
    65
 73
     0
 40
0.0
  0
LTYPE
  5
A7D1911
330
A7D1903
100
AcDbSymbolTableRecord
100
AcDbLinetypeTableRecord
  2
BYLAYER
 70
     0
  3

 72
    65
 73
     0
 40
0.0
  0
LTYPE
  5
A7D1912
330
A7D1903
100
AcDbSymbolTableRecord
100
AcDbLinetypeTableRecord
  2
CONTINUOUS
 70
     0
  3
Solid line
 72
    65
 73
     0
 40
0.0
  0
ENDTAB
  0
TABLE
  2
LAYER
  5
A7D1900
330
0
100
AcDbSymbolTable
 70
     2
  0
LAYER
  5
A7D190D
330
A7D1900
100
AcDbSymbolTableRecord
100
AcDbLayerTableRecord
  2
0
 70
     0
 62
     7
  6
CONTINUOUS
  0
LAYER
  5
A7D191D
330
A7D1900
100
AcDbSymbolTableRecord
100
AcDbLayerTableRecord
  2
TEXT
 70
     0
 62
     3
  6
CONTINUOUS
  0
ENDTAB
  0
TABLE
  2
STYLE
  5
A7D1901
330
0
100
AcDbSymbolTable
 70
     3
  0
STYLE
  5
A7D190E
330
A7D1901
100
AcDbSymbolTableRecord
100
AcDbTextStyleTableRecord
  2
STANDARD
 70
     0
 40
0.0
 41
1.0
 50
0.0
 71
     0
 42
0.3125
  3
txt
  4

  0
STYLE
  5
A7D191A
330
A7D1901
100
AcDbSymbolTableRecord
100
AcDbTextStyleTableRecord
  2
ITALICC
 70
     0
 40
0.0
 41
1.0
 50
0.0
 71
     0
 42
0.125
  3
italicc
  4

  0
STYLE
  5
A7D192A
330
A7D1901
100
AcDbSymbolTableRecord
100
AcDbTextStyleTableRecord
  2
ROMANS
 70
     0
 40
0.0
 41
1.0
 50
0.0
 71
     0
 42
0.125
  3
romans.shx
  4

  0
ENDTAB
  0
TABLE
  2
VIEW
  5
A7D1904
330
0
100
AcDbSymbolTable
 70
     0
  0
ENDTAB
  0
TABLE
  2
UCS
  5
A7D1905
330
0
100
AcDbSymbolTable
 70
     0
  0
ENDTAB
  0
TABLE
  2
APPID
  5
A7D1907
330
0
100
AcDbSymbolTable
 70
     1
  0
APPID
  5
A7D190F
330
A7D1907
100
AcDbSymbolTableRecord
100
AcDbRegAppTableRecord
  2
ACAD
 70
     0
  0
ENDTAB
  0
TABLE
  2
DIMSTYLE
  5
A7D1908
330
0
100
AcDbSymbolTable
 70
     1
  0
DIMSTYLE
105
A7D1922
330
A7D1908
100
AcDbSymbolTableRecord
100
AcDbDimStyleTableRecord
  2
STANDARD
 70
     0
  3

  4

  5

  6

  7

 40
1.0
 41
0.125
 42
0.125
 43
0.375
 44
0.125
 45
0.0
 46
0.0
 47
0.0
 48
0.0
140
0.125
141
-0.125
142
0.0
143
25.4
144
1.0
145
0.0
146
1.0
147
0.09
 71
     0
 72
     0
 73
     1
 74
     1
 75
     0
 76
     0
 77
     0
 78
     4
170
     0
171
     2
172
     0
173
     0
174
     1
175
     0
176
     0
177
     0
178
     0
270
     2
271
     3
272
     3
273
     2
274
     2
340
A7D192A
275
     0
280
     0
281
     0
282
     0
283
     1
284
     4
285
     0
286
     0
287
     3
288
     0
  0
ENDTAB
  0
TABLE
  2
BLOCK_RECORD
  5
A7D18FF
330
0
100
AcDbSymbolTable
 70
     0
  0
BLOCK_RECORD
  5
A7D1916
102
{ACAD_XDICTIONARY
360
A7D1963
102
}
330
A7D18FF
100
AcDbSymbolTableRecord
100
AcDbBlockTableRecord
  2
*MODEL_SPACE
  0
BLOCK_RECORD
  5
A7D1913
102
{ACAD_XDICTIONARY
360
A7D1961
102
}
330
A7D18FF
100
AcDbSymbolTableRecord
100
AcDbBlockTableRecord
  2
*PAPER_SPACE
  0
ENDTAB
  0
ENDSEC
  0
SECTION
  2
BLOCKS
  0
BLOCK
  5
A7D1920
330
A7D1916
100
AcDbEntity
  8
0
100
AcDbBlockBegin
  2
*MODEL_SPACE
 70
     0
 10
0.0
 20
0.0
 30
0.0
  3
*MODEL_SPACE
  1

  0
ENDBLK
  5
A7D1921
330
A7D1916
100
AcDbEntity
  8
0
100
AcDbBlockEnd
  0
BLOCK
  5
A7D191E
330
A7D1913
100
AcDbEntity
 67
     1
  8
0
100
AcDbBlockBegin
  2
*PAPER_SPACE
 70
     0
 10
0.0
 20
0.0
 30
0.0
  3
*PAPER_SPACE
  1

  0
ENDBLK
  5
A7D191F
330
A7D1913
100
AcDbEntity
 67
     1
  8
0
100
AcDbBlockEnd
  0
ENDSEC
  0
SECTION
  2
ENTITIES
  0
LWPOLYLINE
  5
A7D0512
330
A7D1916
100
AcDbEntity
  8
0
100
AcDbPolyline
 90
        7
 70
     1
 43
0.0
 10
2.968956137259608
 20
1.706603439415211
 42
0.4142135623730951
 10
2.983956137259609
 20
1.721603439415211
 10
2.983956137259609
 20
2.39410343941521
 10
3.046456137259609
 20
2.39410343941521
 10
3.046456137259609
 20
1.644103439415211
 10
2.296456137259608
 20
1.644103439415211
 10
2.296456137259608
 20
1.706603439415211
  0
TEXT
  5
A7D17C1
330
A7D1916
100
AcDbEntity
  8
TEXT
100
AcDbText
 10
1.918479946783418
 20
1.39410343941521
 30
0.0
 40
0.125
  1
PART #110034
  7
ITALICC
 72
     1
 11
2.671456137259609
 21
1.39410343941521
 31
0.0
100
AcDbText
  0
TEXT
  5
A7D17C2
330
A7D1916
100
AcDbEntity
  8
TEXT
100
AcDbText
 10
3.084761295509929
 20
0.9471807967428357
 30
0.0
 40
0.0522247191011236
  1
Phone  1-800-328-2495
 41
1.272321428571429
 72
     5
 11
4.413693879779593
 21
0.9471807967428357
 31
0.0
100
AcDbText
  0
TEXT
  5
A7D17C3
330
A7D1916
100
AcDbEntity
  8
TEXT
100
AcDbText
 10
3.084761295509929
 20
1.226956077641712
 30
0.0
 40
0.0522247191011236
  1
Stylmark  Incorporated
 41
1.221428571428571
 72
     5
 11
4.413693879779593
 21
1.226956077641712
 31
0.0
100
AcDbText
  0
TEXT
  5
A7D17C4
330
A7D1916
100
AcDbEntity
  8
TEXT
100
AcDbText
 10
3.084761295509929
 20
1.13369765067542
 30
0.0
 40
0.0522247191011236
  1
6536 Main St. N.E. * P.O. Box 32008
 41
0.8388932496075355
 72
     5
 11
4.413693879779593
 21
1.13369765067542
 31
0.0
100
AcDbText
  0
TEXT
  5
A7D17C5
330
A7D1916
100
AcDbEntity
  8
TEXT
100
AcDbText
 10
3.084761295509929
 20
1.040439223709128
 30
0.0
 40
0.0522247191011236
  1
Minneapolis, MN 55432-0008
 41
1.11444212721585
 72
     5
 11
4.413693879779593
 21
1.040439223709128
 31
0.0
100
AcDbText
  0
LWPOLYLINE
  5
A7D17C6
330
A7D1916
100
AcDbEntity
  8
TEXT
100
AcDbPolyline
 90
        3
 70
     0
 43
0.0006660908203125
 10
0.928807603442622
 20
1.06082555938027
 10
0.928807603442622
 20
0.9475901199271429
 10
1.042043042895744
 20
0.9475901199271429
  0
LWPOLYLINE
  5
A7D17CB
330
A7D1916
100
AcDbEntity
  8
TEXT
100
AcDbPolyline
 90
        3
 70
     0
 43
0.0006660908203125
 10
0.9554512362551195
 20
1.06082555938027
 10
0.9554512362551195
 20
0.974233752739644
 10
1.042043042895744
 20
0.974233752739644
  0
LWPOLYLINE
  5
A7D17D0
330
A7D1916
100
AcDbEntity
  8
TEXT
100
AcDbPolyline
 90
        2
 70
     0
 43
0.0001332181640625
 10
1.002077593676996
 20
1.070816921684955
 10
0.928807603442622
 20
1.06082555938027
  0
LWPOLYLINE
  5
A7D17D4
330
A7D1916
100
AcDbEntity
  8
TEXT
100
AcDbPolyline
 90
        2
 70
     0
 43
0.0001332181640625
 10
0.9554512362551195
 20
1.06082555938027
 10
1.015399410083246
 20
1.070816921684955
  0
LWPOLYLINE
  5
A7D17D8
330
A7D1916
100
AcDbEntity
  8
TEXT
100
AcDbPolyline
 90
        2
 70
     0
 43
0.0001332181640625
 10
0.9554512362551195
 20
0.974233752739644
 10
1.015399410083246
 20
1.034181926567769
  0
LWPOLYLINE
  5
A7D17DC
330
A7D1916
100
AcDbEntity
  8
TEXT
100
AcDbPolyline
 90
        3
 70
     0
 43
0.0006660908203125
 10
1.042043042895744
 20
1.214026448052146
 10
0.928807603442622
 20
1.214026448052146
 10
0.928807603442622
 20
1.100791008599018
  0
LWPOLYLINE
  5
A7D17E1
330
A7D1916
100
AcDbEntity
  8
TEXT
100
AcDbPolyline
 90
        3
 70
     0
 43
0.0006660908203125
 10
1.042043042895744
 20
1.187382815239645
 10
0.9554512362551195
 20
1.187382815239645
 10
0.9554512362551195
 20
1.100791008599018
  0
LWPOLYLINE
  5
A7D17E6
330
A7D1916
100
AcDbEntity
  8
TEXT
100
AcDbPolyline
 90
        2
 70
     0
 43
0.0001332181640625
 10
0.9554512362551195
 20
1.187382815239645
 10
1.015399410083245
 20
1.127434641411519
  0
LWPOLYLINE
  5
A7D17EA
330
A7D1916
100
AcDbEntity
  8
TEXT
100
AcDbPolyline
 90
        2
 70
     0
 43
0.0001332181640625
 10
0.9554512362551195
 20
1.100791008599018
 10
1.015399410083245
 20
1.090799646294329
  0
LWPOLYLINE
  5
A7D17EE
330
A7D1916
100
AcDbEntity
  8
TEXT
100
AcDbPolyline
 90
        2
 70
     0
 43
0.0001332181640625
 10
0.928807603442622
 20
1.100791008599018
 10
1.002077593676996
 20
1.090799646294329
  0
LWPOLYLINE
  5
A7D17F2
330
A7D1916
100
AcDbEntity
  8
TEXT
100
AcDbPolyline
 90
        2
 70
     0
 43
0.0006660908203125
 10
0.9554512362551195
 20
1.06082555938027
 10
0.928807603442622
 20
1.06082555938027
  0
LWPOLYLINE
  5
A7D17F6
330
A7D1916
100
AcDbEntity
  8
TEXT
100
AcDbPolyline
 90
        2
 70
     0
 43
0.0006660908203125
 10
0.9554512362551195
 20
1.100791008599018
 10
0.928807603442622
 20
1.100791008599018
  0
LINE
  5
A7D17FA
330
A7D1916
100
AcDbEntity
  8
TEXT
100
AcDbLine
 10
2.443998032569119
 20
1.149749753395377
 30
0.0
 11
2.33679175918183
 21
1.149749753395377
 31
0.0
  0
LINE
  5
A7D17FB
330
A7D1916
100
AcDbEntity
  8
TEXT
100
AcDbLine
 10
2.473028930913597
 20
1.214026448052142
 30
0.0
 11
2.338197021696538
 21
1.214026448052142
 31
0.0
  0
ARC
  5
A7D17FC
330
A7D1916
100
AcDbEntity
  8
TEXT
100
AcDbCircle
 10
2.397511118089855
 20
1.044789198789126
 30
0.0
 40
0.0676855811441166
100
AcDbArc
 50
90.0
 51
153.7768192527749
  0
LWPOLYLINE
  5
A7D17FD
330
A7D1916
100
AcDbEntity
  8
TEXT
100
AcDbPolyline
 90
        2
 70
     0
 43
0.0
 10
2.33575926372702
 20
0.9910443600140698
 42
0.2901071551932823
 10
2.378835196594655
 20
0.9475534150636317
 42
5.328517124445801
  0
ARC
  5
A7D1801
330
A7D1916
100
AcDbEntity
  8
TEXT
100
AcDbCircle
 10
1.69237974041837
 20
1.007345806401681
 30
0.0
 40
0.0601160179737537
100
AcDbArc
 50
180.0000000000003
 51
264.0521544866073
  0
LINE
  5
A7D1802
330
A7D1916
100
AcDbEntity
  8
TEXT
100
AcDbLine
 10
1.695895096043917
 20
1.24841436564628
 30
0.0
 11
1.63585249119991
 21
1.24841436564628
 31
0.0
  0
ARC
  5
A7D1803
330
A7D1916
100
AcDbEntity
  8
TEXT
100
AcDbCircle
 10
1.460120738301399
 20
1.131938988605641
 30
0.0
 40
0.0820874594465043
100
AcDbArc
 50
90.0
 51
270.0
  0
LWPOLYLINE
  5
A7D1804
330
A7D1916
100
AcDbEntity
  8
TEXT
100
AcDbPolyline
 90
        2
 70
     0
 43
0.0001332181640625
 10
1.052034405200434
 20
1.140756457817766
 10
1.042043042895744
 20
1.214026448052146
  0
LWPOLYLINE
  5
A7D1808
330
A7D1916
100
AcDbEntity
  8
TEXT
100
AcDbPolyline
 90
        2
 70
     0
 43
0.0001332181640625
 10
1.042043042895744
 20
1.187382815239645
 10
1.052034405200434
 20
1.127434641411519
  0
LWPOLYLINE
  5
A7D180C
330
A7D1916
100
AcDbEntity
  8
TEXT
100
AcDbPolyline
 90
        3
 70
     0
 43
0.0006660908203125
 10
1.195243931567621
 20
1.100791008599018
 10
1.195243931567621
 20
1.214026448052146
 10
1.082008492114495
 20
1.214026448052146
  0
LWPOLYLINE
  5
A7D1811
330
A7D1916
100
AcDbEntity
  8
TEXT
100
AcDbPolyline
 90
        3
 70
     0
 43
0.0006660908203125
 10
1.16860029875512
 20
1.100791008599018
 10
1.16860029875512
 20
1.187382815239645
 10
1.082008492114495
 20
1.187382815239645
  0
LWPOLYLINE
  5
A7D1816
330
A7D1916
100
AcDbEntity
  8
TEXT
100
AcDbPolyline
 90
        2
 70
     0
 43
0.0001332181640625
 10
1.16860029875512
 20
1.187382815239645
 10
1.108652124926996
 20
1.127434641411519
  0
LWPOLYLINE
  5
A7D181A
330
A7D1916
100
AcDbEntity
  8
TEXT
100
AcDbPolyline
 90
        2
 70
     0
 43
0.0001332181640625
 10
1.082008492114495
 20
1.187382815239645
 10
1.072017129809807
 20
1.127434641411519
  0
LWPOLYLINE
  5
A7D181E
330
A7D1916
100
AcDbEntity
  8
TEXT
100
AcDbPolyline
 90
        2
 70
     0
 43
0.0001332181640625
 10
1.082008492114495
 20
1.214026448052146
 10
1.072017129809807
 20
1.140756457817766
  0
LWPOLYLINE
  5
A7D1822
330
A7D1916
100
AcDbEntity
  8
TEXT
100
AcDbPolyline
 90
        2
 70
     0
 43
0.0001332181640625
 10
1.121973941333245
 20
1.090799646294329
 10
1.195243931567621
 20
1.100791008599018
  0
LWPOLYLINE
  5
A7D1826
330
A7D1916
100
AcDbEntity
  8
TEXT
100
AcDbPolyline
 90
        2
 70
     0
 43
0.0001332181640625
 10
1.16860029875512
 20
1.100791008599018
 10
1.108652124926996
 20
1.090799646294329
  0
LWPOLYLINE
  5
A7D182A
330
A7D1916
100
AcDbEntity
  8
TEXT
100
AcDbPolyline
 90
        2
 70
     0
 43
0.0001332181640625
 10
1.195243931567621
 20
1.06082555938027
 10
1.121973941333245
 20
1.070816921684955
  0
LWPOLYLINE
  5
A7D182E
330
A7D1916
100
AcDbEntity
  8
TEXT
100
AcDbPolyline
 90
        2
 70
     0
 43
0.0001332181640625
 10
1.16860029875512
 20
1.06082555938027
 10
1.108652124926996
 20
1.070816921684955
  0
LWPOLYLINE
  5
A7D1832
330
A7D1916
100
AcDbEntity
  8
TEXT
100
AcDbPolyline
 90
        2
 70
     0
 43
0.0001332181640625
 10
1.16860029875512
 20
0.974233752739644
 10
1.108652124926996
 20
1.034181926567769
  0
LWPOLYLINE
  5
A7D1836
330
A7D1916
100
AcDbEntity
  8
TEXT
100
AcDbPolyline
 90
        3
 70
     0
 43
0.0006660908203125
 10
1.082008492114495
 20
0.974233752739644
 10
1.16860029875512
 20
0.974233752739644
 10
1.16860029875512
 20
1.06082555938027
  0
LWPOLYLINE
  5
A7D183B
330
A7D1916
100
AcDbEntity
  8
TEXT
100
AcDbPolyline
 90
        3
 70
     0
 43
0.0006660908203125
 10
1.082008492114495
 20
0.9475901199271429
 10
1.195243931567621
 20
0.9475901199271429
 10
1.195243931567621
 20
1.06082555938027
  0
LWPOLYLINE
  5
A7D1840
330
A7D1916
100
AcDbEntity
  8
TEXT
100
AcDbPolyline
 90
        5
 70
     0
 43
0.0001332181640625
 10
1.052034405200434
 20
1.020860110161519
 10
1.052034405200434
 20
1.034181926567769
 10
1.015399410083246
 20
1.034181926567769
 10
1.015399410083246
 20
1.070816921684955
 10
1.002077593676996
 20
1.070816921684955
  0
LWPOLYLINE
  5
A7D1847
330
A7D1916
100
AcDbEntity
  8
TEXT
100
AcDbPolyline
 90
        2
 70
     0
 43
0.0006660908203125
 10
1.042043042895744
 20
0.974233752739644
 10
1.042043042895744
 20
0.9475901199271429
  0
LWPOLYLINE
  5
A7D184B
330
A7D1916
100
AcDbEntity
  8
TEXT
100
AcDbPolyline
 90
        2
 70
     0
 43
0.0001332181640625
 10
1.042043042895744
 20
0.974233752739644
 10
1.052034405200434
 20
1.034181926567769
  0
LWPOLYLINE
  5
A7D184F
330
A7D1916
100
AcDbEntity
  8
TEXT
100
AcDbPolyline
 90
        2
 70
     0
 43
0.0001332181640625
 10
1.042043042895744
 20
0.9475901199271429
 10
1.052034405200434
 20
1.020860110161519
  0
LWPOLYLINE
  5
A7D1853
330
A7D1916
100
AcDbEntity
  8
TEXT
100
AcDbPolyline
 90
        5
 70
     0
 43
0.0001332181640625
 10
1.002077593676996
 20
1.090799646294329
 10
1.015399410083245
 20
1.090799646294329
 10
1.015399410083245
 20
1.127434641411519
 10
1.052034405200434
 20
1.127434641411519
 10
1.052034405200434
 20
1.140756457817766
  0
LWPOLYLINE
  5
A7D185A
330
A7D1916
100
AcDbEntity
  8
TEXT
100
AcDbPolyline
 90
        5
 70
     0
 43
0.0001332181640625
 10
1.072017129809807
 20
1.140756457817766
 10
1.072017129809807
 20
1.127434641411519
 10
1.108652124926996
 20
1.127434641411519
 10
1.108652124926996
 20
1.090799646294329
 10
1.121973941333245
 20
1.090799646294329
  0
LWPOLYLINE
  5
A7D1861
330
A7D1916
100
AcDbEntity
  8
TEXT
100
AcDbPolyline
 90
        2
 70
     0
 43
0.0001332181640625
 10
1.082008492114495
 20
0.974233752739644
 10
1.072017129809807
 20
1.034181926567769
  0
LWPOLYLINE
  5
A7D1865
330
A7D1916
100
AcDbEntity
  8
TEXT
100
AcDbPolyline
 90
        2
 70
     0
 43
0.0001332181640625
 10
1.072017129809807
 20
1.020860110161519
 10
1.082008492114495
 20
0.9475901199271429
  0
LWPOLYLINE
  5
A7D1869
330
A7D1916
100
AcDbEntity
  8
TEXT
100
AcDbPolyline
 90
        2
 70
     0
 43
0.0006660908203125
 10
1.082008492114495
 20
0.974233752739644
 10
1.082008492114495
 20
0.9475901199271429
  0
LWPOLYLINE
  5
A7D186D
330
A7D1916
100
AcDbEntity
  8
TEXT
100
AcDbPolyline
 90
        5
 70
     0
 43
0.0001332181640625
 10
1.121973941333245
 20
1.070816921684955
 10
1.108652124926996
 20
1.070816921684955
 10
1.108652124926996
 20
1.034181926567769
 10
1.072017129809807
 20
1.034181926567769
 10
1.072017129809807
 20
1.020860110161519
  0
LWPOLYLINE
  5
A7D1874
330
A7D1916
100
AcDbEntity
  8
TEXT
100
AcDbPolyline
 90
        2
 70
     0
 43
0.0006660908203125
 10
1.16860029875512
 20
1.100791008599018
 10
1.195243931567621
 20
1.100791008599018
  0
LWPOLYLINE
  5
A7D1878
330
A7D1916
100
AcDbEntity
  8
TEXT
100
AcDbPolyline
 90
        2
 70
     0
 43
0.0006660908203125
 10
1.16860029875512
 20
1.06082555938027
 10
1.195243931567621
 20
1.06082555938027
  0
LINE
  5
A7D187C
330
A7D1916
100
AcDbEntity
  8
TEXT
100
AcDbLine
 10
1.465358068415646
 20
1.149749753395377
 30
0.0
 11
1.632263722444617
 21
1.149749753395377
 31
0.0
  0
LINE
  5
A7D187D
330
A7D1916
100
AcDbEntity
  8
TEXT
100
AcDbLine
 10
1.530958204659947
 20
1.113945031784749
 30
0.0
 11
1.465358068415646
 21
1.113945031784749
 31
0.0
  0
LINE
  5
A7D187E
330
A7D1916
100
AcDbEntity
  8
TEXT
100
AcDbLine
 10
1.378033278854895
 20
0.9475534150636317
 30
0.0
 11
1.530958204659947
 21
0.9475534150636317
 31
0.0
  0
LINE
  5
A7D187F
330
A7D1916
100
AcDbEntity
  8
TEXT
100
AcDbLine
 10
1.535898578566227
 20
1.015910421397071
 30
0.0
 11
1.378033278854893
 21
1.015910421397071
 31
0.0
  0
LINE
  5
A7D1880
330
A7D1916
100
AcDbEntity
  8
TEXT
100
AcDbLine
 10
1.460120738301398
 20
1.049851529159135
 30
0.0
 11
1.535898578566227
 21
1.049851529159135
 31
0.0
  0
ARC
  5
A7D1881
330
A7D1916
100
AcDbEntity
  8
TEXT
100
AcDbCircle
 10
1.465358068415647
 20
1.131847392590065
 30
0.0
 40
0.017902360805315
100
AcDbArc
 50
90.0
 51
270.0
  0
LINE
  5
A7D1882
330
A7D1916
100
AcDbEntity
  8
TEXT
100
AcDbLine
 10
1.378033278854893
 20
1.015910421397071
 30
0.0
 11
1.378033278854895
 21
0.9475534150636317
 31
0.0
  0
LINE
  5
A7D1883
330
A7D1916
100
AcDbEntity
  8
TEXT
100
AcDbLine
 10
1.632263722444617
 20
1.149749753395377
 30
0.0
 11
1.632263722444617
 21
1.007345806401681
 31
0.0
  0
ARC
  5
A7D1884
330
A7D1916
100
AcDbEntity
  8
TEXT
100
AcDbCircle
 10
1.530958204659948
 20
1.030749223424188
 30
0.0
 40
0.0831958083605586
100
AcDbArc
 50
270.0
 51
90.0
  0
ARC
  5
A7D1885
330
A7D1916
100
AcDbEntity
  8
TEXT
100
AcDbCircle
 10
1.535898578566228
 20
1.032880975278105
 30
0.0
 40
0.0169705538810321
100
AcDbArc
 50
270.0
 51
90.0
  0
LWPOLYLINE
  5
A7D1886
330
A7D1916
100
AcDbEntity
  8
TEXT
100
AcDbPolyline
 90
        2
 70
     0
 43
0.0006660908203125
 10
1.042043042895744
 20
1.187382815239645
 10
1.042043042895744
 20
1.214026448052146
  0
LWPOLYLINE
  5
A7D188A
330
A7D1916
100
AcDbEntity
  8
TEXT
100
AcDbPolyline
 90
        2
 70
     0
 43
0.0006660908203125
 10
1.082008492114495
 20
1.187382815239645
 10
1.082008492114495
 20
1.214026448052146
  0
LINE
  5
A7D188E
330
A7D1916
100
AcDbEntity
  8
TEXT
100
AcDbLine
 10
1.63585249119991
 20
1.214026448052142
 30
0.0
 11
1.460120738301398
 21
1.214026448052142
 31
0.0
  0
LINE
  5
A7D188F
330
A7D1916
100
AcDbEntity
  8
TEXT
100
AcDbLine
 10
1.63585249119991
 20
1.24841436564628
 30
0.0
 11
1.63585249119991
 21
1.214026448052142
 31
0.0
  0
LINE
  5
A7D1890
330
A7D1916
100
AcDbEntity
  8
TEXT
100
AcDbLine
 10
1.826324383219763
 20
1.113154451939022
 30
0.0
 11
1.767694062187825
 21
1.214026448052142
 31
0.0
  0
LINE
  5
A7D1891
330
A7D1916
100
AcDbEntity
  8
TEXT
100
AcDbLine
 10
1.885072946025628
 20
1.214026448052142
 30
0.0
 11
1.826324383219763
 21
1.113154451939022
 31
0.0
  0
LINE
  5
A7D1892
330
A7D1916
100
AcDbEntity
  8
TEXT
100
AcDbLine
 10
1.982003571385369
 20
1.02994125316663
 30
0.0
 11
1.982003571385369
 21
1.282037925790953
 31
0.0
  0
LINE
  5
A7D1893
330
A7D1916
100
AcDbEntity
  8
TEXT
100
AcDbLine
 10
2.01431542552303
 20
1.214026448052142
 30
0.0
 11
2.01431542552303
 21
1.013162241319734
 31
0.0
  0
LINE
  5
A7D1894
330
A7D1916
100
AcDbEntity
  8
TEXT
100
AcDbLine
 10
2.01431542552303
 20
1.013162241319734
 30
0.0
 11
1.997321788638428
 21
1.013162241319734
 31
0.0
  0
LINE
  5
A7D1895
330
A7D1916
100
AcDbEntity
  8
TEXT
100
AcDbLine
 10
1.983143144881564
 20
0.9475534150636317
 30
0.0
 11
2.081146478580999
 21
0.9475534150636317
 31
0.0
  0
LINE
  5
A7D1896
330
A7D1916
100
AcDbEntity
  8
TEXT
100
AcDbLine
 10
1.816724146222808
 20
0.9675119211686446
 30
0.0
 11
1.914023852316253
 21
1.131862132103912
 31
0.0
  0
ARC
  5
A7D1897
330
A7D1916
100
AcDbEntity
  8
TEXT
100
AcDbCircle
 10
1.782680586310594
 20
0.9871011373373274
 30
0.0
 40
0.0392772371940762
100
AcDbArc
 50
270.1604552698595
 51
330.0831797321295
  0
LINE
  5
A7D1898
330
A7D1916
100
AcDbEntity
  8
TEXT
100
AcDbLine
 10
1.686150329924723
 20
0.9475534150636317
 30
0.0
 11
1.782790580999717
 21
0.947824054161914
 31
0.0
  0
LWPOLYLINE
  5
A7D1899
330
A7D1916
100
AcDbEntity
  8
TEXT
100
AcDbPolyline
 90
        6
 70
     1
 43
0.0
 10
1.728674133499873
 20
1.149749753395377
 10
1.698357539279665
 20
1.149749753395377
 10
1.698357539279665
 20
1.026638755340482
 42
0.407328721240804
 10
1.709901190441141
 20
1.014819840664096
 10
1.770522889485872
 20
1.014819840664096
 10
1.78798822989319
 20
1.047632069707576
  0
LINE
  5
A7D18A1
330
A7D1916
100
AcDbEntity
  8
TEXT
100
AcDbLine
 10
1.914023852316253
 20
1.131862132103912
 30
0.0
 11
1.914023852316253
 21
0.9991047572785564
 31
0.0
  0
ARC
  5
A7D18A2
330
A7D1916
100
AcDbEntity
  8
TEXT
100
AcDbCircle
 10
1.997321788638426
 20
1.028544047563159
 30
0.0
 40
0.0153818062434269
100
AcDbArc
 50
174.7883570302258
 51
270.0
  0
LWPOLYLINE
  5
A7D18A3
330
A7D1916
100
AcDbEntity
  8
TEXT
100
AcDbPolyline
 90
        2
 70
     0
 43
0.0
 10
1.914023852316251
 20
0.99910475727856
 42
0.3318488747599744
 10
1.983143144881564
 20
0.9475534150636317
 42
-6.868794160588311
  0
LINE
  5
A7D18A7
330
A7D1916
100
AcDbEntity
  8
TEXT
100
AcDbLine
 10
2.13853554757026
 20
0.9475534150636317
 30
0.0
 11
2.2055935943521
 21
0.9475534150636317
 31
0.0
  0
LINE
  5
A7D18A8
330
A7D1916
100
AcDbEntity
  8
TEXT
100
AcDbLine
 10
2.13853554757026
 20
1.142195964229267
 30
0.0
 11
2.13853554757026
 21
0.9475534150636317
 31
0.0
  0
LINE
  5
A7D18A9
330
A7D1916
100
AcDbEntity
  8
TEXT
100
AcDbLine
 10
2.081146478580999
 20
1.149749753395377
 30
0.0
 11
2.130981758404146
 21
1.149749753395377
 31
0.0
  0
LINE
  5
A7D18AA
330
A7D1916
100
AcDbEntity
  8
TEXT
100
AcDbLine
 10
2.081146478580999
 20
0.9475534150636317
 30
0.0
 11
2.081146478580999
 21
1.149749753395377
 31
0.0
  0
LWPOLYLINE
  5
A7D18AB
330
A7D1916
100
AcDbEntity
  8
TEXT
100
AcDbPolyline
 90
        2
 70
     0
 43
0.0
 10
2.130981758404145
 20
1.149749753395377
 42
-0.4142135623731017
 10
2.138535547570258
 20
1.142195964229267
 42
-0.9999999999999998
  0
LINE
  5
A7D18AF
330
A7D1916
100
AcDbEntity
  8
TEXT
100
AcDbLine
 10
2.33679175918183
 20
1.149749753395377
 30
0.0
 11
2.33679175918183
 21
1.07469734732117
 31
0.0
  0
LINE
  5
A7D18B0
330
A7D1916
100
AcDbEntity
  8
TEXT
100
AcDbLine
 10
2.2055935943521
 20
1.149749753395377
 30
0.0
 11
2.25972719127305
 21
1.149749753395377
 31
0.0
  0
LINE
  5
A7D18B1
330
A7D1916
100
AcDbEntity
  8
TEXT
100
AcDbLine
 10
2.2055935943521
 20
0.9475534150636317
 30
0.0
 11
2.2055935943521
 21
1.149749753395377
 31
0.0
  0
LWPOLYLINE
  5
A7D18B2
330
A7D1916
100
AcDbEntity
  8
TEXT
100
AcDbPolyline
 90
        2
 70
     0
 43
0.0
 10
2.259727191273048
 20
1.149749753395377
 42
-0.4142135623731017
 10
2.267280980439162
 20
1.142195964229267
 42
-0.9999999999999998
  0
LWPOLYLINE
  5
A7D18B6
330
A7D1916
100
AcDbEntity
  8
TEXT
100
AcDbPolyline
 90
        4
 70
     0
 43
0.0
 10
2.267280980439162
 20
1.142195964229267
 10
2.267280980439162
 20
0.9475534150636317
 10
2.33575926372702
 20
0.9475534150636317
 10
2.33575926372702
 20
0.9910443600140698
 42
-1.714843617202739
  0
LINE
  5
A7D18BC
330
A7D1916
100
AcDbEntity
  8
TEXT
100
AcDbLine
 10
1.695895096043917
 20
1.214026448052142
 30
0.0
 11
1.695895096043917
 21
1.24841436564628
 31
0.0
  0
LINE
  5
A7D18BD
330
A7D1916
100
AcDbEntity
  8
TEXT
100
AcDbLine
 10
1.767694062187825
 20
1.214026448052142
 30
0.0
 11
1.695895096043917
 21
1.214026448052142
 31
0.0
  0
LINE
  5
A7D18BE
330
A7D1916
100
AcDbEntity
  8
TEXT
100
AcDbLine
 10
1.915194858819004
 20
1.214026448052142
 30
0.0
 11
1.885072946025628
 21
1.214026448052142
 31
0.0
  0
LINE
  5
A7D18BF
330
A7D1916
100
AcDbEntity
  8
TEXT
100
AcDbLine
 10
1.915194858819004
 20
1.282037925790953
 30
0.0
 11
1.915194858819004
 21
1.214026448052142
 31
0.0
  0
LINE
  5
A7D18C0
330
A7D1916
100
AcDbEntity
  8
TEXT
100
AcDbLine
 10
1.982003571385369
 20
1.282037925790953
 30
0.0
 11
1.915194858819004
 21
1.282037925790953
 31
0.0
  0
LWPOLYLINE
  5
A7D18C1
330
A7D1916
100
AcDbEntity
  8
TEXT
100
AcDbPolyline
 90
        3
 70
     0
 43
0.0
 10
2.302415330983372
 20
1.214026448052146
 10
2.184115172167327
 20
1.214026448052146
 10
2.184115172167327
 20
1.18685895129125
 42
-1.960274751411753
  0
LINE
  5
A7D18C6
330
A7D1916
100
AcDbEntity
  8
TEXT
100
AcDbLine
 10
2.148333481454166
 20
1.214026448052142
 30
0.0
 11
2.01431542552303
 21
1.214026448052142
 31
0.0
  0
LWPOLYLINE
  5
A7D18C7
330
A7D1916
100
AcDbEntity
  8
TEXT
100
AcDbPolyline
 90
        2
 70
     0
 43
0.0
 10
2.148333481454166
 20
1.214026448052146
 42
-0.3328679258950098
 10
2.184115172167327
 20
1.18685895129125
 42
6.772930709997214
  0
LINE
  5
A7D18CB
330
A7D1916
100
AcDbEntity
  8
TEXT
100
AcDbLine
 10
2.338197021696538
 20
1.214026448052142
 30
0.0
 11
2.338197021696538
 21
1.185703902282498
 31
0.0
  0
LWPOLYLINE
  5
A7D18CC
330
A7D1916
100
AcDbEntity
  8
TEXT
100
AcDbPolyline
 90
        2
 70
     0
 43
0.0
 10
2.302415330983372
 20
1.214026448052146
 42
-0.3277054968067132
 10
2.338197021696537
 20
1.185703902282502
 42
6.667889725900311
  0
LINE
  5
A7D18D0
330
A7D1916
100
AcDbEntity
  8
TEXT
100
AcDbLine
 10
2.551988869788639
 20
1.108814469498715
 30
0.0
 11
2.508238098606737
 21
1.19106474549486
 31
0.0
  0
LINE
  5
A7D18D1
330
A7D1916
100
AcDbEntity
  8
TEXT
100
AcDbLine
 10
2.551988869788639
 20
1.214026448052142
 30
0.0
 11
2.551988869788639
 21
1.108814469498715
 31
0.0
  0
LINE
  5
A7D18D2
330
A7D1916
100
AcDbEntity
  8
TEXT
100
AcDbLine
 10
2.779672608727008
 20
1.138161121640604
 30
0.0
 11
2.779672608727008
 21
1.279490653819743
 31
0.0
  0
LINE
  5
A7D18D3
330
A7D1916
100
AcDbEntity
  8
TEXT
100
AcDbLine
 10
2.826770767282992
 20
1.214026448052142
 30
0.0
 11
2.779672608727008
 21
1.138161121640604
 31
0.0
  0
LINE
  5
A7D18D4
330
A7D1916
100
AcDbEntity
  8
TEXT
100
AcDbLine
 10
2.837205484046915
 20
1.104133205111169
 30
0.0
 11
2.90176260001262
 21
1.214026448052142
 31
0.0
  0
LINE
  5
A7D18D5
330
A7D1916
100
AcDbEntity
  8
TEXT
100
AcDbLine
 10
2.715837617504234
 20
0.9475534150636317
 30
0.0
 11
2.780215801822855
 21
0.9475534150636317
 31
0.0
  0
LWPOLYLINE
  5
A7D18D6
330
A7D1916
100
AcDbEntity
  8
TEXT
100
AcDbPolyline
 90
        2
 70
     0
 43
0.0
 10
2.555928547093676
 20
0.9910443600140698
 42
-0.2901071551932486
 10
2.512852614226032
 20
0.9475534150636317
 42
-5.328517124445184
  0
ARC
  5
A7D18DA
330
A7D1916
100
AcDbEntity
  8
TEXT
100
AcDbCircle
 10
2.443998032569117
 20
1.12139037839538
 30
0.0
 40
0.028359375
100
AcDbArc
 50
25.78218179591245
 51
90.0
  0
LINE
  5
A7D18DB
330
A7D1916
100
AcDbEntity
  8
TEXT
100
AcDbLine
 10
2.47979910787324
 20
1.112474779933245
 30
0.0
 11
2.469534347459676
 21
1.133725319505939
 31
0.0
  0
LINE
  5
A7D18DC
330
A7D1916
100
AcDbEntity
  8
TEXT
100
AcDbLine
 10
2.397511118089857
 20
1.112474779933245
 30
0.0
 11
2.47979910787324
 21
1.112474779933245
 31
0.0
  0
LWPOLYLINE
  5
A7D18DD
330
A7D1916
100
AcDbEntity
  8
TEXT
100
AcDbPolyline
 90
        4
 70
     1
 43
0.0
 10
2.492730149156139
 20
1.050517393047657
 10
2.404069830496281
 20
1.050517393047657
 42
0.9999999999999998
 10
2.404069830496281
 20
1.008118852543796
 10
2.492730149156139
 20
1.008118852543796
 42
1.0
  0
LWPOLYLINE
  5
A7D18E3
330
A7D1916
100
AcDbEntity
  8
TEXT
100
AcDbPolyline
 90
        2
 70
     0
 43
0.0
 10
2.378835196594655
 20
0.9475534150636317
 10
2.512852614226032
 20
0.9475534150636317
 42
0.9999999999999998
  0
LINE
  5
A7D18E7
330
A7D1916
100
AcDbEntity
  8
TEXT
100
AcDbLine
 10
2.639189636211671
 20
1.149749753395377
 30
0.0
 11
2.715837617504229
 21
1.149749753395377
 31
0.0
  0
LINE
  5
A7D18E8
330
A7D1916
100
AcDbEntity
  8
TEXT
100
AcDbLine
 10
2.715837617504229
 20
1.149749753395377
 30
0.0
 11
2.715837617504234
 21
0.9475534150636317
 31
0.0
  0
ARC
  5
A7D18E9
330
A7D1916
100
AcDbEntity
  8
TEXT
100
AcDbCircle
 10
2.63918963621167
 20
1.124843878112714
 30
0.0
 40
0.0249058752826653
100
AcDbArc
 50
89.99971217465335
 51
179.9999999999985
  0
LINE
  5
A7D18EA
330
A7D1916
100
AcDbEntity
  8
TEXT
100
AcDbLine
 10
2.614283760929012
 20
0.9475534150636317
 30
0.0
 11
2.614283760929007
 21
1.1248439204951
 31
0.0
  0
LWPOLYLINE
  5
A7D18EB
330
A7D1916
100
AcDbEntity
  8
TEXT
100
AcDbPolyline
 90
        2
 70
     0
 43
0.0
 10
2.555928547093676
 20
0.9475534150636317
 10
2.61428376092901
 20
0.9475534150636317
  0
LWPOLYLINE
  5
A7D18EF
330
A7D1916
100
AcDbEntity
  8
TEXT
100
AcDbPolyline
 90
        2
 70
     0
 43
0.0
 10
2.555928547093676
 20
0.9910443600140698
 10
2.555928547093676
 20
0.9475534150636317
  0
LINE
  5
A7D18F3
330
A7D1916
100
AcDbEntity
  8
TEXT
100
AcDbLine
 10
2.932697707410525
 20
0.9475534150636317
 30
0.0
 11
2.837205484046915
 21
1.104133205111169
 31
0.0
  0
LINE
  5
A7D18F4
330
A7D1916
100
AcDbEntity
  8
TEXT
100
AcDbLine
 10
2.856119335034319
 20
0.9475534150636317
 30
0.0
 11
2.932697707410525
 21
0.9475534150636317
 31
0.0
  0
LINE
  5
A7D18F5
330
A7D1916
100
AcDbEntity
  8
TEXT
100
AcDbLine
 10
2.780215801822855
 20
1.079132983539812
 30
0.0
 11
2.856119335034319
 21
0.9475534150636317
 31
0.0
  0
LINE
  5
A7D18F6
330
A7D1916
100
AcDbEntity
  8
TEXT
100
AcDbLine
 10
2.780215801822855
 20
0.9475534150636317
 30
0.0
 11
2.780215801822855
 21
1.079132983539812
 31
0.0
  0
LINE
  5
A7D18F7
330
A7D1916
100
AcDbEntity
  8
TEXT
100
AcDbLine
 10
2.779672608727008
 20
1.279490653819743
 30
0.0
 11
2.711357730177734
 21
1.279490653819743
 31
0.0
  0
ARC
  5
A7D18F8
330
A7D1916
100
AcDbEntity
  8
TEXT
100
AcDbCircle
 10
2.471001991136528
 20
1.17244288093124
 30
0.0
 40
0.0416329381542859
100
AcDbArc
 50
26.56974201007528
 51
87.20939649401342
  0
LINE
  5
A7D18F9
330
A7D1916
100
AcDbEntity
  8
TEXT
100
AcDbLine
 10
2.615885776088139
 20
1.214026448052142
 30
0.0
 11
2.551988869788639
 21
1.214026448052142
 31
0.0
  0
LINE
  5
A7D18FA
330
A7D1916
100
AcDbEntity
  8
TEXT
100
AcDbLine
 10
2.615885776088139
 20
1.186478798191268
 30
0.0
 11
2.615885776088139
 21
1.214026448052142
 31
0.0
  0
ARC
  5
A7D18FB
330
A7D1916
100
AcDbEntity
  8
TEXT
100
AcDbCircle
 10
2.647078593151247
 20
1.182780720769877
 30
0.0
 40
0.0314112657011332
100
AcDbArc
 50
95.88484768694724
 51
173.2388340632136
  0
LINE
  5
A7D18FC
330
A7D1916
100
AcDbEntity
  8
TEXT
100
AcDbLine
 10
2.711357730177729
 20
1.214026448052142
 30
0.0
 11
2.643858012528212
 21
1.214026448052142
 31
0.0
  0
LINE
  5
A7D18FD
330
A7D1916
100
AcDbEntity
  8
TEXT
100
AcDbLine
 10
2.711357730177734
 20
1.279490653819743
 30
0.0
 11
2.711357730177729
 21
1.214026448052142
 31
0.0
  0
LINE
  5
A7D18FE
330
A7D1916
100
AcDbEntity
  8
TEXT
100
AcDbLine
 10
2.90176260001262
 20
1.214026448052142
 30
0.0
 11
2.826770767282994
 21
1.214026448052142
 31
0.0
  0
ENDSEC
  0
SECTION
  2
OBJECTS
  0
DICTIONARY
  5
A7D190A
330
0
100
AcDbDictionary
  3
ACAD_GROUP
350
A7D190B
  3
ACAD_LAYOUT
350
A7D1936
  3
ACAD_MLINESTYLE
350
A7D190C
  3
ACAD_PLOTSETTINGS
350
A7D1937
  3
ACAD_PLOTSTYLENAME
350
A7D1934
  3
ACDBHEADERROUNDTRIPXREC
350
A7D1941
  3
ACDBVARIABLEDICTIONARY
350
A7D193E
  0
DICTIONARY
  5
A7D1963
330
A7D1916
100
AcDbDictionary
280
     1
  3
ACAD_LAYOUTSELFREF
360
A7D1964
  0
DICTIONARY
  5
A7D1961
330
A7D1913
100
AcDbDictionary
280
     1
  3
ACAD_LAYOUTSELFREF
360
A7D1962
  0
DICTIONARY
  5
A7D190B
102
{ACAD_REACTORS
330
A7D190A
102
}
330
A7D190A
100
AcDbDictionary
  0
DICTIONARY
  5
A7D1936
102
{ACAD_REACTORS
330
A7D190A
102
}
330
A7D190A
100
AcDbDictionary
  0
DICTIONARY
  5
A7D190C
102
{ACAD_REACTORS
330
A7D190A
102
}
330
A7D190A
100
AcDbDictionary
  3
STANDARD
350
A7D1919
  0
DICTIONARY
  5
A7D1937
102
{ACAD_REACTORS
330
A7D190A
102
}
330
A7D190A
100
AcDbDictionary
  0
ACDBDICTIONARYWDFLT
  5
A7D1934
102
{ACAD_REACTORS
330
A7D190A
102
}
330
A7D190A
100
AcDbDictionary
281
     1
  3
Normal
350
A7D1935
100
AcDbDictionaryWithDefault
340
A7D1935
  0
DICTIONARY
  5
A7D1941
102
{ACAD_REACTORS
330
A7D190A
102
}
330
A7D190A
100
AcDbDictionary
  3
CEPSNTYPE
350
A7D194B
  3
FINGERPRINTGUID
350
A7D194C
  3
HYPERLINKBASE
350
A7D1944
  3
INSUNITS
350
A7D194A
  3
LAYOUTDICT
350
A7D1946
  3
LWETCUNION
350
A7D1949
  3
PLOTSETDICT
350
A7D1947
  3
PLOTSTYLNAMDICT
350
A7D1948
  3
PSVPSCALE
350
A7D194E
  3
PUCSBASE
350
A7D1951
  3
PUCSORGBACK
350
A7D1957
  3
PUCSORGBOTTOM
350
A7D1953
  3
PUCSORGFRONT
350
A7D1956
  3
PUCSORGLEFT
350
A7D1954
  3
PUCSORGRIGHT
350
A7D1955
  3
PUCSORGTOP
350
A7D1952
  3
PUCSORTHOREF
350
A7D194F
  3
PUCSORTHOVIEW
350
A7D1950
  3
STYLESHEET
350
A7D1945
  3
TSTACKALIGN
350
A7D1942
  3
TSTACKSIZE
350
A7D1943
  3
UCSBASE
350
A7D195A
  3
UCSORGBACK
350
A7D1960
  3
UCSORGBOTTOM
350
A7D195C
  3
UCSORGFRONT
350
A7D195F
  3
UCSORGLEFT
350
A7D195D
  3
UCSORGRIGHT
350
A7D195E
  3
UCSORGTOP
350
A7D195B
  3
UCSORTHOREF
350
A7D1958
  3
UCSORTHOVIEW
350
A7D1959
  3
VERSIONGUID
350
A7D194D
  0
DICTIONARY
  5
A7D193E
102
{ACAD_REACTORS
330
A7D190A
102
}
330
A7D190A
100
AcDbDictionary
  3
DIMASSOC
350
A7D193F
  0
XRECORD
  5
A7D1964
102
{ACAD_REACTORS
330
A7D1963
102
}
330
A7D1963
100
AcDbXrecord
340
A7D1916
  0
XRECORD
  5
A7D1962
102
{ACAD_REACTORS
330
A7D1961
102
}
330
A7D1961
100
AcDbXrecord
340
A7D1913
  0
MLINESTYLE
  5
A7D1919
102
{ACAD_REACTORS
330
A7D190C
102
}
330
A7D190C
100
AcDbMlineStyle
  2
STANDARD
 70
     0
  3

 62
     0
 51
90.0
 52
90.0
 71
     2
 49
0.5
 62
   256
  6
BYLAYER
 49
-0.5
 62
   256
  6
BYLAYER
  0
ACDBPLACEHOLDER
  5
A7D1935
102
{ACAD_REACTORS
330
A7D1934
102
}
330
A7D1934
100
AcDbPlaceHolder
280
     0
  0
XRECORD
  5
A7D194B
102
{ACAD_REACTORS
330
A7D1941
102
}
330
A7D1941
100
AcDbXrecord
 90
        0
  0
XRECORD
  5
A7D194C
102
{ACAD_REACTORS
330
A7D1941
102
}
330
A7D1941
100
AcDbXrecord
  1
{82E5B5C0-8DB3-11D6-88E6-0090279574E7}
  0
XRECORD
  5
A7D1944
102
{ACAD_REACTORS
330
A7D1941
102
}
330
A7D1941
100
AcDbXrecord
  1

  0
XRECORD
  5
A7D194A
102
{ACAD_REACTORS
330
A7D1941
102
}
330
A7D1941
100
AcDbXrecord
 90
        0
  0
XRECORD
  5
A7D1946
102
{ACAD_REACTORS
330
A7D1941
102
}
330
A7D1941
100
AcDbXrecord
340
A7D1936
  0
XRECORD
  5
A7D1949
102
{ACAD_REACTORS
330
A7D1941
102
}
330
A7D1941
100
AcDbXrecord
 90
    14877
  0
XRECORD
  5
A7D1947
102
{ACAD_REACTORS
330
A7D1941
102
}
330
A7D1941
100
AcDbXrecord
340
A7D1937
  0
XRECORD
  5
A7D1948
102
{ACAD_REACTORS
330
A7D1941
102
}
330
A7D1941
100
AcDbXrecord
340
A7D1934
  0
XRECORD
  5
A7D194E
102
{ACAD_REACTORS
330
A7D1941
102
}
330
A7D1941
100
AcDbXrecord
 40
0.0
  0
XRECORD
  5
A7D1951
102
{ACAD_REACTORS
330
A7D1941
102
}
330
A7D1941
100
AcDbXrecord
340
0
  0
XRECORD
  5
A7D1957
102
{ACAD_REACTORS
330
A7D1941
102
}
330
A7D1941
100
AcDbXrecord
 10
0.0
 20
0.0
 30
0.0
  0
XRECORD
  5
A7D1953
102
{ACAD_REACTORS
330
A7D1941
102
}
330
A7D1941
100
AcDbXrecord
 10
0.0
 20
0.0
 30
0.0
  0
XRECORD
  5
A7D1956
102
{ACAD_REACTORS
330
A7D1941
102
}
330
A7D1941
100
AcDbXrecord
 10
0.0
 20
0.0
 30
0.0
  0
XRECORD
  5
A7D1954
102
{ACAD_REACTORS
330
A7D1941
102
}
330
A7D1941
100
AcDbXrecord
 10
0.0
 20
0.0
 30
0.0
  0
XRECORD
  5
A7D1955
102
{ACAD_REACTORS
330
A7D1941
102
}
330
A7D1941
100
AcDbXrecord
 10
0.0
 20
0.0
 30
0.0
  0
XRECORD
  5
A7D1952
102
{ACAD_REACTORS
330
A7D1941
102
}
330
A7D1941
100
AcDbXrecord
 10
0.0
 20
0.0
 30
0.0
  0
XRECORD
  5
A7D194F
102
{ACAD_REACTORS
330
A7D1941
102
}
330
A7D1941
100
AcDbXrecord
340
0
  0
XRECORD
  5
A7D1950
102
{ACAD_REACTORS
330
A7D1941
102
}
330
A7D1941
100
AcDbXrecord
 70
     0
  0
XRECORD
  5
A7D1945
102
{ACAD_REACTORS
330
A7D1941
102
}
330
A7D1941
100
AcDbXrecord
  1

  0
XRECORD
  5
A7D1942
102
{ACAD_REACTORS
330
A7D1941
102
}
330
A7D1941
100
AcDbXrecord
 90
        1
  0
XRECORD
  5
A7D1943
102
{ACAD_REACTORS
330
A7D1941
102
}
330
A7D1941
100
AcDbXrecord
 90
       70
  0
XRECORD
  5
A7D195A
102
{ACAD_REACTORS
330
A7D1941
102
}
330
A7D1941
100
AcDbXrecord
340
0
  0
XRECORD
  5
A7D1960
102
{ACAD_REACTORS
330
A7D1941
102
}
330
A7D1941
100
AcDbXrecord
 10
0.0
 20
0.0
 30
0.0
  0
XRECORD
  5
A7D195C
102
{ACAD_REACTORS
330
A7D1941
102
}
330
A7D1941
100
AcDbXrecord
 10
0.0
 20
0.0
 30
0.0
  0
XRECORD
  5
A7D195F
102
{ACAD_REACTORS
330
A7D1941
102
}
330
A7D1941
100
AcDbXrecord
 10
0.0
 20
0.0
 30
0.0
  0
XRECORD
  5
A7D195D
102
{ACAD_REACTORS
330
A7D1941
102
}
330
A7D1941
100
AcDbXrecord
 10
0.0
 20
0.0
 30
0.0
  0
XRECORD
  5
A7D195E
102
{ACAD_REACTORS
330
A7D1941
102
}
330
A7D1941
100
AcDbXrecord
 10
0.0
 20
0.0
 30
0.0
  0
XRECORD
  5
A7D195B
102
{ACAD_REACTORS
330
A7D1941
102
}
330
A7D1941
100
AcDbXrecord
 10
0.0
 20
0.0
 30
0.0
  0
XRECORD
  5
A7D1958
102
{ACAD_REACTORS
330
A7D1941
102
}
330
A7D1941
100
AcDbXrecord
340
0
  0
XRECORD
  5
A7D1959
102
{ACAD_REACTORS
330
A7D1941
102
}
330
A7D1941
100
AcDbXrecord
 70
     0
  0
XRECORD
  5
A7D194D
102
{ACAD_REACTORS
330
A7D1941
102
}
330
A7D1941
100
AcDbXrecord
  1
{82E5B5C2-8DB3-11D6-88E6-0090279574E7}
  0
DICTIONARYVAR
  5
A7D193F
102
{ACAD_REACTORS
330
A7D193E
102
}
330
A7D193E
100
DictionaryVariables
280
     0
  1
1
  0
ENDSEC
  0
EOF
