  0
SECTION
  2
HEADER
  9
$ACADVER
  1
AC1014
  9
$ACADMAINTVER
 70
     9
  9
$DWGCODEPAGE
  3
ANSI_1252
  9
$INSBASE
 10
2.734375
 20
1.848221618357488
 30
0.0
  9
$EXTMIN
 10
0.9913934207728567
 20
1.155828014274906
 30
0.0
  9
$EXTMAX
 10
4.476612742519987
 20
2.348221618357487
 30
0.0
  9
$LIMMIN
 10
0.0
 20
0.0
  9
$LIMMAX
 10
18.0
 20
12.0
  9
$ORTHOMODE
 70
     1
  9
$REGENMODE
 70
     1
  9
$FILLMODE
 70
     1
  9
$QTEXTMODE
 70
     0
  9
$MIRRTEXT
 70
     0
  9
$DRAGMODE
 70
     2
  9
$LTSCALE
 40
1.0
  9
$OSMODE
 70
    39
  9
$ATTMODE
 70
     1
  9
$TEXTSIZE
 40
0.125
  9
$TRACEWID
 40
0.05
  9
$TEXTSTYLE
  7
ROMANS
  9
$CLAYER
  8
0
  9
$CELTYPE
  6
BYLAYER
  9
$CECOLOR
 62
   256
  9
$CELTSCALE
 40
1.0
  9
$DELOBJ
 70
     1
  9
$DISPSILH
 70
     1
  9
$DIMSCALE
 40
1.0
  9
$DIMASZ
 40
0.125
  9
$DIMEXO
 40
0.125
  9
$DIMDLI
 40
0.375
  9
$DIMRND
 40
0.0
  9
$DIMDLE
 40
0.0
  9
$DIMEXE
 40
0.125
  9
$DIMTP
 40
0.0
  9
$DIMTM
 40
0.0
  9
$DIMTXT
 40
0.125
  9
$DIMCEN
 40
-0.125
  9
$DIMTSZ
 40
0.0
  9
$DIMTOL
 70
     0
  9
$DIMLIM
 70
     0
  9
$DIMTIH
 70
     1
  9
$DIMTOH
 70
     1
  9
$DIMSE1
 70
     0
  9
$DIMSE2
 70
     0
  9
$DIMTAD
 70
     0
  9
$DIMZIN
 70
     4
  9
$DIMBLK
  1

  9
$DIMASO
 70
     1
  9
$DIMSHO
 70
     1
  9
$DIMPOST
  1

  9
$DIMAPOST
  1

  9
$DIMALT
 70
     0
  9
$DIMALTD
 70
     2
  9
$DIMALTF
 40
25.4
  9
$DIMLFAC
 40
1.0
  9
$DIMTOFL
 70
     0
  9
$DIMTVP
 40
0.0
  9
$DIMTIX
 70
     1
  9
$DIMSOXD
 70
     0
  9
$DIMSAH
 70
     0
  9
$DIMBLK1
  1

  9
$DIMBLK2
  1

  9
$DIMSTYLE
  2
STANDARD
  9
$DIMCLRD
 70
     0
  9
$DIMCLRE
 70
     0
  9
$DIMCLRT
 70
     0
  9
$DIMTFAC
 40
1.0
  9
$DIMGAP
 40
0.09
  9
$DIMJUST
 70
     0
  9
$DIMSD1
 70
     0
  9
$DIMSD2
 70
     0
  9
$DIMTOLJ
 70
     1
  9
$DIMTZIN
 70
     4
  9
$DIMALTZ
 70
     0
  9
$DIMALTTZ
 70
     0
  9
$DIMFIT
 70
     3
  9
$DIMUPT
 70
     0
  9
$DIMUNIT
 70
     2
  9
$DIMDEC
 70
     3
  9
$DIMTDEC
 70
     3
  9
$DIMALTU
 70
     2
  9
$DIMALTTD
 70
     2
  9
$DIMTXSTY
  7
ROMANS
  9
$DIMAUNIT
 70
     0
  9
$LUNITS
 70
     2
  9
$LUPREC
 70
     3
  9
$SKETCHINC
 40
0.1
  9
$FILLETRAD
 40
0.03125
  9
$AUNITS
 70
     0
  9
$AUPREC
 70
     0
  9
$MENU
  1
ACAD
  9
$ELEVATION
 40
0.0
  9
$PELEVATION
 40
0.0
  9
$THICKNESS
 40
0.0
  9
$LIMCHECK
 70
     0
  9
$BLIPMODE
 70
     0
  9
$CHAMFERA
 40
0.0
  9
$CHAMFERB
 40
0.0
  9
$CHAMFERC
 40
0.0
  9
$CHAMFERD
 40
0.0
  9
$SKPOLY
 70
     0
  9
$TDCREATE
 40
2448993.423887384
  9
$TDUPDATE
 40
2452458.293008564
  9
$TDINDWG
 40
0.0008359606
  9
$TDUSRTIMER
 40
0.0008359606
  9
$USRTIMER
 70
     1
  9
$ANGBASE
 50
0.0
  9
$ANGDIR
 70
     0
  9
$PDMODE
 70
     0
  9
$PDSIZE
 40
0.0
  9
$PLINEWID
 40
0.0
  9
$COORDS
 70
     2
  9
$SPLFRAME
 70
     0
  9
$SPLINETYPE
 70
     6
  9
$SPLINESEGS
 70
     8
  9
$ATTDIA
 70
     0
  9
$ATTREQ
 70
     1
  9
$HANDLING
 70
 22529
  9
$HANDSEED
  5
53E9656
  9
$SURFTAB1
 70
     6
  9
$SURFTAB2
 70
     6
  9
$SURFTYPE
 70
     6
  9
$SURFU
 70
     6
  9
$SURFV
 70
     6
  9
$UCSNAME
  2

  9
$UCSORG
 10
0.0
 20
0.0
 30
0.0
  9
$UCSXDIR
 10
1.0
 20
0.0
 30
0.0
  9
$UCSYDIR
 10
0.0
 20
1.0
 30
0.0
  9
$PUCSNAME
  2

  9
$PUCSORG
 10
0.0
 20
0.0
 30
0.0
  9
$PUCSXDIR
 10
1.0
 20
0.0
 30
0.0
  9
$PUCSYDIR
 10
0.0
 20
1.0
 30
0.0
  9
$USERI1
 70
     0
  9
$USERI2
 70
     0
  9
$USERI3
 70
     0
  9
$USERI4
 70
     0
  9
$USERI5
 70
     0
  9
$USERR1
 40
0.0
  9
$USERR2
 40
0.0
  9
$USERR3
 40
0.0
  9
$USERR4
 40
0.0
  9
$USERR5
 40
0.0
  9
$WORLDVIEW
 70
     1
  9
$SHADEDGE
 70
     3
  9
$SHADEDIF
 70
    70
  9
$TILEMODE
 70
     1
  9
$MAXACTVP
 70
    16
  9
$PINSBASE
 10
1.392352935340509
 20
50.00000000000001
 30
1.545731709743576
  9
$PLIMCHECK
 70
     0
  9
$PEXTMIN
 10
1.000000000000000E+20
 20
1.000000000000000E+20
 30
1.000000000000000E+20
  9
$PEXTMAX
 10
-1.000000000000000E+20
 20
-1.000000000000000E+20
 30
-1.000000000000000E+20
  9
$PLIMMIN
 10
0.0
 20
0.0
  9
$PLIMMAX
 10
12.0
 20
9.0
  9
$UNITMODE
 70
     0
  9
$VISRETAIN
 70
     0
  9
$PLINEGEN
 70
     1
  9
$PSLTSCALE
 70
     0
  9
$TREEDEPTH
 70
  3020
  9
$PICKSTYLE
 70
     1
  9
$CMLSTYLE
  2
STANDARD
  9
$CMLJUST
 70
     0
  9
$CMLSCALE
 40
1.0
  9
$PROXYGRAPHICS
 70
     1
  9
$MEASUREMENT
 70
     0
  0
ENDSEC
  0
SECTION
  2
CLASSES
  0
CLASS
  1
LWPOLYLINE
  2
AcDbPolyline
  3
AutoCAD 2000
 90
        0
280
     0
281
     1
  0
CLASS
  1
ACDBDICTIONARYWDFLT
  2
AcDbDictionaryWithDefault
  3
AutoCAD 2000
 90
        0
280
     0
281
     0
  0
CLASS
  1
ACDBPLACEHOLDER
  2
AcDbPlaceHolder
  3
AutoCAD 2000
 90
        0
280
     0
281
     0
  0
CLASS
  1
LAYOUT
  2
AcDbLayout
  3
AutoCAD 2000
 90
        0
280
     0
281
     0
  0
CLASS
  1
DICTIONARYVAR
  2
AcDbDictionaryVar
  3
AutoCAD 2000
 90
        0
280
     0
281
     0
  0
CLASS
  1
LONG_TRANSACTION
  2
AcDbLongTransaction
  3
AutoCAD 2000
 90
        0
280
     0
281
     0
  0
CLASS
  1
LWPOLYLINE
  2
AcDbPolyline
  3
AutoCAD 2000
 90
        0
280
     0
281
     1
  0
CLASS
  1
HATCH
  2
AcDbHatch
  3
AutoCAD 2000
 90
        0
280
     0
281
     1
  0
CLASS
  1
XRECORD
  2
AcDbXrecord
  3
AutoCAD 2000
 90
        0
280
     0
281
     0
  0
ENDSEC
  0
SECTION
  2
TABLES
  0
TABLE
  2
VPORT
  5
53E95F7
330
0
100
AcDbSymbolTable
 70
     2
  0
VPORT
  5
53E9631
330
53E95F7
100
AcDbSymbolTableRecord
100
AcDbViewportTableRecord
  2
*ACTIVE
 70
     0
 10
0.0
 20
0.0
 11
1.0
 21
1.0
 12
5.710696064864895
 22
1.751953147994299
 13
0.0
 23
0.0
 14
0.015625
 24
0.015625
 15
0.0
 25
0.0
 16
0.0
 26
0.0
 36
1.0
 17
0.0
 27
0.0
 37
0.0
 40
2.282647215150728
 41
4.320930232558139
 42
50.0
 43
0.0
 44
0.0
 50
0.0
 51
0.0
 71
     0
 72
  2000
 73
     1
 74
     0
 75
     1
 76
     0
 77
     0
 78
     0
  0
ENDTAB
  0
TABLE
  2
LTYPE
  5
53E95F4
330
0
100
AcDbSymbolTable
 70
     1
  0
LTYPE
  5
53E9601
330
53E95F4
100
AcDbSymbolTableRecord
100
AcDbLinetypeTableRecord
  2
BYBLOCK
 70
     0
  3

 72
    65
 73
     0
 40
0.0
  0
LTYPE
  5
53E9602
330
53E95F4
100
AcDbSymbolTableRecord
100
AcDbLinetypeTableRecord
  2
BYLAYER
 70
     0
  3

 72
    65
 73
     0
 40
0.0
  0
LTYPE
  5
53E9603
330
53E95F4
100
AcDbSymbolTableRecord
100
AcDbLinetypeTableRecord
  2
CONTINUOUS
 70
     0
  3
Solid line
 72
    65
 73
     0
 40
0.0
  0
ENDTAB
  0
TABLE
  2
LAYER
  5
53E95F1
330
0
100
AcDbSymbolTable
 70
     2
  0
LAYER
  5
53E95FE
330
53E95F1
100
AcDbSymbolTableRecord
100
AcDbLayerTableRecord
  2
0
 70
     0
 62
     7
  6
CONTINUOUS
  0
LAYER
  5
53E960E
330
53E95F1
100
AcDbSymbolTableRecord
100
AcDbLayerTableRecord
  2
TEXT
 70
     0
 62
     3
  6
CONTINUOUS
  0
ENDTAB
  0
TABLE
  2
STYLE
  5
53E95F2
330
0
100
AcDbSymbolTable
 70
     3
  0
STYLE
  5
53E95FF
330
53E95F2
100
AcDbSymbolTableRecord
100
AcDbTextStyleTableRecord
  2
STANDARD
 70
     0
 40
0.0
 41
1.0
 50
0.0
 71
     0
 42
0.3125
  3
txt
  4

  0
STYLE
  5
53E960B
330
53E95F2
100
AcDbSymbolTableRecord
100
AcDbTextStyleTableRecord
  2
ITALICC
 70
     0
 40
0.0
 41
1.0
 50
0.0
 71
     0
 42
0.125
  3
italicc
  4

  0
STYLE
  5
53E961B
330
53E95F2
100
AcDbSymbolTableRecord
100
AcDbTextStyleTableRecord
  2
ROMANS
 70
     0
 40
0.0
 41
1.0
 50
0.0
 71
     0
 42
0.125
  3
romans.shx
  4

  0
ENDTAB
  0
TABLE
  2
VIEW
  5
53E95F5
330
0
100
AcDbSymbolTable
 70
     0
  0
ENDTAB
  0
TABLE
  2
UCS
  5
53E95F6
330
0
100
AcDbSymbolTable
 70
     0
  0
ENDTAB
  0
TABLE
  2
APPID
  5
53E95F8
330
0
100
AcDbSymbolTable
 70
     1
  0
APPID
  5
53E9600
330
53E95F8
100
AcDbSymbolTableRecord
100
AcDbRegAppTableRecord
  2
ACAD
 70
     0
  0
ENDTAB
  0
TABLE
  2
DIMSTYLE
  5
53E95F9
330
0
100
AcDbSymbolTable
 70
     1
  0
DIMSTYLE
105
53E9613
330
53E95F9
100
AcDbSymbolTableRecord
100
AcDbDimStyleTableRecord
  2
STANDARD
 70
     0
  3

  4

  5

  6

  7

 40
1.0
 41
0.125
 42
0.125
 43
0.375
 44
0.125
 45
0.0
 46
0.0
 47
0.0
 48
0.0
140
0.125
141
-0.125
142
0.0
143
25.4
144
1.0
145
0.0
146
1.0
147
0.09
 71
     0
 72
     0
 73
     1
 74
     1
 75
     0
 76
     0
 77
     0
 78
     4
170
     0
171
     2
172
     0
173
     0
174
     1
175
     0
176
     0
177
     0
178
     0
270
     2
271
     3
272
     3
273
     2
274
     2
340
53E961B
275
     0
280
     0
281
     0
282
     0
283
     1
284
     4
285
     0
286
     0
287
     3
288
     0
  0
ENDTAB
  0
TABLE
  2
BLOCK_RECORD
  5
53E95F0
330
0
100
AcDbSymbolTable
 70
     0
  0
BLOCK_RECORD
  5
53E9607
102
{ACAD_XDICTIONARY
360
53E9654
102
}
330
53E95F0
100
AcDbSymbolTableRecord
100
AcDbBlockTableRecord
  2
*MODEL_SPACE
  0
BLOCK_RECORD
  5
53E9604
102
{ACAD_XDICTIONARY
360
53E9652
102
}
330
53E95F0
100
AcDbSymbolTableRecord
100
AcDbBlockTableRecord
  2
*PAPER_SPACE
  0
ENDTAB
  0
ENDSEC
  0
SECTION
  2
BLOCKS
  0
BLOCK
  5
53E9611
330
53E9607
100
AcDbEntity
  8
0
100
AcDbBlockBegin
  2
*MODEL_SPACE
 70
     0
 10
0.0
 20
0.0
 30
0.0
  3
*MODEL_SPACE
  1

  0
ENDBLK
  5
53E9612
330
53E9607
100
AcDbEntity
  8
0
100
AcDbBlockEnd
  0
BLOCK
  5
53E960F
330
53E9604
100
AcDbEntity
 67
     1
  8
0
100
AcDbBlockBegin
  2
*PAPER_SPACE
 70
     0
 10
0.0
 20
0.0
 30
0.0
  3
*PAPER_SPACE
  1

  0
ENDBLK
  5
53E9610
330
53E9604
100
AcDbEntity
 67
     1
  8
0
100
AcDbBlockEnd
  0
ENDSEC
  0
SECTION
  2
ENTITIES
  0
LWPOLYLINE
  5
53E808E
330
53E9607
100
AcDbEntity
  8
0
100
AcDbPolyline
 90
        6
 70
     1
 43
0.0
 10
2.546875
 20
1.910721618357488
 10
2.984375
 20
1.910721618357488
 10
2.984375
 20
1.848221618357488
 10
2.484375
 20
1.848221618357488
 10
2.484375
 20
2.348221618357487
 10
2.546875
 20
2.348221618357487
  0
TEXT
  5
53E94B2
330
53E9607
100
AcDbEntity
  8
TEXT
100
AcDbText
 10
1.981398809523809
 20
1.613846618357487
 30
0.0
 40
0.125
  1
PART #110030
  7
ITALICC
 72
     1
 11
2.734375
 21
1.613846618357487
 31
0.0
100
AcDbText
  0
TEXT
  5
53E94B3
330
53E9607
100
AcDbEntity
  8
TEXT
100
AcDbText
 10
3.14768015825032
 20
1.166923975685112
 30
0.0
 40
0.0522247191011236
  1
Phone  1-800-328-2495
 41
1.272321428571429
 72
     5
 11
4.476612742519984
 21
1.166923975685112
 31
0.0
100
AcDbText
  0
TEXT
  5
53E94B4
330
53E9607
100
AcDbEntity
  8
TEXT
100
AcDbText
 10
3.14768015825032
 20
1.446699256583989
 30
0.0
 40
0.0522247191011236
  1
Stylmark  Incorporated
 41
1.221428571428571
 72
     5
 11
4.476612742519984
 21
1.446699256583989
 31
0.0
100
AcDbText
  0
TEXT
  5
53E94B5
330
53E9607
100
AcDbEntity
  8
TEXT
100
AcDbText
 10
3.14768015825032
 20
1.353440829617697
 30
0.0
 40
0.0522247191011236
  1
6536 Main St. N.E. * P.O. Box 32008
 41
0.8388932496075355
 72
     5
 11
4.476612742519984
 21
1.353440829617697
 31
0.0
100
AcDbText
  0
TEXT
  5
53E94B6
330
53E9607
100
AcDbEntity
  8
TEXT
100
AcDbText
 10
3.14768015825032
 20
1.260182402651405
 30
0.0
 40
0.0522247191011236
  1
Minneapolis, MN 55432-0008
 41
1.11444212721585
 72
     5
 11
4.476612742519984
 21
1.260182402651405
 31
0.0
100
AcDbText
  0
LWPOLYLINE
  5
53E94B7
330
53E9607
100
AcDbEntity
  8
TEXT
100
AcDbPolyline
 90
        3
 70
     0
 43
0.0006660908203125
 10
0.9917264661830129
 20
1.280568738322547
 10
0.9917264661830129
 20
1.16733329886942
 10
1.104961905636135
 20
1.16733329886942
  0
LWPOLYLINE
  5
53E94BC
330
53E9607
100
AcDbEntity
  8
TEXT
100
AcDbPolyline
 90
        3
 70
     0
 43
0.0006660908203125
 10
1.01837009899551
 20
1.280568738322547
 10
1.01837009899551
 20
1.193976931681921
 10
1.104961905636135
 20
1.193976931681921
  0
LWPOLYLINE
  5
53E94C1
330
53E9607
100
AcDbEntity
  8
TEXT
100
AcDbPolyline
 90
        2
 70
     0
 43
0.0001332181640625
 10
1.064996456417387
 20
1.290560100627232
 10
0.9917264661830129
 20
1.280568738322547
  0
LWPOLYLINE
  5
53E94C5
330
53E9607
100
AcDbEntity
  8
TEXT
100
AcDbPolyline
 90
        2
 70
     0
 43
0.0001332181640625
 10
1.01837009899551
 20
1.280568738322547
 10
1.078318272823637
 20
1.290560100627232
  0
LWPOLYLINE
  5
53E94C9
330
53E9607
100
AcDbEntity
  8
TEXT
100
AcDbPolyline
 90
        2
 70
     0
 43
0.0001332181640625
 10
1.01837009899551
 20
1.193976931681921
 10
1.078318272823637
 20
1.253925105510046
  0
LWPOLYLINE
  5
53E94CD
330
53E9607
100
AcDbEntity
  8
TEXT
100
AcDbPolyline
 90
        3
 70
     0
 43
0.0006660908203125
 10
1.104961905636135
 20
1.433769626994423
 10
0.9917264661830129
 20
1.433769626994423
 10
0.9917264661830129
 20
1.320534187541295
  0
LWPOLYLINE
  5
53E94D2
330
53E9607
100
AcDbEntity
  8
TEXT
100
AcDbPolyline
 90
        3
 70
     0
 43
0.0006660908203125
 10
1.104961905636135
 20
1.407125994181922
 10
1.01837009899551
 20
1.407125994181922
 10
1.01837009899551
 20
1.320534187541295
  0
LWPOLYLINE
  5
53E94D7
330
53E9607
100
AcDbEntity
  8
TEXT
100
AcDbPolyline
 90
        2
 70
     0
 43
0.0001332181640625
 10
1.01837009899551
 20
1.407125994181922
 10
1.078318272823636
 20
1.347177820353796
  0
LWPOLYLINE
  5
53E94DB
330
53E9607
100
AcDbEntity
  8
TEXT
100
AcDbPolyline
 90
        2
 70
     0
 43
0.0001332181640625
 10
1.01837009899551
 20
1.320534187541295
 10
1.078318272823636
 20
1.310542825236606
  0
LWPOLYLINE
  5
53E94DF
330
53E9607
100
AcDbEntity
  8
TEXT
100
AcDbPolyline
 90
        2
 70
     0
 43
0.0001332181640625
 10
0.9917264661830129
 20
1.320534187541295
 10
1.064996456417387
 20
1.310542825236606
  0
LWPOLYLINE
  5
53E94E3
330
53E9607
100
AcDbEntity
  8
TEXT
100
AcDbPolyline
 90
        2
 70
     0
 43
0.0006660908203125
 10
1.01837009899551
 20
1.280568738322547
 10
0.9917264661830129
 20
1.280568738322547
  0
LWPOLYLINE
  5
53E94E7
330
53E9607
100
AcDbEntity
  8
TEXT
100
AcDbPolyline
 90
        2
 70
     0
 43
0.0006660908203125
 10
1.01837009899551
 20
1.320534187541295
 10
0.9917264661830129
 20
1.320534187541295
  0
LINE
  5
53E94EB
330
53E9607
100
AcDbEntity
  8
TEXT
100
AcDbLine
 10
2.50691689530951
 20
1.369492932337654
 30
0.0
 11
2.399710621922221
 21
1.369492932337654
 31
0.0
  0
LINE
  5
53E94EC
330
53E9607
100
AcDbEntity
  8
TEXT
100
AcDbLine
 10
2.535947793653988
 20
1.433769626994419
 30
0.0
 11
2.401115884436929
 21
1.433769626994419
 31
0.0
  0
ARC
  5
53E94ED
330
53E9607
100
AcDbEntity
  8
TEXT
100
AcDbCircle
 10
2.460429980830246
 20
1.264532377731403
 30
0.0
 40
0.0676855811441166
100
AcDbArc
 50
90.0
 51
153.7768192527749
  0
LWPOLYLINE
  5
53E94EE
330
53E9607
100
AcDbEntity
  8
TEXT
100
AcDbPolyline
 90
        2
 70
     0
 43
0.0
 10
2.398678126467411
 20
1.210787538956346
 42
0.2901071551932823
 10
2.441754059335046
 20
1.167296594005908
 42
5.328517124445801
  0
ARC
  5
53E94F2
330
53E9607
100
AcDbEntity
  8
TEXT
100
AcDbCircle
 10
1.75529860315876
 20
1.227088985343958
 30
0.0
 40
0.0601160179737537
100
AcDbArc
 50
180.0000000000003
 51
264.0521544866073
  0
LINE
  5
53E94F3
330
53E9607
100
AcDbEntity
  8
TEXT
100
AcDbLine
 10
1.758813958784308
 20
1.468157544588557
 30
0.0
 11
1.698771353940301
 21
1.468157544588557
 31
0.0
  0
ARC
  5
53E94F4
330
53E9607
100
AcDbEntity
  8
TEXT
100
AcDbCircle
 10
1.52303960104179
 20
1.351682167547918
 30
0.0
 40
0.0820874594465043
100
AcDbArc
 50
90.0
 51
270.0
  0
LWPOLYLINE
  5
53E94F5
330
53E9607
100
AcDbEntity
  8
TEXT
100
AcDbPolyline
 90
        2
 70
     0
 43
0.0001332181640625
 10
1.114953267940825
 20
1.360499636760043
 10
1.104961905636135
 20
1.433769626994423
  0
LWPOLYLINE
  5
53E94F9
330
53E9607
100
AcDbEntity
  8
TEXT
100
AcDbPolyline
 90
        2
 70
     0
 43
0.0001332181640625
 10
1.104961905636135
 20
1.407125994181922
 10
1.114953267940825
 20
1.347177820353796
  0
LWPOLYLINE
  5
53E94FD
330
53E9607
100
AcDbEntity
  8
TEXT
100
AcDbPolyline
 90
        3
 70
     0
 43
0.0006660908203125
 10
1.258162794308012
 20
1.320534187541295
 10
1.258162794308012
 20
1.433769626994423
 10
1.144927354854886
 20
1.433769626994423
  0
LWPOLYLINE
  5
53E9502
330
53E9607
100
AcDbEntity
  8
TEXT
100
AcDbPolyline
 90
        3
 70
     0
 43
0.0006660908203125
 10
1.231519161495511
 20
1.320534187541295
 10
1.231519161495511
 20
1.407125994181922
 10
1.144927354854886
 20
1.407125994181922
  0
LWPOLYLINE
  5
53E9507
330
53E9607
100
AcDbEntity
  8
TEXT
100
AcDbPolyline
 90
        2
 70
     0
 43
0.0001332181640625
 10
1.231519161495511
 20
1.407125994181922
 10
1.171570987667387
 20
1.347177820353796
  0
LWPOLYLINE
  5
53E950B
330
53E9607
100
AcDbEntity
  8
TEXT
100
AcDbPolyline
 90
        2
 70
     0
 43
0.0001332181640625
 10
1.144927354854886
 20
1.407125994181922
 10
1.134935992550198
 20
1.347177820353796
  0
LWPOLYLINE
  5
53E950F
330
53E9607
100
AcDbEntity
  8
TEXT
100
AcDbPolyline
 90
        2
 70
     0
 43
0.0001332181640625
 10
1.144927354854886
 20
1.433769626994423
 10
1.134935992550198
 20
1.360499636760043
  0
LWPOLYLINE
  5
53E9513
330
53E9607
100
AcDbEntity
  8
TEXT
100
AcDbPolyline
 90
        2
 70
     0
 43
0.0001332181640625
 10
1.184892804073636
 20
1.310542825236606
 10
1.258162794308012
 20
1.320534187541295
  0
LWPOLYLINE
  5
53E9517
330
53E9607
100
AcDbEntity
  8
TEXT
100
AcDbPolyline
 90
        2
 70
     0
 43
0.0001332181640625
 10
1.231519161495511
 20
1.320534187541295
 10
1.171570987667387
 20
1.310542825236606
  0
LWPOLYLINE
  5
53E951B
330
53E9607
100
AcDbEntity
  8
TEXT
100
AcDbPolyline
 90
        2
 70
     0
 43
0.0001332181640625
 10
1.258162794308012
 20
1.280568738322547
 10
1.184892804073636
 20
1.290560100627232
  0
LWPOLYLINE
  5
53E951F
330
53E9607
100
AcDbEntity
  8
TEXT
100
AcDbPolyline
 90
        2
 70
     0
 43
0.0001332181640625
 10
1.231519161495511
 20
1.280568738322547
 10
1.171570987667387
 20
1.290560100627232
  0
LWPOLYLINE
  5
53E9523
330
53E9607
100
AcDbEntity
  8
TEXT
100
AcDbPolyline
 90
        2
 70
     0
 43
0.0001332181640625
 10
1.231519161495511
 20
1.193976931681921
 10
1.171570987667387
 20
1.253925105510046
  0
LWPOLYLINE
  5
53E9527
330
53E9607
100
AcDbEntity
  8
TEXT
100
AcDbPolyline
 90
        3
 70
     0
 43
0.0006660908203125
 10
1.144927354854886
 20
1.193976931681921
 10
1.231519161495511
 20
1.193976931681921
 10
1.231519161495511
 20
1.280568738322547
  0
LWPOLYLINE
  5
53E952C
330
53E9607
100
AcDbEntity
  8
TEXT
100
AcDbPolyline
 90
        3
 70
     0
 43
0.0006660908203125
 10
1.144927354854886
 20
1.16733329886942
 10
1.258162794308012
 20
1.16733329886942
 10
1.258162794308012
 20
1.280568738322547
  0
LWPOLYLINE
  5
53E9531
330
53E9607
100
AcDbEntity
  8
TEXT
100
AcDbPolyline
 90
        5
 70
     0
 43
0.0001332181640625
 10
1.114953267940825
 20
1.240603289103796
 10
1.114953267940825
 20
1.253925105510046
 10
1.078318272823637
 20
1.253925105510046
 10
1.078318272823637
 20
1.290560100627232
 10
1.064996456417387
 20
1.290560100627232
  0
LWPOLYLINE
  5
53E9538
330
53E9607
100
AcDbEntity
  8
TEXT
100
AcDbPolyline
 90
        2
 70
     0
 43
0.0006660908203125
 10
1.104961905636135
 20
1.193976931681921
 10
1.104961905636135
 20
1.16733329886942
  0
LWPOLYLINE
  5
53E953C
330
53E9607
100
AcDbEntity
  8
TEXT
100
AcDbPolyline
 90
        2
 70
     0
 43
0.0001332181640625
 10
1.104961905636135
 20
1.193976931681921
 10
1.114953267940825
 20
1.253925105510046
  0
LWPOLYLINE
  5
53E9540
330
53E9607
100
AcDbEntity
  8
TEXT
100
AcDbPolyline
 90
        2
 70
     0
 43
0.0001332181640625
 10
1.104961905636135
 20
1.16733329886942
 10
1.114953267940825
 20
1.240603289103796
  0
LWPOLYLINE
  5
53E9544
330
53E9607
100
AcDbEntity
  8
TEXT
100
AcDbPolyline
 90
        5
 70
     0
 43
0.0001332181640625
 10
1.064996456417387
 20
1.310542825236606
 10
1.078318272823636
 20
1.310542825236606
 10
1.078318272823636
 20
1.347177820353796
 10
1.114953267940825
 20
1.347177820353796
 10
1.114953267940825
 20
1.360499636760043
  0
LWPOLYLINE
  5
53E954B
330
53E9607
100
AcDbEntity
  8
TEXT
100
AcDbPolyline
 90
        5
 70
     0
 43
0.0001332181640625
 10
1.134935992550198
 20
1.360499636760043
 10
1.134935992550198
 20
1.347177820353796
 10
1.171570987667387
 20
1.347177820353796
 10
1.171570987667387
 20
1.310542825236606
 10
1.184892804073636
 20
1.310542825236606
  0
LWPOLYLINE
  5
53E9552
330
53E9607
100
AcDbEntity
  8
TEXT
100
AcDbPolyline
 90
        2
 70
     0
 43
0.0001332181640625
 10
1.144927354854886
 20
1.193976931681921
 10
1.134935992550198
 20
1.253925105510046
  0
LWPOLYLINE
  5
53E9556
330
53E9607
100
AcDbEntity
  8
TEXT
100
AcDbPolyline
 90
        2
 70
     0
 43
0.0001332181640625
 10
1.134935992550198
 20
1.240603289103796
 10
1.144927354854886
 20
1.16733329886942
  0
LWPOLYLINE
  5
53E955A
330
53E9607
100
AcDbEntity
  8
TEXT
100
AcDbPolyline
 90
        2
 70
     0
 43
0.0006660908203125
 10
1.144927354854886
 20
1.193976931681921
 10
1.144927354854886
 20
1.16733329886942
  0
LWPOLYLINE
  5
53E955E
330
53E9607
100
AcDbEntity
  8
TEXT
100
AcDbPolyline
 90
        5
 70
     0
 43
0.0001332181640625
 10
1.184892804073636
 20
1.290560100627232
 10
1.171570987667387
 20
1.290560100627232
 10
1.171570987667387
 20
1.253925105510046
 10
1.134935992550198
 20
1.253925105510046
 10
1.134935992550198
 20
1.240603289103796
  0
LWPOLYLINE
  5
53E9565
330
53E9607
100
AcDbEntity
  8
TEXT
100
AcDbPolyline
 90
        2
 70
     0
 43
0.0006660908203125
 10
1.231519161495511
 20
1.320534187541295
 10
1.258162794308012
 20
1.320534187541295
  0
LWPOLYLINE
  5
53E9569
330
53E9607
100
AcDbEntity
  8
TEXT
100
AcDbPolyline
 90
        2
 70
     0
 43
0.0006660908203125
 10
1.231519161495511
 20
1.280568738322547
 10
1.258162794308012
 20
1.280568738322547
  0
LINE
  5
53E956D
330
53E9607
100
AcDbEntity
  8
TEXT
100
AcDbLine
 10
1.528276931156037
 20
1.369492932337654
 30
0.0
 11
1.695182585185008
 21
1.369492932337654
 31
0.0
  0
LINE
  5
53E956E
330
53E9607
100
AcDbEntity
  8
TEXT
100
AcDbLine
 10
1.593877067400338
 20
1.333688210727026
 30
0.0
 11
1.528276931156037
 21
1.333688210727026
 31
0.0
  0
LINE
  5
53E956F
330
53E9607
100
AcDbEntity
  8
TEXT
100
AcDbLine
 10
1.440952141595285
 20
1.167296594005908
 30
0.0
 11
1.593877067400338
 21
1.167296594005908
 31
0.0
  0
LINE
  5
53E9570
330
53E9607
100
AcDbEntity
  8
TEXT
100
AcDbLine
 10
1.598817441306618
 20
1.235653600339348
 30
0.0
 11
1.440952141595284
 21
1.235653600339348
 31
0.0
  0
LINE
  5
53E9571
330
53E9607
100
AcDbEntity
  8
TEXT
100
AcDbLine
 10
1.523039601041789
 20
1.269594708101412
 30
0.0
 11
1.598817441306618
 21
1.269594708101412
 31
0.0
  0
ARC
  5
53E9572
330
53E9607
100
AcDbEntity
  8
TEXT
100
AcDbCircle
 10
1.528276931156038
 20
1.351590571532342
 30
0.0
 40
0.017902360805315
100
AcDbArc
 50
90.0
 51
270.0
  0
LINE
  5
53E9573
330
53E9607
100
AcDbEntity
  8
TEXT
100
AcDbLine
 10
1.440952141595284
 20
1.235653600339348
 30
0.0
 11
1.440952141595285
 21
1.167296594005908
 31
0.0
  0
LINE
  5
53E9574
330
53E9607
100
AcDbEntity
  8
TEXT
100
AcDbLine
 10
1.695182585185008
 20
1.369492932337654
 30
0.0
 11
1.695182585185008
 21
1.227088985343958
 31
0.0
  0
ARC
  5
53E9575
330
53E9607
100
AcDbEntity
  8
TEXT
100
AcDbCircle
 10
1.593877067400339
 20
1.250492402366465
 30
0.0
 40
0.0831958083605586
100
AcDbArc
 50
270.0
 51
90.0
  0
ARC
  5
53E9576
330
53E9607
100
AcDbEntity
  8
TEXT
100
AcDbCircle
 10
1.598817441306619
 20
1.252624154220382
 30
0.0
 40
0.0169705538810321
100
AcDbArc
 50
270.0
 51
90.0
  0
LWPOLYLINE
  5
53E9577
330
53E9607
100
AcDbEntity
  8
TEXT
100
AcDbPolyline
 90
        2
 70
     0
 43
0.0006660908203125
 10
1.104961905636135
 20
1.407125994181922
 10
1.104961905636135
 20
1.433769626994423
  0
LWPOLYLINE
  5
53E957B
330
53E9607
100
AcDbEntity
  8
TEXT
100
AcDbPolyline
 90
        2
 70
     0
 43
0.0006660908203125
 10
1.144927354854886
 20
1.407125994181922
 10
1.144927354854886
 20
1.433769626994423
  0
LINE
  5
53E957F
330
53E9607
100
AcDbEntity
  8
TEXT
100
AcDbLine
 10
1.698771353940301
 20
1.433769626994419
 30
0.0
 11
1.523039601041789
 21
1.433769626994419
 31
0.0
  0
LINE
  5
53E9580
330
53E9607
100
AcDbEntity
  8
TEXT
100
AcDbLine
 10
1.698771353940301
 20
1.468157544588557
 30
0.0
 11
1.698771353940301
 21
1.433769626994419
 31
0.0
  0
LINE
  5
53E9581
330
53E9607
100
AcDbEntity
  8
TEXT
100
AcDbLine
 10
1.889243245960154
 20
1.332897630881299
 30
0.0
 11
1.830612924928216
 21
1.433769626994419
 31
0.0
  0
LINE
  5
53E9582
330
53E9607
100
AcDbEntity
  8
TEXT
100
AcDbLine
 10
1.947991808766019
 20
1.433769626994419
 30
0.0
 11
1.889243245960154
 21
1.332897630881299
 31
0.0
  0
LINE
  5
53E9583
330
53E9607
100
AcDbEntity
  8
TEXT
100
AcDbLine
 10
2.04492243412576
 20
1.249684432108908
 30
0.0
 11
2.04492243412576
 21
1.50178110473323
 31
0.0
  0
LINE
  5
53E9584
330
53E9607
100
AcDbEntity
  8
TEXT
100
AcDbLine
 10
2.07723428826342
 20
1.433769626994419
 30
0.0
 11
2.07723428826342
 21
1.232905420262011
 31
0.0
  0
LINE
  5
53E9585
330
53E9607
100
AcDbEntity
  8
TEXT
100
AcDbLine
 10
2.07723428826342
 20
1.232905420262011
 30
0.0
 11
2.060240651378819
 21
1.232905420262011
 31
0.0
  0
LINE
  5
53E9586
330
53E9607
100
AcDbEntity
  8
TEXT
100
AcDbLine
 10
2.046062007621955
 20
1.167296594005908
 30
0.0
 11
2.14406534132139
 21
1.167296594005908
 31
0.0
  0
LINE
  5
53E9587
330
53E9607
100
AcDbEntity
  8
TEXT
100
AcDbLine
 10
1.879643008963199
 20
1.187255100110921
 30
0.0
 11
1.976942715056644
 21
1.351605311046189
 31
0.0
  0
ARC
  5
53E9588
330
53E9607
100
AcDbEntity
  8
TEXT
100
AcDbCircle
 10
1.845599449050985
 20
1.206844316279604
 30
0.0
 40
0.0392772371940762
100
AcDbArc
 50
270.1604552698595
 51
330.0831797321295
  0
LINE
  5
53E9589
330
53E9607
100
AcDbEntity
  8
TEXT
100
AcDbLine
 10
1.749069192665114
 20
1.167296594005908
 30
0.0
 11
1.845709443740108
 21
1.167567233104191
 31
0.0
  0
LWPOLYLINE
  5
53E958A
330
53E9607
100
AcDbEntity
  8
TEXT
100
AcDbPolyline
 90
        6
 70
     1
 43
0.0
 10
1.791592996240264
 20
1.369492932337654
 10
1.761276402020055
 20
1.369492932337654
 10
1.761276402020055
 20
1.24638193428276
 42
0.407328721240804
 10
1.772820053181532
 20
1.234563019606373
 10
1.833441752226263
 20
1.234563019606373
 10
1.850907092633581
 20
1.267375248649853
  0
LINE
  5
53E9592
330
53E9607
100
AcDbEntity
  8
TEXT
100
AcDbLine
 10
1.976942715056644
 20
1.351605311046189
 30
0.0
 11
1.976942715056644
 21
1.218847936220833
 31
0.0
  0
ARC
  5
53E9593
330
53E9607
100
AcDbEntity
  8
TEXT
100
AcDbCircle
 10
2.060240651378817
 20
1.248287226505436
 30
0.0
 40
0.0153818062434269
100
AcDbArc
 50
174.7883570302258
 51
270.0
  0
LWPOLYLINE
  5
53E9594
330
53E9607
100
AcDbEntity
  8
TEXT
100
AcDbPolyline
 90
        2
 70
     0
 43
0.0
 10
1.976942715056642
 20
1.218847936220837
 42
0.3318488747599744
 10
2.046062007621955
 20
1.167296594005908
 42
-6.868794160588311
  0
LINE
  5
53E9598
330
53E9607
100
AcDbEntity
  8
TEXT
100
AcDbLine
 10
2.201454410310651
 20
1.167296594005908
 30
0.0
 11
2.268512457092491
 21
1.167296594005908
 31
0.0
  0
LINE
  5
53E9599
330
53E9607
100
AcDbEntity
  8
TEXT
100
AcDbLine
 10
2.201454410310651
 20
1.361939143171544
 30
0.0
 11
2.201454410310651
 21
1.167296594005908
 31
0.0
  0
LINE
  5
53E959A
330
53E9607
100
AcDbEntity
  8
TEXT
100
AcDbLine
 10
2.14406534132139
 20
1.369492932337654
 30
0.0
 11
2.193900621144537
 21
1.369492932337654
 31
0.0
  0
LINE
  5
53E959B
330
53E9607
100
AcDbEntity
  8
TEXT
100
AcDbLine
 10
2.14406534132139
 20
1.167296594005908
 30
0.0
 11
2.14406534132139
 21
1.369492932337654
 31
0.0
  0
LWPOLYLINE
  5
53E959C
330
53E9607
100
AcDbEntity
  8
TEXT
100
AcDbPolyline
 90
        2
 70
     0
 43
0.0
 10
2.193900621144535
 20
1.369492932337654
 42
-0.4142135623731017
 10
2.201454410310649
 20
1.361939143171544
 42
-0.9999999999999998
  0
LINE
  5
53E95A0
330
53E9607
100
AcDbEntity
  8
TEXT
100
AcDbLine
 10
2.399710621922221
 20
1.369492932337654
 30
0.0
 11
2.399710621922221
 21
1.294440526263447
 31
0.0
  0
LINE
  5
53E95A1
330
53E9607
100
AcDbEntity
  8
TEXT
100
AcDbLine
 10
2.268512457092491
 20
1.369492932337654
 30
0.0
 11
2.322646054013441
 21
1.369492932337654
 31
0.0
  0
LINE
  5
53E95A2
330
53E9607
100
AcDbEntity
  8
TEXT
100
AcDbLine
 10
2.268512457092491
 20
1.167296594005908
 30
0.0
 11
2.268512457092491
 21
1.369492932337654
 31
0.0
  0
LWPOLYLINE
  5
53E95A3
330
53E9607
100
AcDbEntity
  8
TEXT
100
AcDbPolyline
 90
        2
 70
     0
 43
0.0
 10
2.322646054013439
 20
1.369492932337654
 42
-0.4142135623731017
 10
2.330199843179553
 20
1.361939143171544
 42
-0.9999999999999998
  0
LWPOLYLINE
  5
53E95A7
330
53E9607
100
AcDbEntity
  8
TEXT
100
AcDbPolyline
 90
        4
 70
     0
 43
0.0
 10
2.330199843179553
 20
1.361939143171544
 10
2.330199843179553
 20
1.167296594005908
 10
2.398678126467411
 20
1.167296594005908
 10
2.398678126467411
 20
1.210787538956346
 42
-1.714843617202739
  0
LINE
  5
53E95AD
330
53E9607
100
AcDbEntity
  8
TEXT
100
AcDbLine
 10
1.758813958784308
 20
1.433769626994419
 30
0.0
 11
1.758813958784308
 21
1.468157544588557
 31
0.0
  0
LINE
  5
53E95AE
330
53E9607
100
AcDbEntity
  8
TEXT
100
AcDbLine
 10
1.830612924928216
 20
1.433769626994419
 30
0.0
 11
1.758813958784308
 21
1.433769626994419
 31
0.0
  0
LINE
  5
53E95AF
330
53E9607
100
AcDbEntity
  8
TEXT
100
AcDbLine
 10
1.978113721559395
 20
1.433769626994419
 30
0.0
 11
1.947991808766019
 21
1.433769626994419
 31
0.0
  0
LINE
  5
53E95B0
330
53E9607
100
AcDbEntity
  8
TEXT
100
AcDbLine
 10
1.978113721559395
 20
1.50178110473323
 30
0.0
 11
1.978113721559395
 21
1.433769626994419
 31
0.0
  0
LINE
  5
53E95B1
330
53E9607
100
AcDbEntity
  8
TEXT
100
AcDbLine
 10
2.04492243412576
 20
1.50178110473323
 30
0.0
 11
1.978113721559395
 21
1.50178110473323
 31
0.0
  0
LWPOLYLINE
  5
53E95B2
330
53E9607
100
AcDbEntity
  8
TEXT
100
AcDbPolyline
 90
        3
 70
     0
 43
0.0
 10
2.365334193723763
 20
1.433769626994423
 10
2.247034034907718
 20
1.433769626994423
 10
2.247034034907718
 20
1.406602130233527
 42
-1.960274751411753
  0
LINE
  5
53E95B7
330
53E9607
100
AcDbEntity
  8
TEXT
100
AcDbLine
 10
2.211252344194557
 20
1.433769626994419
 30
0.0
 11
2.07723428826342
 21
1.433769626994419
 31
0.0
  0
LWPOLYLINE
  5
53E95B8
330
53E9607
100
AcDbEntity
  8
TEXT
100
AcDbPolyline
 90
        2
 70
     0
 43
0.0
 10
2.211252344194557
 20
1.433769626994423
 42
-0.3328679258950098
 10
2.247034034907718
 20
1.406602130233527
 42
6.772930709997214
  0
LINE
  5
53E95BC
330
53E9607
100
AcDbEntity
  8
TEXT
100
AcDbLine
 10
2.401115884436929
 20
1.433769626994419
 30
0.0
 11
2.401115884436929
 21
1.405447081224775
 31
0.0
  0
LWPOLYLINE
  5
53E95BD
330
53E9607
100
AcDbEntity
  8
TEXT
100
AcDbPolyline
 90
        2
 70
     0
 43
0.0
 10
2.365334193723763
 20
1.433769626994423
 42
-0.3277054968067132
 10
2.401115884436928
 20
1.405447081224779
 42
6.667889725900311
  0
LINE
  5
53E95C1
330
53E9607
100
AcDbEntity
  8
TEXT
100
AcDbLine
 10
2.614907732529029
 20
1.328557648440992
 30
0.0
 11
2.571156961347128
 21
1.410807924437137
 31
0.0
  0
LINE
  5
53E95C2
330
53E9607
100
AcDbEntity
  8
TEXT
100
AcDbLine
 10
2.614907732529029
 20
1.433769626994419
 30
0.0
 11
2.614907732529029
 21
1.328557648440992
 31
0.0
  0
LINE
  5
53E95C3
330
53E9607
100
AcDbEntity
  8
TEXT
100
AcDbLine
 10
2.842591471467398
 20
1.357904300582881
 30
0.0
 11
2.842591471467398
 21
1.49923383276202
 31
0.0
  0
LINE
  5
53E95C4
330
53E9607
100
AcDbEntity
  8
TEXT
100
AcDbLine
 10
2.889689630023383
 20
1.433769626994419
 30
0.0
 11
2.842591471467398
 21
1.357904300582881
 31
0.0
  0
LINE
  5
53E95C5
330
53E9607
100
AcDbEntity
  8
TEXT
100
AcDbLine
 10
2.900124346787306
 20
1.323876384053446
 30
0.0
 11
2.964681462753011
 21
1.433769626994419
 31
0.0
  0
LINE
  5
53E95C6
330
53E9607
100
AcDbEntity
  8
TEXT
100
AcDbLine
 10
2.778756480244625
 20
1.167296594005908
 30
0.0
 11
2.843134664563246
 21
1.167296594005908
 31
0.0
  0
LWPOLYLINE
  5
53E95C7
330
53E9607
100
AcDbEntity
  8
TEXT
100
AcDbPolyline
 90
        2
 70
     0
 43
0.0
 10
2.618847409834067
 20
1.210787538956346
 42
-0.2901071551932486
 10
2.575771476966423
 20
1.167296594005908
 42
-5.328517124445184
  0
ARC
  5
53E95CB
330
53E9607
100
AcDbEntity
  8
TEXT
100
AcDbCircle
 10
2.506916895309508
 20
1.341133557337657
 30
0.0
 40
0.028359375
100
AcDbArc
 50
25.78218179591245
 51
90.0
  0
LINE
  5
53E95CC
330
53E9607
100
AcDbEntity
  8
TEXT
100
AcDbLine
 10
2.542717970613631
 20
1.332217958875522
 30
0.0
 11
2.532453210200067
 21
1.353468498448216
 31
0.0
  0
LINE
  5
53E95CD
330
53E9607
100
AcDbEntity
  8
TEXT
100
AcDbLine
 10
2.460429980830248
 20
1.332217958875522
 30
0.0
 11
2.542717970613631
 21
1.332217958875522
 31
0.0
  0
LWPOLYLINE
  5
53E95CE
330
53E9607
100
AcDbEntity
  8
TEXT
100
AcDbPolyline
 90
        4
 70
     1
 43
0.0
 10
2.55564901189653
 20
1.270260571989934
 10
2.466988693236672
 20
1.270260571989934
 42
0.9999999999999998
 10
2.466988693236672
 20
1.227862031486073
 10
2.55564901189653
 20
1.227862031486073
 42
1.0
  0
LWPOLYLINE
  5
53E95D4
330
53E9607
100
AcDbEntity
  8
TEXT
100
AcDbPolyline
 90
        2
 70
     0
 43
0.0
 10
2.441754059335046
 20
1.167296594005908
 10
2.575771476966423
 20
1.167296594005908
 42
0.9999999999999998
  0
LINE
  5
53E95D8
330
53E9607
100
AcDbEntity
  8
TEXT
100
AcDbLine
 10
2.702108498952062
 20
1.369492932337654
 30
0.0
 11
2.77875648024462
 21
1.369492932337654
 31
0.0
  0
LINE
  5
53E95D9
330
53E9607
100
AcDbEntity
  8
TEXT
100
AcDbLine
 10
2.77875648024462
 20
1.369492932337654
 30
0.0
 11
2.778756480244625
 21
1.167296594005908
 31
0.0
  0
ARC
  5
53E95DA
330
53E9607
100
AcDbEntity
  8
TEXT
100
AcDbCircle
 10
2.70210849895206
 20
1.344587057054991
 30
0.0
 40
0.0249058752826653
100
AcDbArc
 50
89.99971217465335
 51
179.9999999999985
  0
LINE
  5
53E95DB
330
53E9607
100
AcDbEntity
  8
TEXT
100
AcDbLine
 10
2.677202623669403
 20
1.167296594005908
 30
0.0
 11
2.677202623669398
 21
1.344587099437377
 31
0.0
  0
LWPOLYLINE
  5
53E95DC
330
53E9607
100
AcDbEntity
  8
TEXT
100
AcDbPolyline
 90
        2
 70
     0
 43
0.0
 10
2.618847409834067
 20
1.167296594005908
 10
2.677202623669401
 20
1.167296594005908
  0
LWPOLYLINE
  5
53E95E0
330
53E9607
100
AcDbEntity
  8
TEXT
100
AcDbPolyline
 90
        2
 70
     0
 43
0.0
 10
2.618847409834067
 20
1.210787538956346
 10
2.618847409834067
 20
1.167296594005908
  0
LINE
  5
53E95E4
330
53E9607
100
AcDbEntity
  8
TEXT
100
AcDbLine
 10
2.995616570150916
 20
1.167296594005908
 30
0.0
 11
2.900124346787306
 21
1.323876384053446
 31
0.0
  0
LINE
  5
53E95E5
330
53E9607
100
AcDbEntity
  8
TEXT
100
AcDbLine
 10
2.91903819777471
 20
1.167296594005908
 30
0.0
 11
2.995616570150916
 21
1.167296594005908
 31
0.0
  0
LINE
  5
53E95E6
330
53E9607
100
AcDbEntity
  8
TEXT
100
AcDbLine
 10
2.843134664563246
 20
1.298876162482089
 30
0.0
 11
2.91903819777471
 21
1.167296594005908
 31
0.0
  0
LINE
  5
53E95E7
330
53E9607
100
AcDbEntity
  8
TEXT
100
AcDbLine
 10
2.843134664563246
 20
1.167296594005908
 30
0.0
 11
2.843134664563246
 21
1.298876162482089
 31
0.0
  0
LINE
  5
53E95E8
330
53E9607
100
AcDbEntity
  8
TEXT
100
AcDbLine
 10
2.842591471467398
 20
1.49923383276202
 30
0.0
 11
2.774276592918125
 21
1.49923383276202
 31
0.0
  0
ARC
  5
53E95E9
330
53E9607
100
AcDbEntity
  8
TEXT
100
AcDbCircle
 10
2.533920853876919
 20
1.392186059873517
 30
0.0
 40
0.0416329381542859
100
AcDbArc
 50
26.56974201007528
 51
87.20939649401342
  0
LINE
  5
53E95EA
330
53E9607
100
AcDbEntity
  8
TEXT
100
AcDbLine
 10
2.67880463882853
 20
1.433769626994419
 30
0.0
 11
2.614907732529029
 21
1.433769626994419
 31
0.0
  0
LINE
  5
53E95EB
330
53E9607
100
AcDbEntity
  8
TEXT
100
AcDbLine
 10
2.67880463882853
 20
1.406221977133545
 30
0.0
 11
2.67880463882853
 21
1.433769626994419
 31
0.0
  0
ARC
  5
53E95EC
330
53E9607
100
AcDbEntity
  8
TEXT
100
AcDbCircle
 10
2.709997455891638
 20
1.402523899712154
 30
0.0
 40
0.0314112657011332
100
AcDbArc
 50
95.88484768694724
 51
173.2388340632136
  0
LINE
  5
53E95ED
330
53E9607
100
AcDbEntity
  8
TEXT
100
AcDbLine
 10
2.77427659291812
 20
1.433769626994419
 30
0.0
 11
2.706776875268603
 21
1.433769626994419
 31
0.0
  0
LINE
  5
53E95EE
330
53E9607
100
AcDbEntity
  8
TEXT
100
AcDbLine
 10
2.774276592918125
 20
1.49923383276202
 30
0.0
 11
2.77427659291812
 21
1.433769626994419
 31
0.0
  0
LINE
  5
53E95EF
330
53E9607
100
AcDbEntity
  8
TEXT
100
AcDbLine
 10
2.964681462753011
 20
1.433769626994419
 30
0.0
 11
2.889689630023385
 21
1.433769626994419
 31
0.0
  0
ENDSEC
  0
SECTION
  2
OBJECTS
  0
DICTIONARY
  5
53E95FB
330
0
100
AcDbDictionary
  3
ACAD_GROUP
350
53E95FC
  3
ACAD_LAYOUT
350
53E9627
  3
ACAD_MLINESTYLE
350
53E95FD
  3
ACAD_PLOTSETTINGS
350
53E9628
  3
ACAD_PLOTSTYLENAME
350
53E9625
  3
ACDBHEADERROUNDTRIPXREC
350
53E9632
  3
ACDBVARIABLEDICTIONARY
350
53E962F
  0
DICTIONARY
  5
53E9654
330
53E9607
100
AcDbDictionary
280
     1
  3
ACAD_LAYOUTSELFREF
360
53E9655
  0
DICTIONARY
  5
53E9652
330
53E9604
100
AcDbDictionary
280
     1
  3
ACAD_LAYOUTSELFREF
360
53E9653
  0
DICTIONARY
  5
53E95FC
102
{ACAD_REACTORS
330
53E95FB
102
}
330
53E95FB
100
AcDbDictionary
  0
DICTIONARY
  5
53E9627
102
{ACAD_REACTORS
330
53E95FB
102
}
330
53E95FB
100
AcDbDictionary
  0
DICTIONARY
  5
53E95FD
102
{ACAD_REACTORS
330
53E95FB
102
}
330
53E95FB
100
AcDbDictionary
  3
STANDARD
350
53E960A
  0
DICTIONARY
  5
53E9628
102
{ACAD_REACTORS
330
53E95FB
102
}
330
53E95FB
100
AcDbDictionary
  0
ACDBDICTIONARYWDFLT
  5
53E9625
102
{ACAD_REACTORS
330
53E95FB
102
}
330
53E95FB
100
AcDbDictionary
281
     1
  3
Normal
350
53E9626
100
AcDbDictionaryWithDefault
340
53E9626
  0
DICTIONARY
  5
53E9632
102
{ACAD_REACTORS
330
53E95FB
102
}
330
53E95FB
100
AcDbDictionary
  3
CEPSNTYPE
350
53E963C
  3
FINGERPRINTGUID
350
53E963D
  3
HYPERLINKBASE
350
53E9635
  3
INSUNITS
350
53E963B
  3
LAYOUTDICT
350
53E9637
  3
LWETCUNION
350
53E963A
  3
PLOTSETDICT
350
53E9638
  3
PLOTSTYLNAMDICT
350
53E9639
  3
PSVPSCALE
350
53E963F
  3
PUCSBASE
350
53E9642
  3
PUCSORGBACK
350
53E9648
  3
PUCSORGBOTTOM
350
53E9644
  3
PUCSORGFRONT
350
53E9647
  3
PUCSORGLEFT
350
53E9645
  3
PUCSORGRIGHT
350
53E9646
  3
PUCSORGTOP
350
53E9643
  3
PUCSORTHOREF
350
53E9640
  3
PUCSORTHOVIEW
350
53E9641
  3
STYLESHEET
350
53E9636
  3
TSTACKALIGN
350
53E9633
  3
TSTACKSIZE
350
53E9634
  3
UCSBASE
350
53E964B
  3
UCSORGBACK
350
53E9651
  3
UCSORGBOTTOM
350
53E964D
  3
UCSORGFRONT
350
53E9650
  3
UCSORGLEFT
350
53E964E
  3
UCSORGRIGHT
350
53E964F
  3
UCSORGTOP
350
53E964C
  3
UCSORTHOREF
350
53E9649
  3
UCSORTHOVIEW
350
53E964A
  3
VERSIONGUID
350
53E963E
  0
DICTIONARY
  5
53E962F
102
{ACAD_REACTORS
330
53E95FB
102
}
330
53E95FB
100
AcDbDictionary
  3
DIMASSOC
350
53E9630
  0
XRECORD
  5
53E9655
102
{ACAD_REACTORS
330
53E9654
102
}
330
53E9654
100
AcDbXrecord
340
53E9607
  0
XRECORD
  5
53E9653
102
{ACAD_REACTORS
330
53E9652
102
}
330
53E9652
100
AcDbXrecord
340
53E9604
  0
MLINESTYLE
  5
53E960A
102
{ACAD_REACTORS
330
53E95FD
102
}
330
53E95FD
100
AcDbMlineStyle
  2
STANDARD
 70
     0
  3

 62
     0
 51
90.0
 52
90.0
 71
     2
 49
0.5
 62
   256
  6
BYLAYER
 49
-0.5
 62
   256
  6
BYLAYER
  0
ACDBPLACEHOLDER
  5
53E9626
102
{ACAD_REACTORS
330
53E9625
102
}
330
53E9625
100
AcDbPlaceHolder
280
     0
  0
XRECORD
  5
53E963C
102
{ACAD_REACTORS
330
53E9632
102
}
330
53E9632
100
AcDbXrecord
 90
        0
  0
XRECORD
  5
53E963D
102
{ACAD_REACTORS
330
53E9632
102
}
330
53E9632
100
AcDbXrecord
  1
{7E936200-8DB3-11D6-88E6-0090279574E7}
  0
XRECORD
  5
53E9635
102
{ACAD_REACTORS
330
53E9632
102
}
330
53E9632
100
AcDbXrecord
  1

  0
XRECORD
  5
53E963B
102
{ACAD_REACTORS
330
53E9632
102
}
330
53E9632
100
AcDbXrecord
 90
        0
  0
XRECORD
  5
53E9637
102
{ACAD_REACTORS
330
53E9632
102
}
330
53E9632
100
AcDbXrecord
340
53E9627
  0
XRECORD
  5
53E963A
102
{ACAD_REACTORS
330
53E9632
102
}
330
53E9632
100
AcDbXrecord
 90
    14877
  0
XRECORD
  5
53E9638
102
{ACAD_REACTORS
330
53E9632
102
}
330
53E9632
100
AcDbXrecord
340
53E9628
  0
XRECORD
  5
53E9639
102
{ACAD_REACTORS
330
53E9632
102
}
330
53E9632
100
AcDbXrecord
340
53E9625
  0
XRECORD
  5
53E963F
102
{ACAD_REACTORS
330
53E9632
102
}
330
53E9632
100
AcDbXrecord
 40
0.0
  0
XRECORD
  5
53E9642
102
{ACAD_REACTORS
330
53E9632
102
}
330
53E9632
100
AcDbXrecord
340
0
  0
XRECORD
  5
53E9648
102
{ACAD_REACTORS
330
53E9632
102
}
330
53E9632
100
AcDbXrecord
 10
0.0
 20
0.0
 30
0.0
  0
XRECORD
  5
53E9644
102
{ACAD_REACTORS
330
53E9632
102
}
330
53E9632
100
AcDbXrecord
 10
0.0
 20
0.0
 30
0.0
  0
XRECORD
  5
53E9647
102
{ACAD_REACTORS
330
53E9632
102
}
330
53E9632
100
AcDbXrecord
 10
0.0
 20
0.0
 30
0.0
  0
XRECORD
  5
53E9645
102
{ACAD_REACTORS
330
53E9632
102
}
330
53E9632
100
AcDbXrecord
 10
0.0
 20
0.0
 30
0.0
  0
XRECORD
  5
53E9646
102
{ACAD_REACTORS
330
53E9632
102
}
330
53E9632
100
AcDbXrecord
 10
0.0
 20
0.0
 30
0.0
  0
XRECORD
  5
53E9643
102
{ACAD_REACTORS
330
53E9632
102
}
330
53E9632
100
AcDbXrecord
 10
0.0
 20
0.0
 30
0.0
  0
XRECORD
  5
53E9640
102
{ACAD_REACTORS
330
53E9632
102
}
330
53E9632
100
AcDbXrecord
340
0
  0
XRECORD
  5
53E9641
102
{ACAD_REACTORS
330
53E9632
102
}
330
53E9632
100
AcDbXrecord
 70
     0
  0
XRECORD
  5
53E9636
102
{ACAD_REACTORS
330
53E9632
102
}
330
53E9632
100
AcDbXrecord
  1

  0
XRECORD
  5
53E9633
102
{ACAD_REACTORS
330
53E9632
102
}
330
53E9632
100
AcDbXrecord
 90
        1
  0
XRECORD
  5
53E9634
102
{ACAD_REACTORS
330
53E9632
102
}
330
53E9632
100
AcDbXrecord
 90
       70
  0
XRECORD
  5
53E964B
102
{ACAD_REACTORS
330
53E9632
102
}
330
53E9632
100
AcDbXrecord
340
0
  0
XRECORD
  5
53E9651
102
{ACAD_REACTORS
330
53E9632
102
}
330
53E9632
100
AcDbXrecord
 10
0.0
 20
0.0
 30
0.0
  0
XRECORD
  5
53E964D
102
{ACAD_REACTORS
330
53E9632
102
}
330
53E9632
100
AcDbXrecord
 10
0.0
 20
0.0
 30
0.0
  0
XRECORD
  5
53E9650
102
{ACAD_REACTORS
330
53E9632
102
}
330
53E9632
100
AcDbXrecord
 10
0.0
 20
0.0
 30
0.0
  0
XRECORD
  5
53E964E
102
{ACAD_REACTORS
330
53E9632
102
}
330
53E9632
100
AcDbXrecord
 10
0.0
 20
0.0
 30
0.0
  0
XRECORD
  5
53E964F
102
{ACAD_REACTORS
330
53E9632
102
}
330
53E9632
100
AcDbXrecord
 10
0.0
 20
0.0
 30
0.0
  0
XRECORD
  5
53E964C
102
{ACAD_REACTORS
330
53E9632
102
}
330
53E9632
100
AcDbXrecord
 10
0.0
 20
0.0
 30
0.0
  0
XRECORD
  5
53E9649
102
{ACAD_REACTORS
330
53E9632
102
}
330
53E9632
100
AcDbXrecord
340
0
  0
XRECORD
  5
53E964A
102
{ACAD_REACTORS
330
53E9632
102
}
330
53E9632
100
AcDbXrecord
 70
     0
  0
XRECORD
  5
53E963E
102
{ACAD_REACTORS
330
53E9632
102
}
330
53E9632
100
AcDbXrecord
  1
{7E936202-8DB3-11D6-88E6-0090279574E7}
  0
DICTIONARYVAR
  5
53E9630
102
{ACAD_REACTORS
330
53E962F
102
}
330
53E962F
100
DictionaryVariables
280
     0
  1
1
  0
ENDSEC
  0
EOF
