  0
SECTION
  2
HEADER
  9
$ACADVER
  1
AC1014
  9
$ACADMAINTVER
 70
     9
  9
$DWGCODEPAGE
  3
ANSI_1252
  9
$INSBASE
 10
2.311862716738235
 20
1.695309070338408
 30
0.0
  9
$EXTMIN
 10
0.5688811375110927
 20
0.5966654662558267
 30
0.0
  9
$EXTMAX
 10
4.05410045925822
 20
2.435309070338408
 30
0.0
  9
$LIMMIN
 10
0.0
 20
0.0
  9
$LIMMAX
 10
18.0
 20
12.0
  9
$ORTHOMODE
 70
     1
  9
$REGENMODE
 70
     1
  9
$FILLMODE
 70
     1
  9
$QTEXTMODE
 70
     0
  9
$MIRRTEXT
 70
     0
  9
$DRAGMODE
 70
     2
  9
$LTSCALE
 40
1.0
  9
$OSMODE
 70
    39
  9
$ATTMODE
 70
     1
  9
$TEXTSIZE
 40
0.125
  9
$TRACEWID
 40
0.05
  9
$TEXTSTYLE
  7
ROMANS
  9
$CLAYER
  8
0
  9
$CELTYPE
  6
BYLAYER
  9
$CECOLOR
 62
   256
  9
$CELTSCALE
 40
1.0
  9
$DELOBJ
 70
     1
  9
$DISPSILH
 70
     1
  9
$DIMSCALE
 40
1.0
  9
$DIMASZ
 40
0.125
  9
$DIMEXO
 40
0.125
  9
$DIMDLI
 40
0.375
  9
$DIMRND
 40
0.0
  9
$DIMDLE
 40
0.0
  9
$DIMEXE
 40
0.125
  9
$DIMTP
 40
0.0
  9
$DIMTM
 40
0.0
  9
$DIMTXT
 40
0.125
  9
$DIMCEN
 40
-0.125
  9
$DIMTSZ
 40
0.0
  9
$DIMTOL
 70
     0
  9
$DIMLIM
 70
     0
  9
$DIMTIH
 70
     1
  9
$DIMTOH
 70
     1
  9
$DIMSE1
 70
     0
  9
$DIMSE2
 70
     0
  9
$DIMTAD
 70
     0
  9
$DIMZIN
 70
     4
  9
$DIMBLK
  1

  9
$DIMASO
 70
     1
  9
$DIMSHO
 70
     1
  9
$DIMPOST
  1

  9
$DIMAPOST
  1

  9
$DIMALT
 70
     0
  9
$DIMALTD
 70
     2
  9
$DIMALTF
 40
25.4
  9
$DIMLFAC
 40
1.0
  9
$DIMTOFL
 70
     0
  9
$DIMTVP
 40
0.0
  9
$DIMTIX
 70
     1
  9
$DIMSOXD
 70
     0
  9
$DIMSAH
 70
     0
  9
$DIMBLK1
  1

  9
$DIMBLK2
  1

  9
$DIMSTYLE
  2
STANDARD
  9
$DIMCLRD
 70
     0
  9
$DIMCLRE
 70
     0
  9
$DIMCLRT
 70
     0
  9
$DIMTFAC
 40
1.0
  9
$DIMGAP
 40
0.09
  9
$DIMJUST
 70
     0
  9
$DIMSD1
 70
     0
  9
$DIMSD2
 70
     0
  9
$DIMTOLJ
 70
     1
  9
$DIMTZIN
 70
     4
  9
$DIMALTZ
 70
     0
  9
$DIMALTTZ
 70
     0
  9
$DIMFIT
 70
     3
  9
$DIMUPT
 70
     0
  9
$DIMUNIT
 70
     2
  9
$DIMDEC
 70
     3
  9
$DIMTDEC
 70
     3
  9
$DIMALTU
 70
     2
  9
$DIMALTTD
 70
     2
  9
$DIMTXSTY
  7
ROMANS
  9
$DIMAUNIT
 70
     0
  9
$LUNITS
 70
     2
  9
$LUPREC
 70
     3
  9
$SKETCHINC
 40
0.1
  9
$FILLETRAD
 40
0.03125
  9
$AUNITS
 70
     0
  9
$AUPREC
 70
     0
  9
$MENU
  1
ACAD
  9
$ELEVATION
 40
0.0
  9
$PELEVATION
 40
0.0
  9
$THICKNESS
 40
0.0
  9
$LIMCHECK
 70
     0
  9
$BLIPMODE
 70
     0
  9
$CHAMFERA
 40
0.0
  9
$CHAMFERB
 40
0.0
  9
$CHAMFERC
 40
0.0
  9
$CHAMFERD
 40
0.0
  9
$SKPOLY
 70
     0
  9
$TDCREATE
 40
2448993.422877315
  9
$TDUPDATE
 40
2452458.292926736
  9
$TDINDWG
 40
0.0011395718
  9
$TDUSRTIMER
 40
0.0011395718
  9
$USRTIMER
 70
     1
  9
$ANGBASE
 50
0.0
  9
$ANGDIR
 70
     0
  9
$PDMODE
 70
     0
  9
$PDSIZE
 40
0.0
  9
$PLINEWID
 40
0.0
  9
$COORDS
 70
     2
  9
$SPLFRAME
 70
     0
  9
$SPLINETYPE
 70
     6
  9
$SPLINESEGS
 70
     8
  9
$ATTDIA
 70
     0
  9
$ATTREQ
 70
     1
  9
$HANDLING
 70
 22529
  9
$HANDSEED
  5
29F5354
  9
$SURFTAB1
 70
     6
  9
$SURFTAB2
 70
     6
  9
$SURFTYPE
 70
     6
  9
$SURFU
 70
     6
  9
$SURFV
 70
     6
  9
$UCSNAME
  2

  9
$UCSORG
 10
0.0
 20
0.0
 30
0.0
  9
$UCSXDIR
 10
1.0
 20
0.0
 30
0.0
  9
$UCSYDIR
 10
0.0
 20
1.0
 30
0.0
  9
$PUCSNAME
  2

  9
$PUCSORG
 10
0.0
 20
0.0
 30
0.0
  9
$PUCSXDIR
 10
1.0
 20
0.0
 30
0.0
  9
$PUCSYDIR
 10
0.0
 20
1.0
 30
0.0
  9
$USERI1
 70
     0
  9
$USERI2
 70
     0
  9
$USERI3
 70
     0
  9
$USERI4
 70
     0
  9
$USERI5
 70
     0
  9
$USERR1
 40
0.0
  9
$USERR2
 40
0.0
  9
$USERR3
 40
0.0
  9
$USERR4
 40
0.0
  9
$USERR5
 40
0.0
  9
$WORLDVIEW
 70
     1
  9
$SHADEDGE
 70
     3
  9
$SHADEDIF
 70
    70
  9
$TILEMODE
 70
     1
  9
$MAXACTVP
 70
    16
  9
$PINSBASE
 10
1.349698802597465
 20
50.00000000000001
 30
1.77743903152371
  9
$PLIMCHECK
 70
     0
  9
$PEXTMIN
 10
1.000000000000000E+20
 20
1.000000000000000E+20
 30
1.000000000000000E+20
  9
$PEXTMAX
 10
-1.000000000000000E+20
 20
-1.000000000000000E+20
 30
-1.000000000000000E+20
  9
$PLIMMIN
 10
0.0
 20
0.0
  9
$PLIMMAX
 10
12.0
 20
9.0
  9
$UNITMODE
 70
     0
  9
$VISRETAIN
 70
     0
  9
$PLINEGEN
 70
     1
  9
$PSLTSCALE
 70
     0
  9
$TREEDEPTH
 70
  3020
  9
$PICKSTYLE
 70
     1
  9
$CMLSTYLE
  2
STANDARD
  9
$CMLJUST
 70
     0
  9
$CMLSCALE
 40
1.0
  9
$PROXYGRAPHICS
 70
     1
  9
$MEASUREMENT
 70
     0
  0
ENDSEC
  0
SECTION
  2
CLASSES
  0
CLASS
  1
LWPOLYLINE
  2
AcDbPolyline
  3
AutoCAD 2000
 90
        0
280
     0
281
     1
  0
CLASS
  1
ACDBDICTIONARYWDFLT
  2
AcDbDictionaryWithDefault
  3
AutoCAD 2000
 90
        0
280
     0
281
     0
  0
CLASS
  1
ACDBPLACEHOLDER
  2
AcDbPlaceHolder
  3
AutoCAD 2000
 90
        0
280
     0
281
     0
  0
CLASS
  1
LAYOUT
  2
AcDbLayout
  3
AutoCAD 2000
 90
        0
280
     0
281
     0
  0
CLASS
  1
DICTIONARYVAR
  2
AcDbDictionaryVar
  3
AutoCAD 2000
 90
        0
280
     0
281
     0
  0
CLASS
  1
LONG_TRANSACTION
  2
AcDbLongTransaction
  3
AutoCAD 2000
 90
        0
280
     0
281
     0
  0
CLASS
  1
LWPOLYLINE
  2
AcDbPolyline
  3
AutoCAD 2000
 90
        0
280
     0
281
     1
  0
CLASS
  1
HATCH
  2
AcDbHatch
  3
AutoCAD 2000
 90
        0
280
     0
281
     1
  0
CLASS
  1
XRECORD
  2
AcDbXrecord
  3
AutoCAD 2000
 90
        0
280
     0
281
     0
  0
ENDSEC
  0
SECTION
  2
TABLES
  0
TABLE
  2
VPORT
  5
29F52FA
330
0
100
AcDbSymbolTable
 70
     2
  0
VPORT
  5
29F532F
330
29F52FA
100
AcDbSymbolTableRecord
100
AcDbViewportTableRecord
  2
*ACTIVE
 70
     0
 10
0.0
 20
0.0
 11
1.0
 21
1.0
 12
5.287722431559989
 22
1.516204856704227
 13
0.0
 23
0.0
 14
0.015625
 24
0.015625
 15
0.0
 25
0.0
 16
0.0
 26
0.0
 36
1.0
 17
0.0
 27
0.0
 37
0.0
 40
2.282647215150728
 41
4.320930232558139
 42
50.0
 43
0.0
 44
0.0
 50
0.0
 51
0.0
 71
     0
 72
  2000
 73
     1
 74
     0
 75
     1
 76
     0
 77
     0
 78
     0
  0
ENDTAB
  0
TABLE
  2
LTYPE
  5
29F52F7
330
0
100
AcDbSymbolTable
 70
     1
  0
LTYPE
  5
29F5304
330
29F52F7
100
AcDbSymbolTableRecord
100
AcDbLinetypeTableRecord
  2
BYBLOCK
 70
     0
  3

 72
    65
 73
     0
 40
0.0
  0
LTYPE
  5
29F5305
330
29F52F7
100
AcDbSymbolTableRecord
100
AcDbLinetypeTableRecord
  2
BYLAYER
 70
     0
  3

 72
    65
 73
     0
 40
0.0
  0
LTYPE
  5
29F5306
330
29F52F7
100
AcDbSymbolTableRecord
100
AcDbLinetypeTableRecord
  2
CONTINUOUS
 70
     0
  3
Solid line
 72
    65
 73
     0
 40
0.0
  0
ENDTAB
  0
TABLE
  2
LAYER
  5
29F52F4
330
0
100
AcDbSymbolTable
 70
     2
  0
LAYER
  5
29F5301
330
29F52F4
100
AcDbSymbolTableRecord
100
AcDbLayerTableRecord
  2
0
 70
     0
 62
     7
  6
CONTINUOUS
  0
LAYER
  5
29F5311
330
29F52F4
100
AcDbSymbolTableRecord
100
AcDbLayerTableRecord
  2
TEXT
 70
     0
 62
     3
  6
CONTINUOUS
  0
ENDTAB
  0
TABLE
  2
STYLE
  5
29F52F5
330
0
100
AcDbSymbolTable
 70
     3
  0
STYLE
  5
29F5302
330
29F52F5
100
AcDbSymbolTableRecord
100
AcDbTextStyleTableRecord
  2
STANDARD
 70
     0
 40
0.0
 41
1.0
 50
0.0
 71
     0
 42
0.3125
  3
txt
  4

  0
STYLE
  5
29F530E
330
29F52F5
100
AcDbSymbolTableRecord
100
AcDbTextStyleTableRecord
  2
ITALICC
 70
     0
 40
0.0
 41
1.0
 50
0.0
 71
     0
 42
0.125
  3
italicc
  4

  0
STYLE
  5
29F531E
330
29F52F5
100
AcDbSymbolTableRecord
100
AcDbTextStyleTableRecord
  2
ROMANS
 70
     0
 40
0.0
 41
1.0
 50
0.0
 71
     0
 42
0.125
  3
romans.shx
  4

  0
ENDTAB
  0
TABLE
  2
VIEW
  5
29F52F8
330
0
100
AcDbSymbolTable
 70
     0
  0
ENDTAB
  0
TABLE
  2
UCS
  5
29F52F9
330
0
100
AcDbSymbolTable
 70
     0
  0
ENDTAB
  0
TABLE
  2
APPID
  5
29F52FB
330
0
100
AcDbSymbolTable
 70
     1
  0
APPID
  5
29F5303
330
29F52FB
100
AcDbSymbolTableRecord
100
AcDbRegAppTableRecord
  2
ACAD
 70
     0
  0
ENDTAB
  0
TABLE
  2
DIMSTYLE
  5
29F52FC
330
0
100
AcDbSymbolTable
 70
     1
  0
DIMSTYLE
105
29F5316
330
29F52FC
100
AcDbSymbolTableRecord
100
AcDbDimStyleTableRecord
  2
STANDARD
 70
     0
  3

  4

  5

  6

  7

 40
1.0
 41
0.125
 42
0.125
 43
0.375
 44
0.125
 45
0.0
 46
0.0
 47
0.0
 48
0.0
140
0.125
141
-0.125
142
0.0
143
25.4
144
1.0
145
0.0
146
1.0
147
0.09
 71
     0
 72
     0
 73
     1
 74
     1
 75
     0
 76
     0
 77
     0
 78
     4
170
     0
171
     2
172
     0
173
     0
174
     1
175
     0
176
     0
177
     0
178
     0
270
     2
271
     3
272
     3
273
     2
274
     2
340
29F531E
275
     0
280
     0
281
     0
282
     0
283
     1
284
     4
285
     0
286
     0
287
     3
288
     0
  0
ENDTAB
  0
TABLE
  2
BLOCK_RECORD
  5
29F52F3
330
0
100
AcDbSymbolTable
 70
     0
  0
BLOCK_RECORD
  5
29F530A
102
{ACAD_XDICTIONARY
360
29F5352
102
}
330
29F52F3
100
AcDbSymbolTableRecord
100
AcDbBlockTableRecord
  2
*MODEL_SPACE
  0
BLOCK_RECORD
  5
29F5307
102
{ACAD_XDICTIONARY
360
29F5350
102
}
330
29F52F3
100
AcDbSymbolTableRecord
100
AcDbBlockTableRecord
  2
*PAPER_SPACE
  0
ENDTAB
  0
ENDSEC
  0
SECTION
  2
BLOCKS
  0
BLOCK
  5
29F5314
330
29F530A
100
AcDbEntity
  8
0
100
AcDbBlockBegin
  2
*MODEL_SPACE
 70
     0
 10
0.0
 20
0.0
 30
0.0
  3
*MODEL_SPACE
  1

  0
ENDBLK
  5
29F5315
330
29F530A
100
AcDbEntity
  8
0
100
AcDbBlockEnd
  0
BLOCK
  5
29F5312
330
29F5307
100
AcDbEntity
 67
     1
  8
0
100
AcDbBlockBegin
  2
*PAPER_SPACE
 70
     0
 10
0.0
 20
0.0
 30
0.0
  3
*PAPER_SPACE
  1

  0
ENDBLK
  5
29F5313
330
29F5307
100
AcDbEntity
 67
     1
  8
0
100
AcDbBlockEnd
  0
ENDSEC
  0
SECTION
  2
ENTITIES
  0
LWPOLYLINE
  5
29F3D1C
330
29F530A
100
AcDbEntity
  8
0
100
AcDbPolyline
 90
       17
 70
     1
 43
0.0
 10
2.640649264071512
 20
1.745309070338408
 10
1.684362716738236
 20
1.745309070338408
 10
1.684362716738236
 20
1.325309070338408
 10
2.079362716738236
 20
1.325309070338408
 42
0.4142135623730951
 10
2.019362716738235
 20
1.385309070338408
 10
1.744362716738236
 20
1.385309070338408
 10
1.744362716738236
 20
1.685309070338408
 10
2.301862716738235
 20
1.685309070338408
 10
2.311862716738235
 20
1.695309070338408
 10
2.321862716738235
 20
1.685309070338408
 10
2.841862716738235
 20
1.685309070338408
 42
0.4142135623730951
 10
2.871862716738236
 20
1.715309070338408
 10
2.871862716738236
 20
1.769380511061688
 42
0.0710917537360329
 10
2.86185604562416
 20
1.839403379399487
 42
-0.212076316588934
 10
2.916057729472878
 20
2.241255472885213
 42
1.862407732963207
 10
2.707667704003595
 20
2.241255472885211
 42
-0.2150666996672656
 10
2.760237564249508
 20
1.833927227881799
 42
-0.3301322311152066
  0
TEXT
  5
29F51B5
330
29F530A
100
AcDbEntity
  8
TEXT
100
AcDbText
 10
1.558886526262045
 20
1.054684070338408
 30
0.0
 40
0.125
  1
PART #110029
  7
ITALICC
 72
     1
 11
2.311862716738235
 21
1.054684070338408
 31
0.0
100
AcDbText
  0
TEXT
  5
29F51B6
330
29F530A
100
AcDbEntity
  8
TEXT
100
AcDbText
 10
2.725167874988556
 20
0.6077614276660331
 30
0.0
 40
0.0522247191011236
  1
Phone  1-800-328-2495
 41
1.27232142857143
 72
     5
 11
4.05410045925822
 21
0.6077614276660331
 31
0.0
100
AcDbText
  0
TEXT
  5
29F51B7
330
29F530A
100
AcDbEntity
  8
TEXT
100
AcDbText
 10
2.725167874988556
 20
0.8875367085649095
 30
0.0
 40
0.0522247191011236
  1
Stylmark  Incorporated
 41
1.221428571428573
 72
     5
 11
4.05410045925822
 21
0.8875367085649095
 31
0.0
100
AcDbText
  0
TEXT
  5
29F51B8
330
29F530A
100
AcDbEntity
  8
TEXT
100
AcDbText
 10
2.725167874988556
 20
0.7942782815986174
 30
0.0
 40
0.0522247191011236
  1
6536 Main St. N.E. * P.O. Box 32008
 41
0.8388932496075367
 72
     5
 11
4.05410045925822
 21
0.7942782815986174
 31
0.0
100
AcDbText
  0
TEXT
  5
29F51B9
330
29F530A
100
AcDbEntity
  8
TEXT
100
AcDbText
 10
2.725167874988556
 20
0.7010198546323253
 30
0.0
 40
0.0522247191011236
  1
Minneapolis, MN 55432-0008
 41
1.11444212721585
 72
     5
 11
4.05410045925822
 21
0.7010198546323253
 31
0.0
100
AcDbText
  0
LWPOLYLINE
  5
29F51BA
330
29F530A
100
AcDbEntity
  8
TEXT
100
AcDbPolyline
 90
        3
 70
     0
 43
0.0006660908203125
 10
0.569214182921249
 20
0.7214061903034679
 10
0.569214182921249
 20
0.6081707508503403
 10
0.6824496223743713
 20
0.6081707508503403
  0
LWPOLYLINE
  5
29F51BF
330
29F530A
100
AcDbEntity
  8
TEXT
100
AcDbPolyline
 90
        3
 70
     0
 43
0.0006660908203125
 10
0.5958578157337464
 20
0.7214061903034679
 10
0.5958578157337464
 20
0.6348143836628413
 10
0.6824496223743713
 20
0.6348143836628413
  0
LWPOLYLINE
  5
29F51C4
330
29F530A
100
AcDbEntity
  8
TEXT
100
AcDbPolyline
 90
        2
 70
     0
 43
0.0001332181640625
 10
0.6424841731556233
 20
0.7313975526081532
 10
0.569214182921249
 20
0.7214061903034679
  0
LWPOLYLINE
  5
29F51C8
330
29F530A
100
AcDbEntity
  8
TEXT
100
AcDbPolyline
 90
        2
 70
     0
 43
0.0001332181640625
 10
0.5958578157337464
 20
0.7214061903034679
 10
0.6558059895618738
 20
0.7313975526081532
  0
LWPOLYLINE
  5
29F51CC
330
29F530A
100
AcDbEntity
  8
TEXT
100
AcDbPolyline
 90
        2
 70
     0
 43
0.0001332181640625
 10
0.5958578157337464
 20
0.6348143836628413
 10
0.6558059895618738
 20
0.6947625574909669
  0
LWPOLYLINE
  5
29F51D0
330
29F530A
100
AcDbEntity
  8
TEXT
100
AcDbPolyline
 90
        3
 70
     0
 43
0.0006660908203125
 10
0.6824496223743713
 20
0.8746070789753435
 10
0.569214182921249
 20
0.8746070789753435
 10
0.569214182921249
 20
0.761371639522216
  0
LWPOLYLINE
  5
29F51D5
330
29F530A
100
AcDbEntity
  8
TEXT
100
AcDbPolyline
 90
        3
 70
     0
 43
0.0006660908203125
 10
0.6824496223743713
 20
0.8479634461628425
 10
0.5958578157337464
 20
0.8479634461628425
 10
0.5958578157337464
 20
0.761371639522216
  0
LWPOLYLINE
  5
29F51DA
330
29F530A
100
AcDbEntity
  8
TEXT
100
AcDbPolyline
 90
        2
 70
     0
 43
0.0001332181640625
 10
0.5958578157337464
 20
0.8479634461628425
 10
0.655805989561872
 20
0.788015272334717
  0
LWPOLYLINE
  5
29F51DE
330
29F530A
100
AcDbEntity
  8
TEXT
100
AcDbPolyline
 90
        2
 70
     0
 43
0.0001332181640625
 10
0.5958578157337464
 20
0.761371639522216
 10
0.655805989561872
 20
0.7513802772175272
  0
LWPOLYLINE
  5
29F51E2
330
29F530A
100
AcDbEntity
  8
TEXT
100
AcDbPolyline
 90
        2
 70
     0
 43
0.0001332181640625
 10
0.569214182921249
 20
0.761371639522216
 10
0.6424841731556233
 20
0.7513802772175272
  0
LWPOLYLINE
  5
29F51E6
330
29F530A
100
AcDbEntity
  8
TEXT
100
AcDbPolyline
 90
        2
 70
     0
 43
0.0006660908203125
 10
0.5958578157337464
 20
0.7214061903034679
 10
0.569214182921249
 20
0.7214061903034679
  0
LWPOLYLINE
  5
29F51EA
330
29F530A
100
AcDbEntity
  8
TEXT
100
AcDbPolyline
 90
        2
 70
     0
 43
0.0006660908203125
 10
0.5958578157337464
 20
0.761371639522216
 10
0.569214182921249
 20
0.761371639522216
  0
LINE
  5
29F51EE
330
29F530A
100
AcDbEntity
  8
TEXT
100
AcDbLine
 10
2.084404612047746
 20
0.8103303843185745
 30
0.0
 11
1.977198338660457
 21
0.8103303843185745
 31
0.0
  0
LINE
  5
29F51EF
330
29F530A
100
AcDbEntity
  8
TEXT
100
AcDbLine
 10
2.113435510392224
 20
0.87460707897534
 30
0.0
 11
1.978603601175165
 21
0.87460707897534
 31
0.0
  0
ARC
  5
29F51F0
330
29F530A
100
AcDbEntity
  8
TEXT
100
AcDbCircle
 10
2.037917697568482
 20
0.7053698297123237
 30
0.0
 40
0.0676855811441166
100
AcDbArc
 50
90.0
 51
153.7768192527749
  0
LWPOLYLINE
  5
29F51F1
330
29F530A
100
AcDbEntity
  8
TEXT
100
AcDbPolyline
 90
        2
 70
     0
 43
0.0
 10
1.976165843205647
 20
0.6516249909372672
 42
0.2901071551932823
 10
2.019241776073282
 20
0.608134045986829
 42
5.328517124445801
  0
ARC
  5
29F51F5
330
29F530A
100
AcDbEntity
  8
TEXT
100
AcDbCircle
 10
1.332786319896996
 20
0.6679264373248789
 30
0.0
 40
0.0601160179737537
100
AcDbArc
 50
180.0000000000003
 51
264.0521544866073
  0
LINE
  5
29F51F6
330
29F530A
100
AcDbEntity
  8
TEXT
100
AcDbLine
 10
1.336301675522544
 20
0.9089949965694781
 30
0.0
 11
1.276259070678537
 21
0.9089949965694781
 31
0.0
  0
ARC
  5
29F51F7
330
29F530A
100
AcDbEntity
  8
TEXT
100
AcDbCircle
 10
1.100527317780026
 20
0.7925196195288383
 30
0.0
 40
0.0820874594465043
100
AcDbArc
 50
90.0
 51
270.0
  0
LWPOLYLINE
  5
29F51F8
330
29F530A
100
AcDbEntity
  8
TEXT
100
AcDbPolyline
 90
        2
 70
     0
 43
0.0001332181640625
 10
0.6924409846790618
 20
0.8013370887409639
 10
0.6824496223743713
 20
0.8746070789753435
  0
LWPOLYLINE
  5
29F51FC
330
29F530A
100
AcDbEntity
  8
TEXT
100
AcDbPolyline
 90
        2
 70
     0
 43
0.0001332181640625
 10
0.6824496223743713
 20
0.8479634461628425
 10
0.6924409846790618
 20
0.788015272334717
  0
LWPOLYLINE
  5
29F5200
330
29F530A
100
AcDbEntity
  8
TEXT
100
AcDbPolyline
 90
        3
 70
     0
 43
0.0006660908203125
 10
0.8356505110462485
 20
0.761371639522216
 10
0.8356505110462485
 20
0.8746070789753435
 10
0.7224150715931228
 20
0.8746070789753435
  0
LWPOLYLINE
  5
29F5205
330
29F530A
100
AcDbEntity
  8
TEXT
100
AcDbPolyline
 90
        3
 70
     0
 43
0.0006660908203125
 10
0.8090068782337475
 20
0.761371639522216
 10
0.8090068782337475
 20
0.8479634461628425
 10
0.7224150715931228
 20
0.8479634461628425
  0
LWPOLYLINE
  5
29F520A
330
29F530A
100
AcDbEntity
  8
TEXT
100
AcDbPolyline
 90
        2
 70
     0
 43
0.0001332181640625
 10
0.8090068782337475
 20
0.8479634461628425
 10
0.7490587044056239
 20
0.788015272334717
  0
LWPOLYLINE
  5
29F520E
330
29F530A
100
AcDbEntity
  8
TEXT
100
AcDbPolyline
 90
        2
 70
     0
 43
0.0001332181640625
 10
0.7224150715931228
 20
0.8479634461628425
 10
0.7124237092884341
 20
0.788015272334717
  0
LWPOLYLINE
  5
29F5212
330
29F530A
100
AcDbEntity
  8
TEXT
100
AcDbPolyline
 90
        2
 70
     0
 43
0.0001332181640625
 10
0.7224150715931228
 20
0.8746070789753435
 10
0.7124237092884341
 20
0.8013370887409639
  0
LWPOLYLINE
  5
29F5216
330
29F530A
100
AcDbEntity
  8
TEXT
100
AcDbPolyline
 90
        2
 70
     0
 43
0.0001332181640625
 10
0.7623805208118726
 20
0.7513802772175272
 10
0.8356505110462485
 20
0.761371639522216
  0
LWPOLYLINE
  5
29F521A
330
29F530A
100
AcDbEntity
  8
TEXT
100
AcDbPolyline
 90
        2
 70
     0
 43
0.0001332181640625
 10
0.8090068782337475
 20
0.761371639522216
 10
0.7490587044056239
 20
0.7513802772175272
  0
LWPOLYLINE
  5
29F521E
330
29F530A
100
AcDbEntity
  8
TEXT
100
AcDbPolyline
 90
        2
 70
     0
 43
0.0001332181640625
 10
0.8356505110462485
 20
0.7214061903034679
 10
0.7623805208118726
 20
0.7313975526081532
  0
LWPOLYLINE
  5
29F5222
330
29F530A
100
AcDbEntity
  8
TEXT
100
AcDbPolyline
 90
        2
 70
     0
 43
0.0001332181640625
 10
0.8090068782337475
 20
0.7214061903034679
 10
0.7490587044056239
 20
0.7313975526081532
  0
LWPOLYLINE
  5
29F5226
330
29F530A
100
AcDbEntity
  8
TEXT
100
AcDbPolyline
 90
        2
 70
     0
 43
0.0001332181640625
 10
0.8090068782337475
 20
0.6348143836628413
 10
0.7490587044056239
 20
0.6947625574909669
  0
LWPOLYLINE
  5
29F522A
330
29F530A
100
AcDbEntity
  8
TEXT
100
AcDbPolyline
 90
        3
 70
     0
 43
0.0006660908203125
 10
0.7224150715931228
 20
0.6348143836628413
 10
0.8090068782337475
 20
0.6348143836628413
 10
0.8090068782337475
 20
0.7214061903034679
  0
LWPOLYLINE
  5
29F522F
330
29F530A
100
AcDbEntity
  8
TEXT
100
AcDbPolyline
 90
        3
 70
     0
 43
0.0006660908203125
 10
0.7224150715931228
 20
0.6081707508503403
 10
0.8356505110462485
 20
0.6081707508503403
 10
0.8356505110462485
 20
0.7214061903034679
  0
LWPOLYLINE
  5
29F5234
330
29F530A
100
AcDbEntity
  8
TEXT
100
AcDbPolyline
 90
        5
 70
     0
 43
0.0001332181640625
 10
0.6924409846790618
 20
0.6814407410847164
 10
0.6924409846790618
 20
0.6947625574909669
 10
0.6558059895618738
 20
0.6947625574909669
 10
0.6558059895618738
 20
0.7313975526081532
 10
0.6424841731556233
 20
0.7313975526081532
  0
LWPOLYLINE
  5
29F523B
330
29F530A
100
AcDbEntity
  8
TEXT
100
AcDbPolyline
 90
        2
 70
     0
 43
0.0006660908203125
 10
0.6824496223743713
 20
0.6348143836628413
 10
0.6824496223743713
 20
0.6081707508503403
  0
LWPOLYLINE
  5
29F523F
330
29F530A
100
AcDbEntity
  8
TEXT
100
AcDbPolyline
 90
        2
 70
     0
 43
0.0001332181640625
 10
0.6824496223743713
 20
0.6348143836628413
 10
0.6924409846790618
 20
0.6947625574909669
  0
LWPOLYLINE
  5
29F5243
330
29F530A
100
AcDbEntity
  8
TEXT
100
AcDbPolyline
 90
        2
 70
     0
 43
0.0001332181640625
 10
0.6824496223743713
 20
0.6081707508503403
 10
0.6924409846790618
 20
0.6814407410847164
  0
LWPOLYLINE
  5
29F5247
330
29F530A
100
AcDbEntity
  8
TEXT
100
AcDbPolyline
 90
        5
 70
     0
 43
0.0001332181640625
 10
0.6424841731556233
 20
0.7513802772175272
 10
0.655805989561872
 20
0.7513802772175272
 10
0.655805989561872
 20
0.788015272334717
 10
0.6924409846790618
 20
0.788015272334717
 10
0.6924409846790618
 20
0.8013370887409639
  0
LWPOLYLINE
  5
29F524E
330
29F530A
100
AcDbEntity
  8
TEXT
100
AcDbPolyline
 90
        5
 70
     0
 43
0.0001332181640625
 10
0.7124237092884341
 20
0.8013370887409639
 10
0.7124237092884341
 20
0.788015272334717
 10
0.7490587044056239
 20
0.788015272334717
 10
0.7490587044056239
 20
0.7513802772175272
 10
0.7623805208118726
 20
0.7513802772175272
  0
LWPOLYLINE
  5
29F5255
330
29F530A
100
AcDbEntity
  8
TEXT
100
AcDbPolyline
 90
        2
 70
     0
 43
0.0001332181640625
 10
0.7224150715931228
 20
0.6348143836628413
 10
0.7124237092884341
 20
0.6947625574909669
  0
LWPOLYLINE
  5
29F5259
330
29F530A
100
AcDbEntity
  8
TEXT
100
AcDbPolyline
 90
        2
 70
     0
 43
0.0001332181640625
 10
0.7124237092884341
 20
0.6814407410847164
 10
0.7224150715931228
 20
0.6081707508503403
  0
LWPOLYLINE
  5
29F525D
330
29F530A
100
AcDbEntity
  8
TEXT
100
AcDbPolyline
 90
        2
 70
     0
 43
0.0006660908203125
 10
0.7224150715931228
 20
0.6348143836628413
 10
0.7224150715931228
 20
0.6081707508503403
  0
LWPOLYLINE
  5
29F5261
330
29F530A
100
AcDbEntity
  8
TEXT
100
AcDbPolyline
 90
        5
 70
     0
 43
0.0001332181640625
 10
0.7623805208118726
 20
0.7313975526081532
 10
0.7490587044056239
 20
0.7313975526081532
 10
0.7490587044056239
 20
0.6947625574909669
 10
0.7124237092884341
 20
0.6947625574909669
 10
0.7124237092884341
 20
0.6814407410847164
  0
LWPOLYLINE
  5
29F5268
330
29F530A
100
AcDbEntity
  8
TEXT
100
AcDbPolyline
 90
        2
 70
     0
 43
0.0006660908203125
 10
0.8090068782337475
 20
0.761371639522216
 10
0.8356505110462485
 20
0.761371639522216
  0
LWPOLYLINE
  5
29F526C
330
29F530A
100
AcDbEntity
  8
TEXT
100
AcDbPolyline
 90
        2
 70
     0
 43
0.0006660908203125
 10
0.8090068782337475
 20
0.7214061903034679
 10
0.8356505110462485
 20
0.7214061903034679
  0
LINE
  5
29F5270
330
29F530A
100
AcDbEntity
  8
TEXT
100
AcDbLine
 10
1.105764647894273
 20
0.8103303843185745
 30
0.0
 11
1.272670301923244
 21
0.8103303843185745
 31
0.0
  0
LINE
  5
29F5271
330
29F530A
100
AcDbEntity
  8
TEXT
100
AcDbLine
 10
1.171364784138574
 20
0.7745256627079467
 30
0.0
 11
1.105764647894273
 21
0.7745256627079467
 31
0.0
  0
LINE
  5
29F5272
330
29F530A
100
AcDbEntity
  8
TEXT
100
AcDbLine
 10
1.018439858333521
 20
0.608134045986829
 30
0.0
 11
1.171364784138574
 21
0.608134045986829
 31
0.0
  0
LINE
  5
29F5273
330
29F530A
100
AcDbEntity
  8
TEXT
100
AcDbLine
 10
1.176305158044854
 20
0.6764910523202684
 30
0.0
 11
1.01843985833352
 21
0.6764910523202684
 31
0.0
  0
LINE
  5
29F5274
330
29F530A
100
AcDbEntity
  8
TEXT
100
AcDbLine
 10
1.100527317780025
 20
0.710432160082333
 30
0.0
 11
1.176305158044854
 21
0.710432160082333
 31
0.0
  0
ARC
  5
29F5275
330
29F530A
100
AcDbEntity
  8
TEXT
100
AcDbCircle
 10
1.105764647894274
 20
0.7924280235132624
 30
0.0
 40
0.017902360805315
100
AcDbArc
 50
90.0
 51
270.0
  0
LINE
  5
29F5276
330
29F530A
100
AcDbEntity
  8
TEXT
100
AcDbLine
 10
1.01843985833352
 20
0.6764910523202684
 30
0.0
 11
1.018439858333521
 21
0.608134045986829
 31
0.0
  0
LINE
  5
29F5277
330
29F530A
100
AcDbEntity
  8
TEXT
100
AcDbLine
 10
1.272670301923244
 20
0.8103303843185745
 30
0.0
 11
1.272670301923244
 21
0.6679264373248789
 31
0.0
  0
ARC
  5
29F5278
330
29F530A
100
AcDbEntity
  8
TEXT
100
AcDbCircle
 10
1.171364784138575
 20
0.6913298543473861
 30
0.0
 40
0.0831958083605586
100
AcDbArc
 50
270.0
 51
90.0
  0
ARC
  5
29F5279
330
29F530A
100
AcDbEntity
  8
TEXT
100
AcDbCircle
 10
1.176305158044855
 20
0.6934616062013025
 30
0.0
 40
0.0169705538810321
100
AcDbArc
 50
270.0
 51
90.0
  0
LWPOLYLINE
  5
29F527A
330
29F530A
100
AcDbEntity
  8
TEXT
100
AcDbPolyline
 90
        2
 70
     0
 43
0.0006660908203125
 10
0.6824496223743713
 20
0.8479634461628425
 10
0.6824496223743713
 20
0.8746070789753435
  0
LWPOLYLINE
  5
29F527E
330
29F530A
100
AcDbEntity
  8
TEXT
100
AcDbPolyline
 90
        2
 70
     0
 43
0.0006660908203125
 10
0.7224150715931228
 20
0.8479634461628425
 10
0.7224150715931228
 20
0.8746070789753435
  0
LINE
  5
29F5282
330
29F530A
100
AcDbEntity
  8
TEXT
100
AcDbLine
 10
1.276259070678537
 20
0.87460707897534
 30
0.0
 11
1.100527317780025
 21
0.87460707897534
 31
0.0
  0
LINE
  5
29F5283
330
29F530A
100
AcDbEntity
  8
TEXT
100
AcDbLine
 10
1.276259070678537
 20
0.9089949965694781
 30
0.0
 11
1.276259070678537
 21
0.87460707897534
 31
0.0
  0
LINE
  5
29F5284
330
29F530A
100
AcDbEntity
  8
TEXT
100
AcDbLine
 10
1.466730962698389
 20
0.7737350828622195
 30
0.0
 11
1.408100641666452
 21
0.87460707897534
 31
0.0
  0
LINE
  5
29F5285
330
29F530A
100
AcDbEntity
  8
TEXT
100
AcDbLine
 10
1.525479525504255
 20
0.87460707897534
 30
0.0
 11
1.466730962698389
 21
0.7737350828622195
 31
0.0
  0
LINE
  5
29F5286
330
29F530A
100
AcDbEntity
  8
TEXT
100
AcDbLine
 10
1.622410150863996
 20
0.6905218840898283
 30
0.0
 11
1.622410150863996
 21
0.9426185567141505
 31
0.0
  0
LINE
  5
29F5287
330
29F530A
100
AcDbEntity
  8
TEXT
100
AcDbLine
 10
1.654722005001656
 20
0.87460707897534
 30
0.0
 11
1.654722005001656
 21
0.6737428722429318
 31
0.0
  0
LINE
  5
29F5288
330
29F530A
100
AcDbEntity
  8
TEXT
100
AcDbLine
 10
1.654722005001656
 20
0.6737428722429318
 30
0.0
 11
1.637728368117055
 21
0.6737428722429318
 31
0.0
  0
LINE
  5
29F5289
330
29F530A
100
AcDbEntity
  8
TEXT
100
AcDbLine
 10
1.623549724360191
 20
0.608134045986829
 30
0.0
 11
1.721553058059626
 21
0.608134045986829
 31
0.0
  0
LINE
  5
29F528A
330
29F530A
100
AcDbEntity
  8
TEXT
100
AcDbLine
 10
1.457130725701435
 20
0.628092552091842
 30
0.0
 11
1.55443043179488
 21
0.7924427630271101
 31
0.0
  0
ARC
  5
29F528B
330
29F530A
100
AcDbEntity
  8
TEXT
100
AcDbCircle
 10
1.423087165789221
 20
0.6476817682605248
 30
0.0
 40
0.0392772371940762
100
AcDbArc
 50
270.1604552698595
 51
330.0831797321295
  0
LINE
  5
29F528C
330
29F530A
100
AcDbEntity
  8
TEXT
100
AcDbLine
 10
1.32655690940335
 20
0.608134045986829
 30
0.0
 11
1.423197160478344
 21
0.6084046850851113
 31
0.0
  0
LWPOLYLINE
  5
29F528D
330
29F530A
100
AcDbEntity
  8
TEXT
100
AcDbPolyline
 90
        6
 70
     1
 43
0.0
 10
1.3690807129785
 20
0.8103303843185745
 10
1.338764118758291
 20
0.8103303843185745
 10
1.338764118758291
 20
0.6872193862636803
 42
0.407328721240804
 10
1.350307769919768
 20
0.6754004715872942
 10
1.410929468964499
 20
0.6754004715872942
 10
1.428394809371817
 20
0.7082127006307733
  0
LINE
  5
29F5295
330
29F530A
100
AcDbEntity
  8
TEXT
100
AcDbLine
 10
1.55443043179488
 20
0.7924427630271101
 30
0.0
 11
1.55443043179488
 21
0.6596853882017538
 31
0.0
  0
ARC
  5
29F5296
330
29F530A
100
AcDbEntity
  8
TEXT
100
AcDbCircle
 10
1.637728368117053
 20
0.6891246784863573
 30
0.0
 40
0.0153818062434269
100
AcDbArc
 50
174.7883570302258
 51
270.0
  0
LWPOLYLINE
  5
29F5297
330
29F530A
100
AcDbEntity
  8
TEXT
100
AcDbPolyline
 90
        2
 70
     0
 43
0.0
 10
1.554430431794878
 20
0.6596853882017573
 42
0.3318488747599744
 10
1.623549724360191
 20
0.608134045986829
 42
-6.868794160588311
  0
LINE
  5
29F529B
330
29F530A
100
AcDbEntity
  8
TEXT
100
AcDbLine
 10
1.778942127048887
 20
0.608134045986829
 30
0.0
 11
1.846000173830727
 21
0.608134045986829
 31
0.0
  0
LINE
  5
29F529C
330
29F530A
100
AcDbEntity
  8
TEXT
100
AcDbLine
 10
1.778942127048887
 20
0.8027765951524646
 30
0.0
 11
1.778942127048887
 21
0.608134045986829
 31
0.0
  0
LINE
  5
29F529D
330
29F530A
100
AcDbEntity
  8
TEXT
100
AcDbLine
 10
1.721553058059626
 20
0.8103303843185745
 30
0.0
 11
1.771388337882773
 21
0.8103303843185745
 31
0.0
  0
LINE
  5
29F529E
330
29F530A
100
AcDbEntity
  8
TEXT
100
AcDbLine
 10
1.721553058059626
 20
0.608134045986829
 30
0.0
 11
1.721553058059626
 21
0.8103303843185745
 31
0.0
  0
LWPOLYLINE
  5
29F529F
330
29F530A
100
AcDbEntity
  8
TEXT
100
AcDbPolyline
 90
        2
 70
     0
 43
0.0
 10
1.771388337882771
 20
0.8103303843185745
 42
-0.4142135623731017
 10
1.778942127048885
 20
0.8027765951524646
 42
-0.9999999999999998
  0
LINE
  5
29F52A3
330
29F530A
100
AcDbEntity
  8
TEXT
100
AcDbLine
 10
1.977198338660457
 20
0.8103303843185745
 30
0.0
 11
1.977198338660457
 21
0.735277978244368
 31
0.0
  0
LINE
  5
29F52A4
330
29F530A
100
AcDbEntity
  8
TEXT
100
AcDbLine
 10
1.846000173830727
 20
0.8103303843185745
 30
0.0
 11
1.900133770751677
 21
0.8103303843185745
 31
0.0
  0
LINE
  5
29F52A5
330
29F530A
100
AcDbEntity
  8
TEXT
100
AcDbLine
 10
1.846000173830727
 20
0.608134045986829
 30
0.0
 11
1.846000173830727
 21
0.8103303843185745
 31
0.0
  0
LWPOLYLINE
  5
29F52A6
330
29F530A
100
AcDbEntity
  8
TEXT
100
AcDbPolyline
 90
        2
 70
     0
 43
0.0
 10
1.900133770751675
 20
0.8103303843185745
 42
-0.4142135623731017
 10
1.907687559917789
 20
0.8027765951524646
 42
-0.9999999999999998
  0
LWPOLYLINE
  5
29F52AA
330
29F530A
100
AcDbEntity
  8
TEXT
100
AcDbPolyline
 90
        4
 70
     0
 43
0.0
 10
1.907687559917789
 20
0.8027765951524646
 10
1.907687559917789
 20
0.608134045986829
 10
1.976165843205647
 20
0.608134045986829
 10
1.976165843205647
 20
0.6516249909372672
 42
-1.714843617202739
  0
LINE
  5
29F52B0
330
29F530A
100
AcDbEntity
  8
TEXT
100
AcDbLine
 10
1.336301675522544
 20
0.87460707897534
 30
0.0
 11
1.336301675522544
 21
0.9089949965694781
 31
0.0
  0
LINE
  5
29F52B1
330
29F530A
100
AcDbEntity
  8
TEXT
100
AcDbLine
 10
1.408100641666452
 20
0.87460707897534
 30
0.0
 11
1.336301675522544
 21
0.87460707897534
 31
0.0
  0
LINE
  5
29F52B2
330
29F530A
100
AcDbEntity
  8
TEXT
100
AcDbLine
 10
1.555601438297631
 20
0.87460707897534
 30
0.0
 11
1.525479525504255
 21
0.87460707897534
 31
0.0
  0
LINE
  5
29F52B3
330
29F530A
100
AcDbEntity
  8
TEXT
100
AcDbLine
 10
1.555601438297631
 20
0.9426185567141505
 30
0.0
 11
1.555601438297631
 21
0.87460707897534
 31
0.0
  0
LINE
  5
29F52B4
330
29F530A
100
AcDbEntity
  8
TEXT
100
AcDbLine
 10
1.622410150863996
 20
0.9426185567141505
 30
0.0
 11
1.555601438297631
 21
0.9426185567141505
 31
0.0
  0
LWPOLYLINE
  5
29F52B5
330
29F530A
100
AcDbEntity
  8
TEXT
100
AcDbPolyline
 90
        3
 70
     0
 43
0.0
 10
1.942821910461999
 20
0.8746070789753435
 10
1.824521751645954
 20
0.8746070789753435
 10
1.824521751645954
 20
0.8474395822144476
 42
-1.960274751411753
  0
LINE
  5
29F52BA
330
29F530A
100
AcDbEntity
  8
TEXT
100
AcDbLine
 10
1.788740060932793
 20
0.87460707897534
 30
0.0
 11
1.654722005001656
 21
0.87460707897534
 31
0.0
  0
LWPOLYLINE
  5
29F52BB
330
29F530A
100
AcDbEntity
  8
TEXT
100
AcDbPolyline
 90
        2
 70
     0
 43
0.0
 10
1.788740060932793
 20
0.8746070789753435
 42
-0.3328679258950098
 10
1.824521751645954
 20
0.8474395822144476
 42
6.772930709997214
  0
LINE
  5
29F52BF
330
29F530A
100
AcDbEntity
  8
TEXT
100
AcDbLine
 10
1.978603601175165
 20
0.87460707897534
 30
0.0
 11
1.978603601175165
 21
0.8462845332056961
 31
0.0
  0
LWPOLYLINE
  5
29F52C0
330
29F530A
100
AcDbEntity
  8
TEXT
100
AcDbPolyline
 90
        2
 70
     0
 43
0.0
 10
1.942821910461999
 20
0.8746070789753435
 42
-0.3277054968067132
 10
1.978603601175164
 20
0.8462845332056996
 42
6.667889725900311
  0
LINE
  5
29F52C4
330
29F530A
100
AcDbEntity
  8
TEXT
100
AcDbLine
 10
2.192395449267265
 20
0.7693951004219127
 30
0.0
 11
2.148644678085364
 21
0.8516453764180578
 31
0.0
  0
LINE
  5
29F52C5
330
29F530A
100
AcDbEntity
  8
TEXT
100
AcDbLine
 10
2.192395449267265
 20
0.87460707897534
 30
0.0
 11
2.192395449267265
 21
0.7693951004219127
 31
0.0
  0
LINE
  5
29F52C6
330
29F530A
100
AcDbEntity
  8
TEXT
100
AcDbLine
 10
2.420079188205634
 20
0.7987417525638019
 30
0.0
 11
2.420079188205634
 21
0.9400712847429407
 31
0.0
  0
LINE
  5
29F52C7
330
29F530A
100
AcDbEntity
  8
TEXT
100
AcDbLine
 10
2.467177346761619
 20
0.87460707897534
 30
0.0
 11
2.420079188205634
 21
0.7987417525638019
 31
0.0
  0
LINE
  5
29F52C8
330
29F530A
100
AcDbEntity
  8
TEXT
100
AcDbLine
 10
2.477612063525542
 20
0.7647138360343665
 30
0.0
 11
2.542169179491247
 21
0.87460707897534
 31
0.0
  0
LINE
  5
29F52C9
330
29F530A
100
AcDbEntity
  8
TEXT
100
AcDbLine
 10
2.356244196982861
 20
0.608134045986829
 30
0.0
 11
2.420622381301482
 21
0.608134045986829
 31
0.0
  0
LWPOLYLINE
  5
29F52CA
330
29F530A
100
AcDbEntity
  8
TEXT
100
AcDbPolyline
 90
        2
 70
     0
 43
0.0
 10
2.196335126572303
 20
0.6516249909372672
 42
-0.2901071551932486
 10
2.153259193704659
 20
0.608134045986829
 42
-5.328517124445184
  0
ARC
  5
29F52CE
330
29F530A
100
AcDbEntity
  8
TEXT
100
AcDbCircle
 10
2.084404612047744
 20
0.7819710093185773
 30
0.0
 40
0.028359375
100
AcDbArc
 50
25.78218179591245
 51
90.0
  0
LINE
  5
29F52CF
330
29F530A
100
AcDbEntity
  8
TEXT
100
AcDbLine
 10
2.120205687351867
 20
0.7730554108564423
 30
0.0
 11
2.109940926938303
 21
0.7943059504291366
 31
0.0
  0
LINE
  5
29F52D0
330
29F530A
100
AcDbEntity
  8
TEXT
100
AcDbLine
 10
2.037917697568484
 20
0.7730554108564423
 30
0.0
 11
2.120205687351867
 21
0.7730554108564423
 31
0.0
  0
LWPOLYLINE
  5
29F52D1
330
29F530A
100
AcDbEntity
  8
TEXT
100
AcDbPolyline
 90
        4
 70
     1
 43
0.0
 10
2.133136728634766
 20
0.7110980239708543
 10
2.044476409974908
 20
0.7110980239708543
 42
0.9999999999999998
 10
2.044476409974908
 20
0.6686994834669936
 10
2.133136728634766
 20
0.6686994834669936
 42
1.0
  0
LWPOLYLINE
  5
29F52D7
330
29F530A
100
AcDbEntity
  8
TEXT
100
AcDbPolyline
 90
        2
 70
     0
 43
0.0
 10
2.019241776073282
 20
0.608134045986829
 10
2.153259193704659
 20
0.608134045986829
 42
0.9999999999999998
  0
LINE
  5
29F52DB
330
29F530A
100
AcDbEntity
  8
TEXT
100
AcDbLine
 10
2.279596215690298
 20
0.8103303843185745
 30
0.0
 11
2.356244196982856
 21
0.8103303843185745
 31
0.0
  0
LINE
  5
29F52DC
330
29F530A
100
AcDbEntity
  8
TEXT
100
AcDbLine
 10
2.356244196982856
 20
0.8103303843185745
 30
0.0
 11
2.356244196982861
 21
0.608134045986829
 31
0.0
  0
ARC
  5
29F52DD
330
29F530A
100
AcDbEntity
  8
TEXT
100
AcDbCircle
 10
2.279596215690296
 20
0.7854245090359118
 30
0.0
 40
0.0249058752826653
100
AcDbArc
 50
89.99971217465335
 51
179.9999999999985
  0
LINE
  5
29F52DE
330
29F530A
100
AcDbEntity
  8
TEXT
100
AcDbLine
 10
2.254690340407639
 20
0.608134045986829
 30
0.0
 11
2.254690340407634
 21
0.7854245514182975
 31
0.0
  0
LWPOLYLINE
  5
29F52DF
330
29F530A
100
AcDbEntity
  8
TEXT
100
AcDbPolyline
 90
        2
 70
     0
 43
0.0
 10
2.196335126572303
 20
0.608134045986829
 10
2.254690340407637
 20
0.608134045986829
  0
LWPOLYLINE
  5
29F52E3
330
29F530A
100
AcDbEntity
  8
TEXT
100
AcDbPolyline
 90
        2
 70
     0
 43
0.0
 10
2.196335126572303
 20
0.6516249909372672
 10
2.196335126572303
 20
0.608134045986829
  0
LINE
  5
29F52E7
330
29F530A
100
AcDbEntity
  8
TEXT
100
AcDbLine
 10
2.573104286889152
 20
0.608134045986829
 30
0.0
 11
2.477612063525542
 21
0.7647138360343665
 31
0.0
  0
LINE
  5
29F52E8
330
29F530A
100
AcDbEntity
  8
TEXT
100
AcDbLine
 10
2.496525914512946
 20
0.608134045986829
 30
0.0
 11
2.573104286889152
 21
0.608134045986829
 31
0.0
  0
LINE
  5
29F52E9
330
29F530A
100
AcDbEntity
  8
TEXT
100
AcDbLine
 10
2.420622381301482
 20
0.7397136144630093
 30
0.0
 11
2.496525914512946
 21
0.608134045986829
 31
0.0
  0
LINE
  5
29F52EA
330
29F530A
100
AcDbEntity
  8
TEXT
100
AcDbLine
 10
2.420622381301482
 20
0.608134045986829
 30
0.0
 11
2.420622381301482
 21
0.7397136144630093
 31
0.0
  0
LINE
  5
29F52EB
330
29F530A
100
AcDbEntity
  8
TEXT
100
AcDbLine
 10
2.420079188205634
 20
0.9400712847429407
 30
0.0
 11
2.351764309656361
 21
0.9400712847429407
 31
0.0
  0
ARC
  5
29F52EC
330
29F530A
100
AcDbEntity
  8
TEXT
100
AcDbCircle
 10
2.111408570615155
 20
0.8330235118544376
 30
0.0
 40
0.0416329381542859
100
AcDbArc
 50
26.56974201007528
 51
87.20939649401342
  0
LINE
  5
29F52ED
330
29F530A
100
AcDbEntity
  8
TEXT
100
AcDbLine
 10
2.256292355566766
 20
0.87460707897534
 30
0.0
 11
2.192395449267265
 21
0.87460707897534
 31
0.0
  0
LINE
  5
29F52EE
330
29F530A
100
AcDbEntity
  8
TEXT
100
AcDbLine
 10
2.256292355566766
 20
0.8470594291144653
 30
0.0
 11
2.256292355566766
 21
0.87460707897534
 31
0.0
  0
ARC
  5
29F52EF
330
29F530A
100
AcDbEntity
  8
TEXT
100
AcDbCircle
 10
2.287485172629874
 20
0.8433613516930751
 30
0.0
 40
0.0314112657011332
100
AcDbArc
 50
95.88484768694724
 51
173.2388340632136
  0
LINE
  5
29F52F0
330
29F530A
100
AcDbEntity
  8
TEXT
100
AcDbLine
 10
2.351764309656356
 20
0.87460707897534
 30
0.0
 11
2.284264592006839
 21
0.87460707897534
 31
0.0
  0
LINE
  5
29F52F1
330
29F530A
100
AcDbEntity
  8
TEXT
100
AcDbLine
 10
2.351764309656361
 20
0.9400712847429407
 30
0.0
 11
2.351764309656356
 21
0.87460707897534
 31
0.0
  0
LINE
  5
29F52F2
330
29F530A
100
AcDbEntity
  8
TEXT
100
AcDbLine
 10
2.542169179491247
 20
0.87460707897534
 30
0.0
 11
2.467177346761621
 21
0.87460707897534
 31
0.0
  0
ENDSEC
  0
SECTION
  2
OBJECTS
  0
DICTIONARY
  5
29F52FE
330
0
100
AcDbDictionary
  3
ACAD_GROUP
350
29F52FF
  3
ACAD_LAYOUT
350
29F5325
  3
ACAD_MLINESTYLE
350
29F5300
  3
ACAD_PLOTSETTINGS
350
29F5326
  3
ACAD_PLOTSTYLENAME
350
29F5323
  3
ACDBHEADERROUNDTRIPXREC
350
29F5330
  3
ACDBVARIABLEDICTIONARY
350
29F532D
  0
DICTIONARY
  5
29F5352
330
29F530A
100
AcDbDictionary
280
     1
  3
ACAD_LAYOUTSELFREF
360
29F5353
  0
DICTIONARY
  5
29F5350
330
29F5307
100
AcDbDictionary
280
     1
  3
ACAD_LAYOUTSELFREF
360
29F5351
  0
DICTIONARY
  5
29F52FF
102
{ACAD_REACTORS
330
29F52FE
102
}
330
29F52FE
100
AcDbDictionary
  0
DICTIONARY
  5
29F5325
102
{ACAD_REACTORS
330
29F52FE
102
}
330
29F52FE
100
AcDbDictionary
  0
DICTIONARY
  5
29F5300
102
{ACAD_REACTORS
330
29F52FE
102
}
330
29F52FE
100
AcDbDictionary
  3
STANDARD
350
29F530D
  0
DICTIONARY
  5
29F5326
102
{ACAD_REACTORS
330
29F52FE
102
}
330
29F52FE
100
AcDbDictionary
  0
ACDBDICTIONARYWDFLT
  5
29F5323
102
{ACAD_REACTORS
330
29F52FE
102
}
330
29F52FE
100
AcDbDictionary
281
     1
  3
Normal
350
29F5324
100
AcDbDictionaryWithDefault
340
29F5324
  0
DICTIONARY
  5
29F5330
102
{ACAD_REACTORS
330
29F52FE
102
}
330
29F52FE
100
AcDbDictionary
  3
CEPSNTYPE
350
29F533A
  3
FINGERPRINTGUID
350
29F533B
  3
HYPERLINKBASE
350
29F5333
  3
INSUNITS
350
29F5339
  3
LAYOUTDICT
350
29F5335
  3
LWETCUNION
350
29F5338
  3
PLOTSETDICT
350
29F5336
  3
PLOTSTYLNAMDICT
350
29F5337
  3
PSVPSCALE
350
29F533D
  3
PUCSBASE
350
29F5340
  3
PUCSORGBACK
350
29F5346
  3
PUCSORGBOTTOM
350
29F5342
  3
PUCSORGFRONT
350
29F5345
  3
PUCSORGLEFT
350
29F5343
  3
PUCSORGRIGHT
350
29F5344
  3
PUCSORGTOP
350
29F5341
  3
PUCSORTHOREF
350
29F533E
  3
PUCSORTHOVIEW
350
29F533F
  3
STYLESHEET
350
29F5334
  3
TSTACKALIGN
350
29F5331
  3
TSTACKSIZE
350
29F5332
  3
UCSBASE
350
29F5349
  3
UCSORGBACK
350
29F534F
  3
UCSORGBOTTOM
350
29F534B
  3
UCSORGFRONT
350
29F534E
  3
UCSORGLEFT
350
29F534C
  3
UCSORGRIGHT
350
29F534D
  3
UCSORGTOP
350
29F534A
  3
UCSORTHOREF
350
29F5347
  3
UCSORTHOVIEW
350
29F5348
  3
VERSIONGUID
350
29F533C
  0
DICTIONARY
  5
29F532D
102
{ACAD_REACTORS
330
29F52FE
102
}
330
29F52FE
100
AcDbDictionary
  3
DIMASSOC
350
29F532E
  0
XRECORD
  5
29F5353
102
{ACAD_REACTORS
330
29F5352
102
}
330
29F5352
100
AcDbXrecord
340
29F530A
  0
XRECORD
  5
29F5351
102
{ACAD_REACTORS
330
29F5350
102
}
330
29F5350
100
AcDbXrecord
340
29F5307
  0
MLINESTYLE
  5
29F530D
102
{ACAD_REACTORS
330
29F5300
102
}
330
29F5300
100
AcDbMlineStyle
  2
STANDARD
 70
     0
  3

 62
     0
 51
90.0
 52
90.0
 71
     2
 49
0.5
 62
   256
  6
BYLAYER
 49
-0.5
 62
   256
  6
BYLAYER
  0
ACDBPLACEHOLDER
  5
29F5324
102
{ACAD_REACTORS
330
29F5323
102
}
330
29F5323
100
AcDbPlaceHolder
280
     0
  0
XRECORD
  5
29F533A
102
{ACAD_REACTORS
330
29F5330
102
}
330
29F5330
100
AcDbXrecord
 90
        0
  0
XRECORD
  5
29F533B
102
{ACAD_REACTORS
330
29F5330
102
}
330
29F5330
100
AcDbXrecord
  1
{7A6741F0-8DB3-11D6-88E6-0090279574E7}
  0
XRECORD
  5
29F5333
102
{ACAD_REACTORS
330
29F5330
102
}
330
29F5330
100
AcDbXrecord
  1

  0
XRECORD
  5
29F5339
102
{ACAD_REACTORS
330
29F5330
102
}
330
29F5330
100
AcDbXrecord
 90
        0
  0
XRECORD
  5
29F5335
102
{ACAD_REACTORS
330
29F5330
102
}
330
29F5330
100
AcDbXrecord
340
29F5325
  0
XRECORD
  5
29F5338
102
{ACAD_REACTORS
330
29F5330
102
}
330
29F5330
100
AcDbXrecord
 90
    14877
  0
XRECORD
  5
29F5336
102
{ACAD_REACTORS
330
29F5330
102
}
330
29F5330
100
AcDbXrecord
340
29F5326
  0
XRECORD
  5
29F5337
102
{ACAD_REACTORS
330
29F5330
102
}
330
29F5330
100
AcDbXrecord
340
29F5323
  0
XRECORD
  5
29F533D
102
{ACAD_REACTORS
330
29F5330
102
}
330
29F5330
100
AcDbXrecord
 40
0.0
  0
XRECORD
  5
29F5340
102
{ACAD_REACTORS
330
29F5330
102
}
330
29F5330
100
AcDbXrecord
340
0
  0
XRECORD
  5
29F5346
102
{ACAD_REACTORS
330
29F5330
102
}
330
29F5330
100
AcDbXrecord
 10
0.0
 20
0.0
 30
0.0
  0
XRECORD
  5
29F5342
102
{ACAD_REACTORS
330
29F5330
102
}
330
29F5330
100
AcDbXrecord
 10
0.0
 20
0.0
 30
0.0
  0
XRECORD
  5
29F5345
102
{ACAD_REACTORS
330
29F5330
102
}
330
29F5330
100
AcDbXrecord
 10
0.0
 20
0.0
 30
0.0
  0
XRECORD
  5
29F5343
102
{ACAD_REACTORS
330
29F5330
102
}
330
29F5330
100
AcDbXrecord
 10
0.0
 20
0.0
 30
0.0
  0
XRECORD
  5
29F5344
102
{ACAD_REACTORS
330
29F5330
102
}
330
29F5330
100
AcDbXrecord
 10
0.0
 20
0.0
 30
0.0
  0
XRECORD
  5
29F5341
102
{ACAD_REACTORS
330
29F5330
102
}
330
29F5330
100
AcDbXrecord
 10
0.0
 20
0.0
 30
0.0
  0
XRECORD
  5
29F533E
102
{ACAD_REACTORS
330
29F5330
102
}
330
29F5330
100
AcDbXrecord
340
0
  0
XRECORD
  5
29F533F
102
{ACAD_REACTORS
330
29F5330
102
}
330
29F5330
100
AcDbXrecord
 70
     0
  0
XRECORD
  5
29F5334
102
{ACAD_REACTORS
330
29F5330
102
}
330
29F5330
100
AcDbXrecord
  1

  0
XRECORD
  5
29F5331
102
{ACAD_REACTORS
330
29F5330
102
}
330
29F5330
100
AcDbXrecord
 90
        1
  0
XRECORD
  5
29F5332
102
{ACAD_REACTORS
330
29F5330
102
}
330
29F5330
100
AcDbXrecord
 90
       70
  0
XRECORD
  5
29F5349
102
{ACAD_REACTORS
330
29F5330
102
}
330
29F5330
100
AcDbXrecord
340
0
  0
XRECORD
  5
29F534F
102
{ACAD_REACTORS
330
29F5330
102
}
330
29F5330
100
AcDbXrecord
 10
0.0
 20
0.0
 30
0.0
  0
XRECORD
  5
29F534B
102
{ACAD_REACTORS
330
29F5330
102
}
330
29F5330
100
AcDbXrecord
 10
0.0
 20
0.0
 30
0.0
  0
XRECORD
  5
29F534E
102
{ACAD_REACTORS
330
29F5330
102
}
330
29F5330
100
AcDbXrecord
 10
0.0
 20
0.0
 30
0.0
  0
XRECORD
  5
29F534C
102
{ACAD_REACTORS
330
29F5330
102
}
330
29F5330
100
AcDbXrecord
 10
0.0
 20
0.0
 30
0.0
  0
XRECORD
  5
29F534D
102
{ACAD_REACTORS
330
29F5330
102
}
330
29F5330
100
AcDbXrecord
 10
0.0
 20
0.0
 30
0.0
  0
XRECORD
  5
29F534A
102
{ACAD_REACTORS
330
29F5330
102
}
330
29F5330
100
AcDbXrecord
 10
0.0
 20
0.0
 30
0.0
  0
XRECORD
  5
29F5347
102
{ACAD_REACTORS
330
29F5330
102
}
330
29F5330
100
AcDbXrecord
340
0
  0
XRECORD
  5
29F5348
102
{ACAD_REACTORS
330
29F5330
102
}
330
29F5330
100
AcDbXrecord
 70
     0
  0
XRECORD
  5
29F533C
102
{ACAD_REACTORS
330
29F5330
102
}
330
29F5330
100
AcDbXrecord
  1
{7A6741F2-8DB3-11D6-88E6-0090279574E7}
  0
DICTIONARYVAR
  5
29F532E
102
{ACAD_REACTORS
330
29F532D
102
}
330
29F532D
100
DictionaryVariables
280
     0
  1
1
  0
ENDSEC
  0
EOF
