  0
SECTION
  2
HEADER
  9
$ACADVER
  1
AC1014
  9
$ACADMAINTVER
 70
     9
  9
$DWGCODEPAGE
  3
ANSI_1252
  9
$INSBASE
 10
0.9674348251769487
 20
0.8669207896431379
 30
0.0
  9
$EXTMIN
 10
-0.7755467540501945
 20
0.4089021855605564
 30
0.0
  9
$EXTMAX
 10
2.709672567696933
 20
1.567435819921335
 30
0.0
  9
$LIMMIN
 10
0.0
 20
0.0
  9
$LIMMAX
 10
18.0
 20
12.0
  9
$ORTHOMODE
 70
     1
  9
$REGENMODE
 70
     1
  9
$FILLMODE
 70
     1
  9
$QTEXTMODE
 70
     0
  9
$MIRRTEXT
 70
     0
  9
$DRAGMODE
 70
     2
  9
$LTSCALE
 40
1.0
  9
$OSMODE
 70
    39
  9
$ATTMODE
 70
     1
  9
$TEXTSIZE
 40
0.125
  9
$TRACEWID
 40
0.05
  9
$TEXTSTYLE
  7
ROMANS
  9
$CLAYER
  8
0
  9
$CELTYPE
  6
BYLAYER
  9
$CECOLOR
 62
   256
  9
$CELTSCALE
 40
1.0
  9
$DELOBJ
 70
     1
  9
$DISPSILH
 70
     1
  9
$DIMSCALE
 40
1.0
  9
$DIMASZ
 40
0.125
  9
$DIMEXO
 40
0.125
  9
$DIMDLI
 40
0.375
  9
$DIMRND
 40
0.0
  9
$DIMDLE
 40
0.0
  9
$DIMEXE
 40
0.125
  9
$DIMTP
 40
0.0
  9
$DIMTM
 40
0.0
  9
$DIMTXT
 40
0.125
  9
$DIMCEN
 40
-0.125
  9
$DIMTSZ
 40
0.0
  9
$DIMTOL
 70
     0
  9
$DIMLIM
 70
     0
  9
$DIMTIH
 70
     1
  9
$DIMTOH
 70
     1
  9
$DIMSE1
 70
     0
  9
$DIMSE2
 70
     0
  9
$DIMTAD
 70
     0
  9
$DIMZIN
 70
     4
  9
$DIMBLK
  1

  9
$DIMASO
 70
     1
  9
$DIMSHO
 70
     1
  9
$DIMPOST
  1

  9
$DIMAPOST
  1

  9
$DIMALT
 70
     0
  9
$DIMALTD
 70
     2
  9
$DIMALTF
 40
25.4
  9
$DIMLFAC
 40
1.0
  9
$DIMTOFL
 70
     0
  9
$DIMTVP
 40
0.0
  9
$DIMTIX
 70
     0
  9
$DIMSOXD
 70
     0
  9
$DIMSAH
 70
     0
  9
$DIMBLK1
  1

  9
$DIMBLK2
  1

  9
$DIMSTYLE
  2
STANDARD
  9
$DIMCLRD
 70
     0
  9
$DIMCLRE
 70
     0
  9
$DIMCLRT
 70
     0
  9
$DIMTFAC
 40
1.0
  9
$DIMGAP
 40
0.09
  9
$DIMJUST
 70
     0
  9
$DIMSD1
 70
     0
  9
$DIMSD2
 70
     0
  9
$DIMTOLJ
 70
     1
  9
$DIMTZIN
 70
     4
  9
$DIMALTZ
 70
     0
  9
$DIMALTTZ
 70
     0
  9
$DIMFIT
 70
     3
  9
$DIMUPT
 70
     0
  9
$DIMUNIT
 70
     2
  9
$DIMDEC
 70
     3
  9
$DIMTDEC
 70
     3
  9
$DIMALTU
 70
     2
  9
$DIMALTTD
 70
     2
  9
$DIMTXSTY
  7
ROMANS
  9
$DIMAUNIT
 70
     0
  9
$LUNITS
 70
     2
  9
$LUPREC
 70
     3
  9
$SKETCHINC
 40
0.1
  9
$FILLETRAD
 40
0.03125
  9
$AUNITS
 70
     0
  9
$AUPREC
 70
     0
  9
$MENU
  1
ACAD
  9
$ELEVATION
 40
0.0
  9
$PELEVATION
 40
0.0
  9
$THICKNESS
 40
0.0
  9
$LIMCHECK
 70
     0
  9
$BLIPMODE
 70
     0
  9
$CHAMFERA
 40
0.0
  9
$CHAMFERB
 40
0.0
  9
$CHAMFERC
 40
0.0
  9
$CHAMFERD
 40
0.0
  9
$SKPOLY
 70
     0
  9
$TDCREATE
 40
2448489.454262963
  9
$TDUPDATE
 40
2452458.292847569
  9
$TDINDWG
 40
0.0007778819
  9
$TDUSRTIMER
 40
0.0007778819
  9
$USRTIMER
 70
     1
  9
$ANGBASE
 50
0.0
  9
$ANGDIR
 70
     0
  9
$PDMODE
 70
     0
  9
$PDSIZE
 40
0.0
  9
$PLINEWID
 40
0.0
  9
$COORDS
 70
     2
  9
$SPLFRAME
 70
     0
  9
$SPLINETYPE
 70
     6
  9
$SPLINESEGS
 70
     8
  9
$ATTDIA
 70
     0
  9
$ATTREQ
 70
     1
  9
$HANDLING
 70
 22529
  9
$HANDSEED
  5
1B6
  9
$SURFTAB1
 70
     6
  9
$SURFTAB2
 70
     6
  9
$SURFTYPE
 70
     6
  9
$SURFU
 70
     6
  9
$SURFV
 70
     6
  9
$UCSNAME
  2

  9
$UCSORG
 10
0.0
 20
0.0
 30
0.0
  9
$UCSXDIR
 10
1.0
 20
0.0
 30
0.0
  9
$UCSYDIR
 10
0.0
 20
1.0
 30
0.0
  9
$PUCSNAME
  2

  9
$PUCSORG
 10
0.0
 20
0.0
 30
0.0
  9
$PUCSXDIR
 10
1.0
 20
0.0
 30
0.0
  9
$PUCSYDIR
 10
0.0
 20
1.0
 30
0.0
  9
$USERI1
 70
     0
  9
$USERI2
 70
     0
  9
$USERI3
 70
     0
  9
$USERI4
 70
     0
  9
$USERI5
 70
     0
  9
$USERR1
 40
0.0
  9
$USERR2
 40
0.0
  9
$USERR3
 40
0.0
  9
$USERR4
 40
0.0
  9
$USERR5
 40
0.0
  9
$WORLDVIEW
 70
     1
  9
$SHADEDGE
 70
     3
  9
$SHADEDIF
 70
    70
  9
$TILEMODE
 70
     1
  9
$MAXACTVP
 70
    16
  9
$PINSBASE
 10
0.0
 20
0.0
 30
0.0
  9
$PLIMCHECK
 70
     0
  9
$PEXTMIN
 10
1.000000000000000E+20
 20
1.000000000000000E+20
 30
1.000000000000000E+20
  9
$PEXTMAX
 10
-1.000000000000000E+20
 20
-1.000000000000000E+20
 30
-1.000000000000000E+20
  9
$PLIMMIN
 10
0.0
 20
0.0
  9
$PLIMMAX
 10
12.0
 20
9.0
  9
$UNITMODE
 70
     0
  9
$VISRETAIN
 70
     0
  9
$PLINEGEN
 70
     1
  9
$PSLTSCALE
 70
     0
  9
$TREEDEPTH
 70
  3020
  9
$PICKSTYLE
 70
     1
  9
$CMLSTYLE
  2
STANDARD
  9
$CMLJUST
 70
     0
  9
$CMLSCALE
 40
1.0
  9
$PROXYGRAPHICS
 70
     1
  9
$MEASUREMENT
 70
     0
  0
ENDSEC
  0
SECTION
  2
CLASSES
  0
CLASS
  1
LWPOLYLINE
  2
AcDbPolyline
  3
AutoCAD 2000
 90
        0
280
     0
281
     1
  0
CLASS
  1
ACDBDICTIONARYWDFLT
  2
AcDbDictionaryWithDefault
  3
AutoCAD 2000
 90
        0
280
     0
281
     0
  0
CLASS
  1
ACDBPLACEHOLDER
  2
AcDbPlaceHolder
  3
AutoCAD 2000
 90
        0
280
     0
281
     0
  0
CLASS
  1
LAYOUT
  2
AcDbLayout
  3
AutoCAD 2000
 90
        0
280
     0
281
     0
  0
CLASS
  1
DICTIONARYVAR
  2
AcDbDictionaryVar
  3
AutoCAD 2000
 90
        0
280
     0
281
     0
  0
CLASS
  1
LONG_TRANSACTION
  2
AcDbLongTransaction
  3
AutoCAD 2000
 90
        0
280
     0
281
     0
  0
CLASS
  1
LWPOLYLINE
  2
AcDbPolyline
  3
AutoCAD 2000
 90
        0
280
     0
281
     1
  0
CLASS
  1
HATCH
  2
AcDbHatch
  3
AutoCAD 2000
 90
        0
280
     0
281
     1
  0
CLASS
  1
XRECORD
  2
AcDbXrecord
  3
AutoCAD 2000
 90
        0
280
     0
281
     0
  0
ENDSEC
  0
SECTION
  2
TABLES
  0
TABLE
  2
VPORT
  5
8
330
0
100
AcDbSymbolTable
 70
     2
  0
VPORT
  5
191
330
8
100
AcDbSymbolTableRecord
100
AcDbViewportTableRecord
  2
*ACTIVE
 70
     0
 10
0.0
 20
0.0
 11
1.0
 21
1.0
 12
3.943370021055681
 22
0.9884033424179108
 13
0.0
 23
0.0
 14
0.015625
 24
0.015625
 15
0.0
 25
0.0
 16
0.0
 26
0.0
 36
1.0
 17
0.0
 27
0.0
 37
0.0
 40
2.282531378996274
 41
4.320930232558139
 42
50.0
 43
0.0
 44
0.0
 50
0.0
 51
0.0
 71
     0
 72
  2000
 73
     1
 74
     0
 75
     0
 76
     0
 77
     0
 78
     0
  0
ENDTAB
  0
TABLE
  2
LTYPE
  5
5
330
0
100
AcDbSymbolTable
 70
     1
  0
LTYPE
  5
12
330
5
100
AcDbSymbolTableRecord
100
AcDbLinetypeTableRecord
  2
BYBLOCK
 70
     0
  3

 72
    65
 73
     0
 40
0.0
  0
LTYPE
  5
13
330
5
100
AcDbSymbolTableRecord
100
AcDbLinetypeTableRecord
  2
BYLAYER
 70
     0
  3

 72
    65
 73
     0
 40
0.0
  0
LTYPE
  5
14
330
5
100
AcDbSymbolTableRecord
100
AcDbLinetypeTableRecord
  2
CONTINUOUS
 70
     0
  3
Solid line
 72
    65
 73
     0
 40
0.0
  0
ENDTAB
  0
TABLE
  2
LAYER
  5
2
330
0
100
AcDbSymbolTable
 70
     2
  0
LAYER
  5
F
330
2
100
AcDbSymbolTableRecord
100
AcDbLayerTableRecord
  2
0
 70
     0
 62
     7
  6
CONTINUOUS
  0
LAYER
  5
1F
330
2
100
AcDbSymbolTableRecord
100
AcDbLayerTableRecord
  2
TEXT
 70
     0
 62
     3
  6
CONTINUOUS
  0
ENDTAB
  0
TABLE
  2
STYLE
  5
3
330
0
100
AcDbSymbolTable
 70
     3
  0
STYLE
  5
10
330
3
100
AcDbSymbolTableRecord
100
AcDbTextStyleTableRecord
  2
STANDARD
 70
     0
 40
0.0
 41
1.0
 50
0.0
 71
     0
 42
0.125
  3
txt
  4

  0
STYLE
  5
1C
330
3
100
AcDbSymbolTableRecord
100
AcDbTextStyleTableRecord
  2
ITALICC
 70
     0
 40
0.0
 41
1.0
 50
0.0
 71
     0
 42
0.125
  3
italicc
  4

  0
STYLE
  5
181
330
3
100
AcDbSymbolTableRecord
100
AcDbTextStyleTableRecord
  2
ROMANS
 70
     0
 40
0.0
 41
1.0
 50
0.0
 71
     0
 42
0.125
  3
romans.shx
  4

  0
ENDTAB
  0
TABLE
  2
VIEW
  5
6
330
0
100
AcDbSymbolTable
 70
     0
  0
ENDTAB
  0
TABLE
  2
UCS
  5
7
330
0
100
AcDbSymbolTable
 70
     0
  0
ENDTAB
  0
TABLE
  2
APPID
  5
9
330
0
100
AcDbSymbolTable
 70
     1
  0
APPID
  5
11
330
9
100
AcDbSymbolTableRecord
100
AcDbRegAppTableRecord
  2
ACAD
 70
     0
  0
ENDTAB
  0
TABLE
  2
DIMSTYLE
  5
A
330
0
100
AcDbSymbolTable
 70
     1
  0
DIMSTYLE
105
179
330
A
100
AcDbSymbolTableRecord
100
AcDbDimStyleTableRecord
  2
STANDARD
 70
     0
  3

  4

  5

  6

  7

 40
1.0
 41
0.125
 42
0.125
 43
0.375
 44
0.125
 45
0.0
 46
0.0
 47
0.0
 48
0.0
140
0.125
141
-0.125
142
0.0
143
25.4
144
1.0
145
0.0
146
1.0
147
0.09
 71
     0
 72
     0
 73
     1
 74
     1
 75
     0
 76
     0
 77
     0
 78
     4
170
     0
171
     2
172
     0
173
     0
174
     0
175
     0
176
     0
177
     0
178
     0
270
     2
271
     3
272
     3
273
     2
274
     2
340
181
275
     0
280
     0
281
     0
282
     0
283
     1
284
     4
285
     0
286
     0
287
     3
288
     0
  0
ENDTAB
  0
TABLE
  2
BLOCK_RECORD
  5
1
330
0
100
AcDbSymbolTable
 70
     0
  0
BLOCK_RECORD
  5
18
102
{ACAD_XDICTIONARY
360
1B4
102
}
330
1
100
AcDbSymbolTableRecord
100
AcDbBlockTableRecord
  2
*MODEL_SPACE
  0
BLOCK_RECORD
  5
15
102
{ACAD_XDICTIONARY
360
1B2
102
}
330
1
100
AcDbSymbolTableRecord
100
AcDbBlockTableRecord
  2
*PAPER_SPACE
  0
ENDTAB
  0
ENDSEC
  0
SECTION
  2
BLOCKS
  0
BLOCK
  5
22
330
18
100
AcDbEntity
  8
0
100
AcDbBlockBegin
  2
*MODEL_SPACE
 70
     0
 10
0.0
 20
0.0
 30
0.0
  3
*MODEL_SPACE
  1

  0
ENDBLK
  5
23
330
18
100
AcDbEntity
  8
0
100
AcDbBlockEnd
  0
BLOCK
  5
20
330
15
100
AcDbEntity
 67
     1
  8
0
100
AcDbBlockBegin
  2
*PAPER_SPACE
 70
     0
 10
0.0
 20
0.0
 30
0.0
  3
*PAPER_SPACE
  1

  0
ENDBLK
  5
21
330
15
100
AcDbEntity
 67
     1
  8
0
100
AcDbBlockEnd
  0
ENDSEC
  0
SECTION
  2
ENTITIES
  0
LWPOLYLINE
  5
24
330
18
100
AcDbEntity
  8
0
100
AcDbPolyline
 90
       21
 70
     0
 43
0.0
 10
0.3954348231538654
 20
1.169095199487769
 10
0.3954348231538653
 20
1.290605190117994
 42
-0.3500011104185281
 10
0.5412681564871982
 20
1.473416948188663
 42
-0.1125178063039392
 10
0.8746014898205324
 20
1.473416948188663
 42
-0.350001110418529
 10
1.020434823153865
 20
1.290605190117994
 10
1.020434823153865
 20
1.197095199487769
 42
0.4142135623730951
 10
1.082934823153865
 20
1.134595199487769
 10
1.546434827200032
 20
1.134595199487769
 42
0.9999999999999962
 10
1.546434827200032
 20
1.19459519948777
 10
1.241434827200032
 20
1.19459519948777
 10
1.241434827200032
 20
1.295520426606651
 10
1.20709731332142
 20
1.315345199487769
 42
-3.732050807568874
 10
1.20709731332142
 20
1.37384519948777
 10
1.241434827200032
 20
1.393669972368889
 10
1.241434827200032
 20
1.49459519948777
 10
1.546434827200031
 20
1.494595199487769
 42
1.0
 10
1.546434827200031
 20
1.554595199487769
 10
0.3884348231538657
 20
1.554595199487769
 42
0.4142135623730951
 10
0.3264348231538663
 20
1.49259519948777
 10
0.3264348231538663
 20
1.169095199487769
 42
1.00000000910285
 10
0.3954348231538654
 20
1.169095200115866
  0
TEXT
  5
3B
330
18
100
AcDbEntity
  8
TEXT
100
AcDbText
 10
0.2144586347007587
 20
0.8669207896431379
 30
0.0
 40
0.125
  1
PART #110028
  7
ITALICC
 72
     1
 11
0.9674348251769487
 21
0.8669207896431379
 31
0.0
100
AcDbText
  0
TEXT
  5
3C
330
18
100
AcDbEntity
  8
TEXT
100
AcDbText
 10
1.380739983427269
 20
0.4199981469707628
 30
0.0
 40
0.0522247191011236
  1
Phone  1-800-328-2495
 41
1.272321428571429
 72
     5
 11
2.709672567696933
 21
0.4199981469707628
 31
0.0
100
AcDbText
  0
TEXT
  5
3D
330
18
100
AcDbEntity
  8
TEXT
100
AcDbText
 10
1.380739983427269
 20
0.6997734278696393
 30
0.0
 40
0.0522247191011236
  1
Stylmark  Incorporated
 41
1.221428571428573
 72
     5
 11
2.709672567696933
 21
0.6997734278696393
 31
0.0
100
AcDbText
  0
TEXT
  5
3E
330
18
100
AcDbEntity
  8
TEXT
100
AcDbText
 10
1.380739983427269
 20
0.6065150009033471
 30
0.0
 40
0.0522247191011236
  1
6536 Main St. N.E. * P.O. Box 32008
 41
0.8388932496075366
 72
     5
 11
2.709672567696933
 21
0.6065150009033471
 31
0.0
100
AcDbText
  0
TEXT
  5
3F
330
18
100
AcDbEntity
  8
TEXT
100
AcDbText
 10
1.380739983427269
 20
0.513256573937055
 30
0.0
 40
0.0522247191011236
  1
Minneapolis, MN 55432-0008
 41
1.11444212721585
 72
     5
 11
2.709672567696933
 21
0.513256573937055
 31
0.0
100
AcDbText
  0
LWPOLYLINE
  5
40
330
18
100
AcDbEntity
  8
TEXT
100
AcDbPolyline
 90
        3
 70
     0
 43
0.0006660908203125
 10
-0.7752137086400383
 20
0.5336429096081976
 10
-0.7752137086400383
 20
0.42040747015507
 10
-0.661978269186916
 20
0.42040747015507
  0
LWPOLYLINE
  5
45
330
18
100
AcDbEntity
  8
TEXT
100
AcDbPolyline
 90
        3
 70
     0
 43
0.0006660908203125
 10
-0.7485700758275408
 20
0.5336429096081976
 10
-0.7485700758275408
 20
0.447051102967571
 10
-0.661978269186916
 20
0.447051102967571
  0
LWPOLYLINE
  5
4A
330
18
100
AcDbEntity
  8
TEXT
100
AcDbPolyline
 90
        2
 70
     0
 43
0.0001332181640625
 10
-0.701943718405664
 20
0.5436342719128829
 10
-0.7752137086400383
 20
0.5336429096081976
  0
LWPOLYLINE
  5
4E
330
18
100
AcDbEntity
  8
TEXT
100
AcDbPolyline
 90
        2
 70
     0
 43
0.0001332181640625
 10
-0.7485700758275408
 20
0.5336429096081976
 10
-0.6886219019994134
 20
0.5436342719128829
  0
LWPOLYLINE
  5
52
330
18
100
AcDbEntity
  8
TEXT
100
AcDbPolyline
 90
        2
 70
     0
 43
0.0001332181640625
 10
-0.7485700758275408
 20
0.447051102967571
 10
-0.6886219019994134
 20
0.5069992767956966
  0
LWPOLYLINE
  5
56
330
18
100
AcDbEntity
  8
TEXT
100
AcDbPolyline
 90
        3
 70
     0
 43
0.0006660908203125
 10
-0.661978269186916
 20
0.6868437982800733
 10
-0.7752137086400383
 20
0.6868437982800733
 10
-0.7752137086400383
 20
0.5736083588269456
  0
LWPOLYLINE
  5
5B
330
18
100
AcDbEntity
  8
TEXT
100
AcDbPolyline
 90
        3
 70
     0
 43
0.0006660908203125
 10
-0.661978269186916
 20
0.6602001654675722
 10
-0.7485700758275408
 20
0.6602001654675722
 10
-0.7485700758275408
 20
0.5736083588269456
  0
LWPOLYLINE
  5
60
330
18
100
AcDbEntity
  8
TEXT
100
AcDbPolyline
 90
        2
 70
     0
 43
0.0001332181640625
 10
-0.7485700758275408
 20
0.6602001654675722
 10
-0.6886219019994152
 20
0.6002519916394467
  0
LWPOLYLINE
  5
64
330
18
100
AcDbEntity
  8
TEXT
100
AcDbPolyline
 90
        2
 70
     0
 43
0.0001332181640625
 10
-0.7485700758275408
 20
0.5736083588269456
 10
-0.6886219019994152
 20
0.5636169965222569
  0
LWPOLYLINE
  5
68
330
18
100
AcDbEntity
  8
TEXT
100
AcDbPolyline
 90
        2
 70
     0
 43
0.0001332181640625
 10
-0.7752137086400383
 20
0.5736083588269456
 10
-0.701943718405664
 20
0.5636169965222569
  0
LWPOLYLINE
  5
6C
330
18
100
AcDbEntity
  8
TEXT
100
AcDbPolyline
 90
        2
 70
     0
 43
0.0006660908203125
 10
-0.7485700758275408
 20
0.5336429096081976
 10
-0.7752137086400383
 20
0.5336429096081976
  0
LWPOLYLINE
  5
70
330
18
100
AcDbEntity
  8
TEXT
100
AcDbPolyline
 90
        2
 70
     0
 43
0.0006660908203125
 10
-0.7485700758275408
 20
0.5736083588269456
 10
-0.7752137086400383
 20
0.5736083588269456
  0
LINE
  5
74
330
18
100
AcDbEntity
  8
TEXT
100
AcDbLine
 10
0.7399767204864593
 20
0.6225671036233043
 30
0.0
 11
0.6327704470991699
 21
0.6225671036233043
 31
0.0
  0
LINE
  5
75
330
18
100
AcDbEntity
  8
TEXT
100
AcDbLine
 10
0.7690076188309378
 20
0.6868437982800697
 30
0.0
 11
0.6341757096138787
 21
0.6868437982800697
 31
0.0
  0
ARC
  5
76
330
18
100
AcDbEntity
  8
TEXT
100
AcDbCircle
 10
0.6934898060071956
 20
0.5176065490170534
 30
0.0
 40
0.0676855811441166
100
AcDbArc
 50
90.0
 51
153.7768192527749
  0
LWPOLYLINE
  5
77
330
18
100
AcDbEntity
  8
TEXT
100
AcDbPolyline
 90
        2
 70
     0
 43
0.0
 10
0.6317379516443599
 20
0.4638617102419969
 42
0.2901071551932823
 10
0.6748138845119955
 20
0.4203707652915587
 42
5.328517124445801
  0
ARC
  5
7B
330
18
100
AcDbEntity
  8
TEXT
100
AcDbCircle
 10
-0.0116415716642903
 20
0.4801631566296086
 30
0.0
 40
0.0601160179737537
100
AcDbArc
 50
180.0000000000003
 51
264.0521544866073
  0
LINE
  5
7C
330
18
100
AcDbEntity
  8
TEXT
100
AcDbLine
 10
-0.0081262160387424
 20
0.7212317158742079
 30
0.0
 11
-0.0681688208827495
 21
0.7212317158742079
 31
0.0
  0
ARC
  5
7D
330
18
100
AcDbEntity
  8
TEXT
100
AcDbCircle
 10
-0.2439005737812608
 20
0.604756338833568
 30
0.0
 40
0.0820874594465043
100
AcDbArc
 50
90.0
 51
270.0
  0
LWPOLYLINE
  5
7E
330
18
100
AcDbEntity
  8
TEXT
100
AcDbPolyline
 90
        2
 70
     0
 43
0.0001332181640625
 10
-0.6519869068822254
 20
0.6135738080456937
 10
-0.661978269186916
 20
0.6868437982800733
  0
LWPOLYLINE
  5
82
330
18
100
AcDbEntity
  8
TEXT
100
AcDbPolyline
 90
        2
 70
     0
 43
0.0001332181640625
 10
-0.661978269186916
 20
0.6602001654675722
 10
-0.6519869068822254
 20
0.6002519916394467
  0
LWPOLYLINE
  5
86
330
18
100
AcDbEntity
  8
TEXT
100
AcDbPolyline
 90
        3
 70
     0
 43
0.0006660908203125
 10
-0.5087773805150385
 20
0.5736083588269456
 10
-0.5087773805150385
 20
0.6868437982800733
 10
-0.6220128199681644
 20
0.6868437982800733
  0
LWPOLYLINE
  5
8B
330
18
100
AcDbEntity
  8
TEXT
100
AcDbPolyline
 90
        3
 70
     0
 43
0.0006660908203125
 10
-0.5354210133275396
 20
0.5736083588269456
 10
-0.5354210133275396
 20
0.6602001654675722
 10
-0.6220128199681644
 20
0.6602001654675722
  0
LWPOLYLINE
  5
90
330
18
100
AcDbEntity
  8
TEXT
100
AcDbPolyline
 90
        2
 70
     0
 43
0.0001332181640625
 10
-0.5354210133275396
 20
0.6602001654675722
 10
-0.5953691871556634
 20
0.6002519916394467
  0
LWPOLYLINE
  5
94
330
18
100
AcDbEntity
  8
TEXT
100
AcDbPolyline
 90
        2
 70
     0
 43
0.0001332181640625
 10
-0.6220128199681644
 20
0.6602001654675722
 10
-0.6320041822728532
 20
0.6002519916394467
  0
LWPOLYLINE
  5
98
330
18
100
AcDbEntity
  8
TEXT
100
AcDbPolyline
 90
        2
 70
     0
 43
0.0001332181640625
 10
-0.6220128199681644
 20
0.6868437982800733
 10
-0.6320041822728532
 20
0.6135738080456937
  0
LWPOLYLINE
  5
9C
330
18
100
AcDbEntity
  8
TEXT
100
AcDbPolyline
 90
        2
 70
     0
 43
0.0001332181640625
 10
-0.5820473707494146
 20
0.5636169965222569
 10
-0.5087773805150385
 20
0.5736083588269456
  0
LWPOLYLINE
  5
A0
330
18
100
AcDbEntity
  8
TEXT
100
AcDbPolyline
 90
        2
 70
     0
 43
0.0001332181640625
 10
-0.5354210133275396
 20
0.5736083588269456
 10
-0.5953691871556634
 20
0.5636169965222569
  0
LWPOLYLINE
  5
A4
330
18
100
AcDbEntity
  8
TEXT
100
AcDbPolyline
 90
        2
 70
     0
 43
0.0001332181640625
 10
-0.5087773805150385
 20
0.5336429096081976
 10
-0.5820473707494146
 20
0.5436342719128829
  0
LWPOLYLINE
  5
A8
330
18
100
AcDbEntity
  8
TEXT
100
AcDbPolyline
 90
        2
 70
     0
 43
0.0001332181640625
 10
-0.5354210133275396
 20
0.5336429096081976
 10
-0.5953691871556634
 20
0.5436342719128829
  0
LWPOLYLINE
  5
AC
330
18
100
AcDbEntity
  8
TEXT
100
AcDbPolyline
 90
        2
 70
     0
 43
0.0001332181640625
 10
-0.5354210133275396
 20
0.447051102967571
 10
-0.5953691871556634
 20
0.5069992767956966
  0
LWPOLYLINE
  5
B0
330
18
100
AcDbEntity
  8
TEXT
100
AcDbPolyline
 90
        3
 70
     0
 43
0.0006660908203125
 10
-0.6220128199681644
 20
0.447051102967571
 10
-0.5354210133275396
 20
0.447051102967571
 10
-0.5354210133275396
 20
0.5336429096081976
  0
LWPOLYLINE
  5
B5
330
18
100
AcDbEntity
  8
TEXT
100
AcDbPolyline
 90
        3
 70
     0
 43
0.0006660908203125
 10
-0.6220128199681644
 20
0.42040747015507
 10
-0.5087773805150385
 20
0.42040747015507
 10
-0.5087773805150385
 20
0.5336429096081976
  0
LWPOLYLINE
  5
BA
330
18
100
AcDbEntity
  8
TEXT
100
AcDbPolyline
 90
        5
 70
     0
 43
0.0001332181640625
 10
-0.6519869068822254
 20
0.4936774603894461
 10
-0.6519869068822254
 20
0.5069992767956966
 10
-0.6886219019994134
 20
0.5069992767956966
 10
-0.6886219019994134
 20
0.5436342719128829
 10
-0.701943718405664
 20
0.5436342719128829
  0
LWPOLYLINE
  5
C1
330
18
100
AcDbEntity
  8
TEXT
100
AcDbPolyline
 90
        2
 70
     0
 43
0.0006660908203125
 10
-0.661978269186916
 20
0.447051102967571
 10
-0.661978269186916
 20
0.42040747015507
  0
LWPOLYLINE
  5
C5
330
18
100
AcDbEntity
  8
TEXT
100
AcDbPolyline
 90
        2
 70
     0
 43
0.0001332181640625
 10
-0.661978269186916
 20
0.447051102967571
 10
-0.6519869068822254
 20
0.5069992767956966
  0
LWPOLYLINE
  5
C9
330
18
100
AcDbEntity
  8
TEXT
100
AcDbPolyline
 90
        2
 70
     0
 43
0.0001332181640625
 10
-0.661978269186916
 20
0.42040747015507
 10
-0.6519869068822254
 20
0.4936774603894461
  0
LWPOLYLINE
  5
CD
330
18
100
AcDbEntity
  8
TEXT
100
AcDbPolyline
 90
        5
 70
     0
 43
0.0001332181640625
 10
-0.701943718405664
 20
0.5636169965222569
 10
-0.6886219019994152
 20
0.5636169965222569
 10
-0.6886219019994152
 20
0.6002519916394467
 10
-0.6519869068822254
 20
0.6002519916394467
 10
-0.6519869068822254
 20
0.6135738080456937
  0
LWPOLYLINE
  5
D4
330
18
100
AcDbEntity
  8
TEXT
100
AcDbPolyline
 90
        5
 70
     0
 43
0.0001332181640625
 10
-0.6320041822728532
 20
0.6135738080456937
 10
-0.6320041822728532
 20
0.6002519916394467
 10
-0.5953691871556634
 20
0.6002519916394467
 10
-0.5953691871556634
 20
0.5636169965222569
 10
-0.5820473707494146
 20
0.5636169965222569
  0
LWPOLYLINE
  5
DB
330
18
100
AcDbEntity
  8
TEXT
100
AcDbPolyline
 90
        2
 70
     0
 43
0.0001332181640625
 10
-0.6220128199681644
 20
0.447051102967571
 10
-0.6320041822728532
 20
0.5069992767956966
  0
LWPOLYLINE
  5
DF
330
18
100
AcDbEntity
  8
TEXT
100
AcDbPolyline
 90
        2
 70
     0
 43
0.0001332181640625
 10
-0.6320041822728532
 20
0.4936774603894461
 10
-0.6220128199681644
 20
0.42040747015507
  0
LWPOLYLINE
  5
E3
330
18
100
AcDbEntity
  8
TEXT
100
AcDbPolyline
 90
        2
 70
     0
 43
0.0006660908203125
 10
-0.6220128199681644
 20
0.447051102967571
 10
-0.6220128199681644
 20
0.42040747015507
  0
LWPOLYLINE
  5
E7
330
18
100
AcDbEntity
  8
TEXT
100
AcDbPolyline
 90
        5
 70
     0
 43
0.0001332181640625
 10
-0.5820473707494146
 20
0.5436342719128829
 10
-0.5953691871556634
 20
0.5436342719128829
 10
-0.5953691871556634
 20
0.5069992767956966
 10
-0.6320041822728532
 20
0.5069992767956966
 10
-0.6320041822728532
 20
0.4936774603894461
  0
LWPOLYLINE
  5
EE
330
18
100
AcDbEntity
  8
TEXT
100
AcDbPolyline
 90
        2
 70
     0
 43
0.0006660908203125
 10
-0.5354210133275396
 20
0.5736083588269456
 10
-0.5087773805150385
 20
0.5736083588269456
  0
LWPOLYLINE
  5
F2
330
18
100
AcDbEntity
  8
TEXT
100
AcDbPolyline
 90
        2
 70
     0
 43
0.0006660908203125
 10
-0.5354210133275396
 20
0.5336429096081976
 10
-0.5087773805150385
 20
0.5336429096081976
  0
LINE
  5
F6
330
18
100
AcDbEntity
  8
TEXT
100
AcDbLine
 10
-0.2386632436670136
 20
0.6225671036233043
 30
0.0
 11
-0.0717575896380424
 21
0.6225671036233043
 31
0.0
  0
LINE
  5
F7
330
18
100
AcDbEntity
  8
TEXT
100
AcDbLine
 10
-0.1730631074227126
 20
0.5867623820126764
 30
0.0
 11
-0.2386632436670136
 21
0.5867623820126764
 31
0.0
  0
LINE
  5
F8
330
18
100
AcDbEntity
  8
TEXT
100
AcDbLine
 10
-0.3259880332277652
 20
0.4203707652915587
 30
0.0
 11
-0.1730631074227126
 21
0.4203707652915587
 31
0.0
  0
LINE
  5
F9
330
18
100
AcDbEntity
  8
TEXT
100
AcDbLine
 10
-0.1681227335164329
 20
0.4887277716249981
 30
0.0
 11
-0.325988033227767
 21
0.4887277716249981
 31
0.0
  0
LINE
  5
FA
330
18
100
AcDbEntity
  8
TEXT
100
AcDbLine
 10
-0.2439005737812617
 20
0.5226688793870627
 30
0.0
 11
-0.1681227335164329
 21
0.5226688793870627
 31
0.0
  0
ARC
  5
FB
330
18
100
AcDbEntity
  8
TEXT
100
AcDbCircle
 10
-0.2386632436670127
 20
0.6046647428179921
 30
0.0
 40
0.017902360805315
100
AcDbArc
 50
90.0
 51
270.0
  0
LINE
  5
FC
330
18
100
AcDbEntity
  8
TEXT
100
AcDbLine
 10
-0.325988033227767
 20
0.4887277716249981
 30
0.0
 11
-0.3259880332277652
 21
0.4203707652915587
 31
0.0
  0
LINE
  5
FD
330
18
100
AcDbEntity
  8
TEXT
100
AcDbLine
 10
-0.0717575896380424
 20
0.6225671036233043
 30
0.0
 11
-0.0717575896380424
 21
0.4801631566296086
 31
0.0
  0
ARC
  5
FE
330
18
100
AcDbEntity
  8
TEXT
100
AcDbCircle
 10
-0.1730631074227117
 20
0.5035665736521158
 30
0.0
 40
0.0831958083605586
100
AcDbArc
 50
270.0
 51
90.0
  0
ARC
  5
FF
330
18
100
AcDbEntity
  8
TEXT
100
AcDbCircle
 10
-0.168122733516432
 20
0.5056983255060321
 30
0.0
 40
0.0169705538810321
100
AcDbArc
 50
270.0
 51
90.0
  0
LWPOLYLINE
  5
100
330
18
100
AcDbEntity
  8
TEXT
100
AcDbPolyline
 90
        2
 70
     0
 43
0.0006660908203125
 10
-0.661978269186916
 20
0.6602001654675722
 10
-0.661978269186916
 20
0.6868437982800733
  0
LWPOLYLINE
  5
104
330
18
100
AcDbEntity
  8
TEXT
100
AcDbPolyline
 90
        2
 70
     0
 43
0.0006660908203125
 10
-0.6220128199681644
 20
0.6602001654675722
 10
-0.6220128199681644
 20
0.6868437982800733
  0
LINE
  5
108
330
18
100
AcDbEntity
  8
TEXT
100
AcDbLine
 10
-0.0681688208827495
 20
0.6868437982800697
 30
0.0
 11
-0.2439005737812617
 21
0.6868437982800697
 31
0.0
  0
LINE
  5
109
330
18
100
AcDbEntity
  8
TEXT
100
AcDbLine
 10
-0.0681688208827495
 20
0.7212317158742079
 30
0.0
 11
-0.0681688208827495
 21
0.6868437982800697
 31
0.0
  0
LINE
  5
10A
330
18
100
AcDbEntity
  8
TEXT
100
AcDbLine
 10
0.1223030711371028
 20
0.5859718021669491
 30
0.0
 11
0.0636727501051649
 21
0.6868437982800697
 31
0.0
  0
LINE
  5
10B
330
18
100
AcDbEntity
  8
TEXT
100
AcDbLine
 10
0.1810516339429683
 20
0.6868437982800697
 30
0.0
 11
0.1223030711371028
 21
0.5859718021669491
 31
0.0
  0
LINE
  5
10C
330
18
100
AcDbEntity
  8
TEXT
100
AcDbLine
 10
0.2779822593027096
 20
0.502758603394558
 30
0.0
 11
0.2779822593027096
 21
0.7548552760188803
 31
0.0
  0
LINE
  5
10D
330
18
100
AcDbEntity
  8
TEXT
100
AcDbLine
 10
0.3102941134403697
 20
0.6868437982800697
 30
0.0
 11
0.3102941134403697
 21
0.4859795915476615
 31
0.0
  0
LINE
  5
10E
330
18
100
AcDbEntity
  8
TEXT
100
AcDbLine
 10
0.3102941134403697
 20
0.4859795915476615
 30
0.0
 11
0.2933004765557684
 21
0.4859795915476615
 31
0.0
  0
LINE
  5
10F
330
18
100
AcDbEntity
  8
TEXT
100
AcDbLine
 10
0.2791218327989044
 20
0.4203707652915587
 30
0.0
 11
0.377125166498339
 21
0.4203707652915587
 31
0.0
  0
LINE
  5
110
330
18
100
AcDbEntity
  8
TEXT
100
AcDbLine
 10
0.1127028341401485
 20
0.4403292713965717
 30
0.0
 11
0.2100025402335931
 21
0.6046794823318398
 31
0.0
  0
ARC
  5
111
330
18
100
AcDbEntity
  8
TEXT
100
AcDbCircle
 10
0.0786592742279345
 20
0.4599184875652545
 30
0.0
 40
0.0392772371940762
100
AcDbArc
 50
270.1604552698595
 51
330.0831797321295
  0
LINE
  5
112
330
18
100
AcDbEntity
  8
TEXT
100
AcDbLine
 10
-0.0178709821579367
 20
0.4203707652915587
 30
0.0
 11
0.0787692689170577
 21
0.420641404389841
 31
0.0
  0
LWPOLYLINE
  5
113
330
18
100
AcDbEntity
  8
TEXT
100
AcDbPolyline
 90
        6
 70
     1
 43
0.0
 10
0.0246528214172129
 20
0.6225671036233043
 10
-0.0056637728029952
 20
0.6225671036233043
 10
-0.0056637728029952
 20
0.49945610556841
 42
0.407328721240804
 10
0.0058798783584811
 20
0.4876371908920239
 10
0.066501577403212
 20
0.4876371908920239
 10
0.0839669178105299
 20
0.520449419935503
  0
LINE
  5
11B
330
18
100
AcDbEntity
  8
TEXT
100
AcDbLine
 10
0.2100025402335931
 20
0.6046794823318398
 30
0.0
 11
0.2100025402335931
 21
0.4719221075064835
 31
0.0
  0
ARC
  5
11C
330
18
100
AcDbEntity
  8
TEXT
100
AcDbCircle
 10
0.2933004765557667
 20
0.5013613977910869
 30
0.0
 40
0.0153818062434269
100
AcDbArc
 50
174.7883570302258
 51
270.0
  0
LWPOLYLINE
  5
11D
330
18
100
AcDbEntity
  8
TEXT
100
AcDbPolyline
 90
        2
 70
     0
 43
0.0
 10
0.2100025402335913
 20
0.471922107506487
 42
0.3318488747599744
 10
0.2791218327989044
 20
0.4203707652915587
 42
-6.868794160588311
  0
LINE
  5
121
330
18
100
AcDbEntity
  8
TEXT
100
AcDbLine
 10
0.4345142354876001
 20
0.4203707652915587
 30
0.0
 11
0.5015722822694401
 21
0.4203707652915587
 31
0.0
  0
LINE
  5
122
330
18
100
AcDbEntity
  8
TEXT
100
AcDbLine
 10
0.4345142354876001
 20
0.6150133144571944
 30
0.0
 11
0.4345142354876001
 21
0.4203707652915587
 31
0.0
  0
LINE
  5
123
330
18
100
AcDbEntity
  8
TEXT
100
AcDbLine
 10
0.377125166498339
 20
0.6225671036233043
 30
0.0
 11
0.4269604463214866
 21
0.6225671036233043
 31
0.0
  0
LINE
  5
124
330
18
100
AcDbEntity
  8
TEXT
100
AcDbLine
 10
0.377125166498339
 20
0.4203707652915587
 30
0.0
 11
0.377125166498339
 21
0.6225671036233043
 31
0.0
  0
LWPOLYLINE
  5
125
330
18
100
AcDbEntity
  8
TEXT
100
AcDbPolyline
 90
        2
 70
     0
 43
0.0
 10
0.4269604463214848
 20
0.6225671036233043
 42
-0.4142135623731017
 10
0.4345142354875983
 20
0.6150133144571944
 42
-0.9999999999999998
  0
LINE
  5
129
330
18
100
AcDbEntity
  8
TEXT
100
AcDbLine
 10
0.6327704470991699
 20
0.6225671036233043
 30
0.0
 11
0.6327704470991699
 21
0.5475146975490977
 31
0.0
  0
LINE
  5
12A
330
18
100
AcDbEntity
  8
TEXT
100
AcDbLine
 10
0.5015722822694401
 20
0.6225671036233043
 30
0.0
 11
0.5557058791903903
 21
0.6225671036233043
 31
0.0
  0
LINE
  5
12B
330
18
100
AcDbEntity
  8
TEXT
100
AcDbLine
 10
0.5015722822694401
 20
0.4203707652915587
 30
0.0
 11
0.5015722822694401
 21
0.6225671036233043
 31
0.0
  0
LWPOLYLINE
  5
12C
330
18
100
AcDbEntity
  8
TEXT
100
AcDbPolyline
 90
        2
 70
     0
 43
0.0
 10
0.5557058791903886
 20
0.6225671036233043
 42
-0.4142135623731017
 10
0.563259668356502
 20
0.6150133144571944
 42
-0.9999999999999998
  0
LWPOLYLINE
  5
130
330
18
100
AcDbEntity
  8
TEXT
100
AcDbPolyline
 90
        4
 70
     0
 43
0.0
 10
0.563259668356502
 20
0.6150133144571944
 10
0.563259668356502
 20
0.4203707652915587
 10
0.6317379516443599
 20
0.4203707652915587
 10
0.6317379516443599
 20
0.4638617102419969
 42
-1.714843617202739
  0
LINE
  5
136
330
18
100
AcDbEntity
  8
TEXT
100
AcDbLine
 10
-0.0081262160387424
 20
0.6868437982800697
 30
0.0
 11
-0.0081262160387424
 21
0.7212317158742079
 31
0.0
  0
LINE
  5
137
330
18
100
AcDbEntity
  8
TEXT
100
AcDbLine
 10
0.0636727501051649
 20
0.6868437982800697
 30
0.0
 11
-0.0081262160387424
 21
0.6868437982800697
 31
0.0
  0
LINE
  5
138
330
18
100
AcDbEntity
  8
TEXT
100
AcDbLine
 10
0.2111735467363446
 20
0.6868437982800697
 30
0.0
 11
0.1810516339429683
 21
0.6868437982800697
 31
0.0
  0
LINE
  5
139
330
18
100
AcDbEntity
  8
TEXT
100
AcDbLine
 10
0.2111735467363446
 20
0.7548552760188803
 30
0.0
 11
0.2111735467363446
 21
0.6868437982800697
 31
0.0
  0
LINE
  5
13A
330
18
100
AcDbEntity
  8
TEXT
100
AcDbLine
 10
0.2779822593027096
 20
0.7548552760188803
 30
0.0
 11
0.2111735467363446
 21
0.7548552760188803
 31
0.0
  0
LWPOLYLINE
  5
13B
330
18
100
AcDbEntity
  8
TEXT
100
AcDbPolyline
 90
        3
 70
     0
 43
0.0
 10
0.5983940189007119
 20
0.6868437982800733
 10
0.4800938600846675
 20
0.6868437982800733
 10
0.4800938600846675
 20
0.6596763015191774
 42
-1.960274751411753
  0
LINE
  5
140
330
18
100
AcDbEntity
  8
TEXT
100
AcDbLine
 10
0.4443121693715061
 20
0.6868437982800697
 30
0.0
 11
0.3102941134403697
 21
0.6868437982800697
 31
0.0
  0
LWPOLYLINE
  5
141
330
18
100
AcDbEntity
  8
TEXT
100
AcDbPolyline
 90
        2
 70
     0
 43
0.0
 10
0.4443121693715061
 20
0.6868437982800733
 42
-0.3328679258950098
 10
0.4800938600846675
 20
0.6596763015191774
 42
6.772930709997214
  0
LINE
  5
145
330
18
100
AcDbEntity
  8
TEXT
100
AcDbLine
 10
0.6341757096138787
 20
0.6868437982800697
 30
0.0
 11
0.6341757096138787
 21
0.6585212525104259
 31
0.0
  0
LWPOLYLINE
  5
146
330
18
100
AcDbEntity
  8
TEXT
100
AcDbPolyline
 90
        2
 70
     0
 43
0.0
 10
0.5983940189007119
 20
0.6868437982800733
 42
-0.3277054968067132
 10
0.6341757096138769
 20
0.6585212525104294
 42
6.667889725900311
  0
LINE
  5
14A
330
18
100
AcDbEntity
  8
TEXT
100
AcDbLine
 10
0.8479675577059786
 20
0.5816318197266424
 30
0.0
 11
0.804216786524077
 21
0.6638820957227876
 31
0.0
  0
LINE
  5
14B
330
18
100
AcDbEntity
  8
TEXT
100
AcDbLine
 10
0.8479675577059786
 20
0.6868437982800697
 30
0.0
 11
0.8479675577059786
 21
0.5816318197266424
 31
0.0
  0
LINE
  5
14C
330
18
100
AcDbEntity
  8
TEXT
100
AcDbLine
 10
1.075651296644347
 20
0.6109784718685316
 30
0.0
 11
1.075651296644347
 21
0.7523080040476704
 31
0.0
  0
LINE
  5
14D
330
18
100
AcDbEntity
  8
TEXT
100
AcDbLine
 10
1.122749455200332
 20
0.6868437982800697
 30
0.0
 11
1.075651296644347
 21
0.6109784718685316
 31
0.0
  0
LINE
  5
14E
330
18
100
AcDbEntity
  8
TEXT
100
AcDbLine
 10
1.133184171964255
 20
0.5769505553390962
 30
0.0
 11
1.19774128792996
 21
0.6868437982800697
 31
0.0
  0
LINE
  5
14F
330
18
100
AcDbEntity
  8
TEXT
100
AcDbLine
 10
1.011816305421574
 20
0.4203707652915587
 30
0.0
 11
1.076194489740195
 21
0.4203707652915587
 31
0.0
  0
LWPOLYLINE
  5
150
330
18
100
AcDbEntity
  8
TEXT
100
AcDbPolyline
 90
        2
 70
     0
 43
0.0
 10
0.8519072350110164
 20
0.4638617102419969
 42
-0.2901071551932486
 10
0.8088313021433719
 20
0.4203707652915587
 42
-5.328517124445184
  0
ARC
  5
154
330
18
100
AcDbEntity
  8
TEXT
100
AcDbCircle
 10
0.7399767204864575
 20
0.594207728623307
 30
0.0
 40
0.028359375
100
AcDbArc
 50
25.78218179591245
 51
90.0
  0
LINE
  5
155
330
18
100
AcDbEntity
  8
TEXT
100
AcDbLine
 10
0.7757777957905807
 20
0.585292130161172
 30
0.0
 11
0.7655130353770163
 21
0.6065426697338663
 31
0.0
  0
LINE
  5
156
330
18
100
AcDbEntity
  8
TEXT
100
AcDbLine
 10
0.6934898060071974
 20
0.585292130161172
 30
0.0
 11
0.7757777957905807
 21
0.585292130161172
 31
0.0
  0
LWPOLYLINE
  5
157
330
18
100
AcDbEntity
  8
TEXT
100
AcDbPolyline
 90
        4
 70
     1
 43
0.0
 10
0.7887088370734796
 20
0.523334743275584
 10
0.7000485184136211
 20
0.523334743275584
 42
0.9999999999999998
 10
0.7000485184136211
 20
0.4809362027717233
 10
0.7887088370734796
 20
0.4809362027717233
 42
1.0
  0
LWPOLYLINE
  5
15D
330
18
100
AcDbEntity
  8
TEXT
100
AcDbPolyline
 90
        2
 70
     0
 43
0.0
 10
0.6748138845119955
 20
0.4203707652915587
 10
0.8088313021433719
 20
0.4203707652915587
 42
0.9999999999999998
  0
LINE
  5
161
330
18
100
AcDbEntity
  8
TEXT
100
AcDbLine
 10
0.9351683241290114
 20
0.6225671036233043
 30
0.0
 11
1.011816305421569
 21
0.6225671036233043
 31
0.0
  0
LINE
  5
162
330
18
100
AcDbEntity
  8
TEXT
100
AcDbLine
 10
1.011816305421569
 20
0.6225671036233043
 30
0.0
 11
1.011816305421574
 21
0.4203707652915587
 31
0.0
  0
ARC
  5
163
330
18
100
AcDbEntity
  8
TEXT
100
AcDbCircle
 10
0.9351683241290096
 20
0.5976612283406415
 30
0.0
 40
0.0249058752826653
100
AcDbArc
 50
89.99971217465335
 51
179.9999999999985
  0
LINE
  5
164
330
18
100
AcDbEntity
  8
TEXT
100
AcDbLine
 10
0.9102624488463522
 20
0.4203707652915587
 30
0.0
 11
0.9102624488463469
 21
0.5976612707230271
 31
0.0
  0
LWPOLYLINE
  5
165
330
18
100
AcDbEntity
  8
TEXT
100
AcDbPolyline
 90
        2
 70
     0
 43
0.0
 10
0.8519072350110164
 20
0.4203707652915587
 10
0.9102624488463504
 20
0.4203707652915587
  0
LWPOLYLINE
  5
169
330
18
100
AcDbEntity
  8
TEXT
100
AcDbPolyline
 90
        2
 70
     0
 43
0.0
 10
0.8519072350110164
 20
0.4638617102419969
 10
0.8519072350110164
 20
0.4203707652915587
  0
LINE
  5
16D
330
18
100
AcDbEntity
  8
TEXT
100
AcDbLine
 10
1.228676395327865
 20
0.4203707652915587
 30
0.0
 11
1.133184171964255
 21
0.5769505553390962
 31
0.0
  0
LINE
  5
16E
330
18
100
AcDbEntity
  8
TEXT
100
AcDbLine
 10
1.152098022951659
 20
0.4203707652915587
 30
0.0
 11
1.228676395327865
 21
0.4203707652915587
 31
0.0
  0
LINE
  5
16F
330
18
100
AcDbEntity
  8
TEXT
100
AcDbLine
 10
1.076194489740195
 20
0.551950333767739
 30
0.0
 11
1.152098022951659
 21
0.4203707652915587
 31
0.0
  0
LINE
  5
170
330
18
100
AcDbEntity
  8
TEXT
100
AcDbLine
 10
1.076194489740195
 20
0.4203707652915587
 30
0.0
 11
1.076194489740195
 21
0.551950333767739
 31
0.0
  0
LINE
  5
171
330
18
100
AcDbEntity
  8
TEXT
100
AcDbLine
 10
1.075651296644347
 20
0.7523080040476704
 30
0.0
 11
1.007336418095074
 21
0.7523080040476704
 31
0.0
  0
ARC
  5
172
330
18
100
AcDbEntity
  8
TEXT
100
AcDbCircle
 10
0.7669806790538684
 20
0.6452602311591673
 30
0.0
 40
0.0416329381542859
100
AcDbArc
 50
26.56974201007528
 51
87.20939649401342
  0
LINE
  5
173
330
18
100
AcDbEntity
  8
TEXT
100
AcDbLine
 10
0.9118644640054796
 20
0.6868437982800697
 30
0.0
 11
0.8479675577059786
 21
0.6868437982800697
 31
0.0
  0
LINE
  5
174
330
18
100
AcDbEntity
  8
TEXT
100
AcDbLine
 10
0.9118644640054796
 20
0.6592961484191951
 30
0.0
 11
0.9118644640054796
 21
0.6868437982800697
 31
0.0
  0
ARC
  5
175
330
18
100
AcDbEntity
  8
TEXT
100
AcDbCircle
 10
0.9430572810685873
 20
0.6555980709978049
 30
0.0
 40
0.0314112657011332
100
AcDbArc
 50
95.88484768694724
 51
173.2388340632136
  0
LINE
  5
176
330
18
100
AcDbEntity
  8
TEXT
100
AcDbLine
 10
1.007336418095069
 20
0.6868437982800697
 30
0.0
 11
0.9398367004455526
 21
0.6868437982800697
 31
0.0
  0
LINE
  5
177
330
18
100
AcDbEntity
  8
TEXT
100
AcDbLine
 10
1.007336418095074
 20
0.7523080040476704
 30
0.0
 11
1.007336418095069
 21
0.6868437982800697
 31
0.0
  0
LINE
  5
178
330
18
100
AcDbEntity
  8
TEXT
100
AcDbLine
 10
1.19774128792996
 20
0.6868437982800697
 30
0.0
 11
1.122749455200334
 21
0.6868437982800697
 31
0.0
  0
ENDSEC
  0
SECTION
  2
OBJECTS
  0
DICTIONARY
  5
C
330
0
100
AcDbDictionary
  3
ACAD_GROUP
350
D
  3
ACAD_LAYOUT
350
187
  3
ACAD_MLINESTYLE
350
E
  3
ACAD_PLOTSETTINGS
350
188
  3
ACAD_PLOTSTYLENAME
350
185
  3
ACDBHEADERROUNDTRIPXREC
350
192
  3
ACDBVARIABLEDICTIONARY
350
18F
  0
DICTIONARY
  5
1B4
330
18
100
AcDbDictionary
280
     1
  3
ACAD_LAYOUTSELFREF
360
1B5
  0
DICTIONARY
  5
1B2
330
15
100
AcDbDictionary
280
     1
  3
ACAD_LAYOUTSELFREF
360
1B3
  0
DICTIONARY
  5
D
102
{ACAD_REACTORS
330
C
102
}
330
C
100
AcDbDictionary
  0
DICTIONARY
  5
187
102
{ACAD_REACTORS
330
C
102
}
330
C
100
AcDbDictionary
  0
DICTIONARY
  5
E
102
{ACAD_REACTORS
330
C
102
}
330
C
100
AcDbDictionary
  3
STANDARD
350
1B
  0
DICTIONARY
  5
188
102
{ACAD_REACTORS
330
C
102
}
330
C
100
AcDbDictionary
  0
ACDBDICTIONARYWDFLT
  5
185
102
{ACAD_REACTORS
330
C
102
}
330
C
100
AcDbDictionary
281
     1
  3
Normal
350
186
100
AcDbDictionaryWithDefault
340
186
  0
DICTIONARY
  5
192
102
{ACAD_REACTORS
330
C
102
}
330
C
100
AcDbDictionary
  3
CEPSNTYPE
350
19C
  3
FINGERPRINTGUID
350
19D
  3
HYPERLINKBASE
350
195
  3
INSUNITS
350
19B
  3
LAYOUTDICT
350
197
  3
LWETCUNION
350
19A
  3
PLOTSETDICT
350
198
  3
PLOTSTYLNAMDICT
350
199
  3
PSVPSCALE
350
19F
  3
PUCSBASE
350
1A2
  3
PUCSORGBACK
350
1A8
  3
PUCSORGBOTTOM
350
1A4
  3
PUCSORGFRONT
350
1A7
  3
PUCSORGLEFT
350
1A5
  3
PUCSORGRIGHT
350
1A6
  3
PUCSORGTOP
350
1A3
  3
PUCSORTHOREF
350
1A0
  3
PUCSORTHOVIEW
350
1A1
  3
STYLESHEET
350
196
  3
TSTACKALIGN
350
193
  3
TSTACKSIZE
350
194
  3
UCSBASE
350
1AB
  3
UCSORGBACK
350
1B1
  3
UCSORGBOTTOM
350
1AD
  3
UCSORGFRONT
350
1B0
  3
UCSORGLEFT
350
1AE
  3
UCSORGRIGHT
350
1AF
  3
UCSORGTOP
350
1AC
  3
UCSORTHOREF
350
1A9
  3
UCSORTHOVIEW
350
1AA
  3
VERSIONGUID
350
19E
  0
DICTIONARY
  5
18F
102
{ACAD_REACTORS
330
C
102
}
330
C
100
AcDbDictionary
  3
DIMASSOC
350
190
  0
XRECORD
  5
1B5
102
{ACAD_REACTORS
330
1B4
102
}
330
1B4
100
AcDbXrecord
340
18
  0
XRECORD
  5
1B3
102
{ACAD_REACTORS
330
1B2
102
}
330
1B2
100
AcDbXrecord
340
15
  0
MLINESTYLE
  5
1B
102
{ACAD_REACTORS
330
E
102
}
330
E
100
AcDbMlineStyle
  2
STANDARD
 70
     0
  3

 62
     0
 51
90.0
 52
90.0
 71
     2
 49
0.5
 62
   256
  6
BYLAYER
 49
-0.5
 62
   256
  6
BYLAYER
  0
ACDBPLACEHOLDER
  5
186
102
{ACAD_REACTORS
330
185
102
}
330
185
100
AcDbPlaceHolder
280
     0
  0
XRECORD
  5
19C
102
{ACAD_REACTORS
330
192
102
}
330
192
100
AcDbXrecord
 90
        0
  0
XRECORD
  5
19D
102
{ACAD_REACTORS
330
192
102
}
330
192
100
AcDbXrecord
  1
{7665EB20-8DB3-11D6-88E6-0090279574E7}
  0
XRECORD
  5
195
102
{ACAD_REACTORS
330
192
102
}
330
192
100
AcDbXrecord
  1

  0
XRECORD
  5
19B
102
{ACAD_REACTORS
330
192
102
}
330
192
100
AcDbXrecord
 90
        0
  0
XRECORD
  5
197
102
{ACAD_REACTORS
330
192
102
}
330
192
100
AcDbXrecord
340
187
  0
XRECORD
  5
19A
102
{ACAD_REACTORS
330
192
102
}
330
192
100
AcDbXrecord
 90
    14877
  0
XRECORD
  5
198
102
{ACAD_REACTORS
330
192
102
}
330
192
100
AcDbXrecord
340
188
  0
XRECORD
  5
199
102
{ACAD_REACTORS
330
192
102
}
330
192
100
AcDbXrecord
340
185
  0
XRECORD
  5
19F
102
{ACAD_REACTORS
330
192
102
}
330
192
100
AcDbXrecord
 40
0.0
  0
XRECORD
  5
1A2
102
{ACAD_REACTORS
330
192
102
}
330
192
100
AcDbXrecord
340
0
  0
XRECORD
  5
1A8
102
{ACAD_REACTORS
330
192
102
}
330
192
100
AcDbXrecord
 10
0.0
 20
0.0
 30
0.0
  0
XRECORD
  5
1A4
102
{ACAD_REACTORS
330
192
102
}
330
192
100
AcDbXrecord
 10
0.0
 20
0.0
 30
0.0
  0
XRECORD
  5
1A7
102
{ACAD_REACTORS
330
192
102
}
330
192
100
AcDbXrecord
 10
0.0
 20
0.0
 30
0.0
  0
XRECORD
  5
1A5
102
{ACAD_REACTORS
330
192
102
}
330
192
100
AcDbXrecord
 10
0.0
 20
0.0
 30
0.0
  0
XRECORD
  5
1A6
102
{ACAD_REACTORS
330
192
102
}
330
192
100
AcDbXrecord
 10
0.0
 20
0.0
 30
0.0
  0
XRECORD
  5
1A3
102
{ACAD_REACTORS
330
192
102
}
330
192
100
AcDbXrecord
 10
0.0
 20
0.0
 30
0.0
  0
XRECORD
  5
1A0
102
{ACAD_REACTORS
330
192
102
}
330
192
100
AcDbXrecord
340
0
  0
XRECORD
  5
1A1
102
{ACAD_REACTORS
330
192
102
}
330
192
100
AcDbXrecord
 70
     0
  0
XRECORD
  5
196
102
{ACAD_REACTORS
330
192
102
}
330
192
100
AcDbXrecord
  1

  0
XRECORD
  5
193
102
{ACAD_REACTORS
330
192
102
}
330
192
100
AcDbXrecord
 90
        1
  0
XRECORD
  5
194
102
{ACAD_REACTORS
330
192
102
}
330
192
100
AcDbXrecord
 90
       70
  0
XRECORD
  5
1AB
102
{ACAD_REACTORS
330
192
102
}
330
192
100
AcDbXrecord
340
0
  0
XRECORD
  5
1B1
102
{ACAD_REACTORS
330
192
102
}
330
192
100
AcDbXrecord
 10
0.0
 20
0.0
 30
0.0
  0
XRECORD
  5
1AD
102
{ACAD_REACTORS
330
192
102
}
330
192
100
AcDbXrecord
 10
0.0
 20
0.0
 30
0.0
  0
XRECORD
  5
1B0
102
{ACAD_REACTORS
330
192
102
}
330
192
100
AcDbXrecord
 10
0.0
 20
0.0
 30
0.0
  0
XRECORD
  5
1AE
102
{ACAD_REACTORS
330
192
102
}
330
192
100
AcDbXrecord
 10
0.0
 20
0.0
 30
0.0
  0
XRECORD
  5
1AF
102
{ACAD_REACTORS
330
192
102
}
330
192
100
AcDbXrecord
 10
0.0
 20
0.0
 30
0.0
  0
XRECORD
  5
1AC
102
{ACAD_REACTORS
330
192
102
}
330
192
100
AcDbXrecord
 10
0.0
 20
0.0
 30
0.0
  0
XRECORD
  5
1A9
102
{ACAD_REACTORS
330
192
102
}
330
192
100
AcDbXrecord
340
0
  0
XRECORD
  5
1AA
102
{ACAD_REACTORS
330
192
102
}
330
192
100
AcDbXrecord
 70
     0
  0
XRECORD
  5
19E
102
{ACAD_REACTORS
330
192
102
}
330
192
100
AcDbXrecord
  1
{7665EB22-8DB3-11D6-88E6-0090279574E7}
  0
DICTIONARYVAR
  5
190
102
{ACAD_REACTORS
330
18F
102
}
330
18F
100
DictionaryVariables
280
     0
  1
1
  0
ENDSEC
  0
EOF
