  0
SECTION
  2
HEADER
  9
$ACADVER
  1
AC1014
  9
$ACADMAINTVER
 70
     9
  9
$DWGCODEPAGE
  3
ANSI_1252
  9
$INSBASE
 10
2.6875
 20
1.953125
 30
0.0
  9
$EXTMIN
 10
0.903421926041404
 20
0.7815813160367063
 30
0.0
  9
$EXTMAX
 10
4.388641247788533
 20
2.360044093943446
 30
0.0
  9
$LIMMIN
 10
0.0
 20
0.0
  9
$LIMMAX
 10
18.0
 20
12.0
  9
$ORTHOMODE
 70
     1
  9
$REGENMODE
 70
     1
  9
$FILLMODE
 70
     1
  9
$QTEXTMODE
 70
     0
  9
$MIRRTEXT
 70
     0
  9
$DRAGMODE
 70
     2
  9
$LTSCALE
 40
1.0
  9
$OSMODE
 70
    39
  9
$ATTMODE
 70
     1
  9
$TEXTSIZE
 40
0.125
  9
$TRACEWID
 40
0.05
  9
$TEXTSTYLE
  7
ROMANS
  9
$CLAYER
  8
0
  9
$CELTYPE
  6
BYLAYER
  9
$CECOLOR
 62
   256
  9
$CELTSCALE
 40
1.0
  9
$DELOBJ
 70
     1
  9
$DISPSILH
 70
     1
  9
$DIMSCALE
 40
1.0
  9
$DIMASZ
 40
0.125
  9
$DIMEXO
 40
0.125
  9
$DIMDLI
 40
0.375
  9
$DIMRND
 40
0.0
  9
$DIMDLE
 40
0.0
  9
$DIMEXE
 40
0.125
  9
$DIMTP
 40
0.0
  9
$DIMTM
 40
0.0
  9
$DIMTXT
 40
0.125
  9
$DIMCEN
 40
-0.125
  9
$DIMTSZ
 40
0.0
  9
$DIMTOL
 70
     0
  9
$DIMLIM
 70
     0
  9
$DIMTIH
 70
     1
  9
$DIMTOH
 70
     1
  9
$DIMSE1
 70
     0
  9
$DIMSE2
 70
     0
  9
$DIMTAD
 70
     0
  9
$DIMZIN
 70
     4
  9
$DIMBLK
  1

  9
$DIMASO
 70
     1
  9
$DIMSHO
 70
     1
  9
$DIMPOST
  1

  9
$DIMAPOST
  1

  9
$DIMALT
 70
     0
  9
$DIMALTD
 70
     2
  9
$DIMALTF
 40
25.4
  9
$DIMLFAC
 40
1.0
  9
$DIMTOFL
 70
     0
  9
$DIMTVP
 40
0.0
  9
$DIMTIX
 70
     1
  9
$DIMSOXD
 70
     0
  9
$DIMSAH
 70
     0
  9
$DIMBLK1
  1

  9
$DIMBLK2
  1

  9
$DIMSTYLE
  2
STANDARD
  9
$DIMCLRD
 70
     0
  9
$DIMCLRE
 70
     0
  9
$DIMCLRT
 70
     0
  9
$DIMTFAC
 40
1.0
  9
$DIMGAP
 40
0.09
  9
$DIMJUST
 70
     0
  9
$DIMSD1
 70
     0
  9
$DIMSD2
 70
     0
  9
$DIMTOLJ
 70
     1
  9
$DIMTZIN
 70
     4
  9
$DIMALTZ
 70
     0
  9
$DIMALTTZ
 70
     0
  9
$DIMFIT
 70
     3
  9
$DIMUPT
 70
     0
  9
$DIMUNIT
 70
     2
  9
$DIMDEC
 70
     3
  9
$DIMTDEC
 70
     3
  9
$DIMALTU
 70
     2
  9
$DIMALTTD
 70
     2
  9
$DIMTXSTY
  7
ROMANS
  9
$DIMAUNIT
 70
     0
  9
$LUNITS
 70
     2
  9
$LUPREC
 70
     3
  9
$SKETCHINC
 40
0.1
  9
$FILLETRAD
 40
0.03125
  9
$AUNITS
 70
     0
  9
$AUPREC
 70
     0
  9
$MENU
  1
ACAD
  9
$ELEVATION
 40
0.0
  9
$PELEVATION
 40
0.0
  9
$THICKNESS
 40
0.0
  9
$LIMCHECK
 70
     0
  9
$BLIPMODE
 70
     0
  9
$CHAMFERA
 40
0.0
  9
$CHAMFERB
 40
0.0
  9
$CHAMFERC
 40
0.0
  9
$CHAMFERD
 40
0.0
  9
$SKPOLY
 70
     0
  9
$TDCREATE
 40
2448993.420814352
  9
$TDUPDATE
 40
2452458.292761215
  9
$TDINDWG
 40
0.0006857407
  9
$TDUSRTIMER
 40
0.0006857407
  9
$USRTIMER
 70
     1
  9
$ANGBASE
 50
0.0
  9
$ANGDIR
 70
     0
  9
$PDMODE
 70
     0
  9
$PDSIZE
 40
0.0
  9
$PLINEWID
 40
0.0
  9
$COORDS
 70
     2
  9
$SPLFRAME
 70
     0
  9
$SPLINETYPE
 70
     6
  9
$SPLINESEGS
 70
     8
  9
$ATTDIA
 70
     0
  9
$ATTREQ
 70
     1
  9
$HANDLING
 70
 22529
  9
$HANDSEED
  5
14FB153
  9
$SURFTAB1
 70
     6
  9
$SURFTAB2
 70
     6
  9
$SURFTYPE
 70
     6
  9
$SURFU
 70
     6
  9
$SURFV
 70
     6
  9
$UCSNAME
  2

  9
$UCSORG
 10
0.0
 20
0.0
 30
0.0
  9
$UCSXDIR
 10
1.0
 20
0.0
 30
0.0
  9
$UCSYDIR
 10
0.0
 20
1.0
 30
0.0
  9
$PUCSNAME
  2

  9
$PUCSORG
 10
0.0
 20
0.0
 30
0.0
  9
$PUCSXDIR
 10
1.0
 20
0.0
 30
0.0
  9
$PUCSYDIR
 10
0.0
 20
1.0
 30
0.0
  9
$USERI1
 70
     0
  9
$USERI2
 70
     0
  9
$USERI3
 70
     0
  9
$USERI4
 70
     0
  9
$USERI5
 70
     0
  9
$USERR1
 40
0.0
  9
$USERR2
 40
0.0
  9
$USERR3
 40
0.0
  9
$USERR4
 40
0.0
  9
$USERR5
 40
0.0
  9
$WORLDVIEW
 70
     1
  9
$SHADEDGE
 70
     3
  9
$SHADEDIF
 70
    70
  9
$TILEMODE
 70
     1
  9
$MAXACTVP
 70
    16
  9
$PINSBASE
 10
1.270483973440186
 20
50.00000000000001
 30
2.93597561590256
  9
$PLIMCHECK
 70
     0
  9
$PEXTMIN
 10
1.000000000000000E+20
 20
1.000000000000000E+20
 30
1.000000000000000E+20
  9
$PEXTMAX
 10
-1.000000000000000E+20
 20
-1.000000000000000E+20
 30
-1.000000000000000E+20
  9
$PLIMMIN
 10
0.0
 20
0.0
  9
$PLIMMAX
 10
12.0
 20
9.0
  9
$UNITMODE
 70
     0
  9
$VISRETAIN
 70
     0
  9
$PLINEGEN
 70
     1
  9
$PSLTSCALE
 70
     0
  9
$TREEDEPTH
 70
  3020
  9
$PICKSTYLE
 70
     1
  9
$CMLSTYLE
  2
STANDARD
  9
$CMLJUST
 70
     0
  9
$CMLSCALE
 40
1.0
  9
$PROXYGRAPHICS
 70
     1
  9
$MEASUREMENT
 70
     0
  0
ENDSEC
  0
SECTION
  2
CLASSES
  0
CLASS
  1
LWPOLYLINE
  2
AcDbPolyline
  3
AutoCAD 2000
 90
        0
280
     0
281
     1
  0
CLASS
  1
ACDBDICTIONARYWDFLT
  2
AcDbDictionaryWithDefault
  3
AutoCAD 2000
 90
        0
280
     0
281
     0
  0
CLASS
  1
ACDBPLACEHOLDER
  2
AcDbPlaceHolder
  3
AutoCAD 2000
 90
        0
280
     0
281
     0
  0
CLASS
  1
LAYOUT
  2
AcDbLayout
  3
AutoCAD 2000
 90
        0
280
     0
281
     0
  0
CLASS
  1
DICTIONARYVAR
  2
AcDbDictionaryVar
  3
AutoCAD 2000
 90
        0
280
     0
281
     0
  0
CLASS
  1
LONG_TRANSACTION
  2
AcDbLongTransaction
  3
AutoCAD 2000
 90
        0
280
     0
281
     0
  0
CLASS
  1
LWPOLYLINE
  2
AcDbPolyline
  3
AutoCAD 2000
 90
        0
280
     0
281
     1
  0
CLASS
  1
HATCH
  2
AcDbHatch
  3
AutoCAD 2000
 90
        0
280
     0
281
     1
  0
CLASS
  1
XRECORD
  2
AcDbXrecord
  3
AutoCAD 2000
 90
        0
280
     0
281
     0
  0
ENDSEC
  0
SECTION
  2
TABLES
  0
TABLE
  2
VPORT
  5
14FB0FA
330
0
100
AcDbSymbolTable
 70
     2
  0
VPORT
  5
14FB12E
330
14FB0FA
100
AcDbSymbolTableRecord
100
AcDbViewportTableRecord
  2
*ACTIVE
 70
     0
 10
0.0
 20
0.0
 11
1.0
 21
1.0
 12
5.622805439762577
 22
1.571136497393176
 13
0.0
 23
0.0
 14
0.015625
 24
0.015625
 15
0.0
 25
0.0
 16
0.0
 26
0.0
 36
1.0
 17
0.0
 27
0.0
 37
0.0
 40
2.282647215150728
 41
4.320930232558139
 42
50.0
 43
0.0
 44
0.0
 50
0.0
 51
0.0
 71
     0
 72
  2000
 73
     1
 74
     0
 75
     1
 76
     0
 77
     0
 78
     0
  0
ENDTAB
  0
TABLE
  2
LTYPE
  5
14FB0F7
330
0
100
AcDbSymbolTable
 70
     1
  0
LTYPE
  5
14FB104
330
14FB0F7
100
AcDbSymbolTableRecord
100
AcDbLinetypeTableRecord
  2
BYBLOCK
 70
     0
  3

 72
    65
 73
     0
 40
0.0
  0
LTYPE
  5
14FB105
330
14FB0F7
100
AcDbSymbolTableRecord
100
AcDbLinetypeTableRecord
  2
BYLAYER
 70
     0
  3

 72
    65
 73
     0
 40
0.0
  0
LTYPE
  5
14FB106
330
14FB0F7
100
AcDbSymbolTableRecord
100
AcDbLinetypeTableRecord
  2
CONTINUOUS
 70
     0
  3
Solid line
 72
    65
 73
     0
 40
0.0
  0
ENDTAB
  0
TABLE
  2
LAYER
  5
14FB0F4
330
0
100
AcDbSymbolTable
 70
     2
  0
LAYER
  5
14FB101
330
14FB0F4
100
AcDbSymbolTableRecord
100
AcDbLayerTableRecord
  2
0
 70
     0
 62
     7
  6
CONTINUOUS
  0
LAYER
  5
14FB111
330
14FB0F4
100
AcDbSymbolTableRecord
100
AcDbLayerTableRecord
  2
TEXT
 70
     0
 62
     3
  6
CONTINUOUS
  0
ENDTAB
  0
TABLE
  2
STYLE
  5
14FB0F5
330
0
100
AcDbSymbolTable
 70
     3
  0
STYLE
  5
14FB102
330
14FB0F5
100
AcDbSymbolTableRecord
100
AcDbTextStyleTableRecord
  2
STANDARD
 70
     0
 40
0.0
 41
1.0
 50
0.0
 71
     0
 42
0.3125
  3
txt
  4

  0
STYLE
  5
14FB10E
330
14FB0F5
100
AcDbSymbolTableRecord
100
AcDbTextStyleTableRecord
  2
ITALICC
 70
     0
 40
0.0
 41
1.0
 50
0.0
 71
     0
 42
0.125
  3
italicc
  4

  0
STYLE
  5
14FB11E
330
14FB0F5
100
AcDbSymbolTableRecord
100
AcDbTextStyleTableRecord
  2
ROMANS
 70
     0
 40
0.0
 41
1.0
 50
0.0
 71
     0
 42
0.125
  3
romans.shx
  4

  0
ENDTAB
  0
TABLE
  2
VIEW
  5
14FB0F8
330
0
100
AcDbSymbolTable
 70
     0
  0
ENDTAB
  0
TABLE
  2
UCS
  5
14FB0F9
330
0
100
AcDbSymbolTable
 70
     0
  0
ENDTAB
  0
TABLE
  2
APPID
  5
14FB0FB
330
0
100
AcDbSymbolTable
 70
     1
  0
APPID
  5
14FB103
330
14FB0FB
100
AcDbSymbolTableRecord
100
AcDbRegAppTableRecord
  2
ACAD
 70
     0
  0
ENDTAB
  0
TABLE
  2
DIMSTYLE
  5
14FB0FC
330
0
100
AcDbSymbolTable
 70
     1
  0
DIMSTYLE
105
14FB116
330
14FB0FC
100
AcDbSymbolTableRecord
100
AcDbDimStyleTableRecord
  2
STANDARD
 70
     0
  3

  4

  5

  6

  7

 40
1.0
 41
0.125
 42
0.125
 43
0.375
 44
0.125
 45
0.0
 46
0.0
 47
0.0
 48
0.0
140
0.125
141
-0.125
142
0.0
143
25.4
144
1.0
145
0.0
146
1.0
147
0.09
 71
     0
 72
     0
 73
     1
 74
     1
 75
     0
 76
     0
 77
     0
 78
     4
170
     0
171
     2
172
     0
173
     0
174
     1
175
     0
176
     0
177
     0
178
     0
270
     2
271
     3
272
     3
273
     2
274
     2
340
14FB11E
275
     0
280
     0
281
     0
282
     0
283
     1
284
     4
285
     0
286
     0
287
     3
288
     0
  0
ENDTAB
  0
TABLE
  2
BLOCK_RECORD
  5
14FB0F3
330
0
100
AcDbSymbolTable
 70
     0
  0
BLOCK_RECORD
  5
14FB10A
102
{ACAD_XDICTIONARY
360
14FB151
102
}
330
14FB0F3
100
AcDbSymbolTableRecord
100
AcDbBlockTableRecord
  2
*MODEL_SPACE
  0
BLOCK_RECORD
  5
14FB107
102
{ACAD_XDICTIONARY
360
14FB14F
102
}
330
14FB0F3
100
AcDbSymbolTableRecord
100
AcDbBlockTableRecord
  2
*PAPER_SPACE
  0
ENDTAB
  0
ENDSEC
  0
SECTION
  2
BLOCKS
  0
BLOCK
  5
14FB114
330
14FB10A
100
AcDbEntity
  8
0
100
AcDbBlockBegin
  2
*MODEL_SPACE
 70
     0
 10
0.0
 20
0.0
 30
0.0
  3
*MODEL_SPACE
  1

  0
ENDBLK
  5
14FB115
330
14FB10A
100
AcDbEntity
  8
0
100
AcDbBlockEnd
  0
BLOCK
  5
14FB112
330
14FB107
100
AcDbEntity
 67
     1
  8
0
100
AcDbBlockBegin
  2
*PAPER_SPACE
 70
     0
 10
0.0
 20
0.0
 30
0.0
  3
*PAPER_SPACE
  1

  0
ENDBLK
  5
14FB113
330
14FB107
100
AcDbEntity
 67
     1
  8
0
100
AcDbBlockEnd
  0
ENDSEC
  0
SECTION
  2
ENTITIES
  0
LWPOLYLINE
  5
14F9B35
330
14FB10A
100
AcDbEntity
  8
0
100
AcDbPolyline
 90
       19
 70
     1
 43
0.0
 10
2.592988257740817
 20
2.297099920119287
 10
2.602988257740818
 20
2.287099920119287
 10
2.625488257740818
 20
2.287099920119287
 42
1.0
 10
2.625488257740818
 20
2.347099920119287
 10
2.322988257740818
 20
2.347099920119287
 42
0.4142135623730951
 10
2.260488257740818
 20
2.284599920119287
 10
2.260488257740818
 20
1.989599920119287
 42
0.4142135623730951
 10
2.322988257740818
 20
1.927099920119287
 10
2.969818752796276
 20
1.927099920119287
 42
-0.323573411761864
 10
2.998304936124641
 20
1.906509349399684
 42
-0.190484278636841
 10
2.975780603349515
 20
1.514711893511747
 42
0.9999999999999996
 10
3.030220960701313
 20
1.489487946726827
 42
0.2209240683407537
 10
3.029731721044628
 20
1.989765108589324
 42
0.6716993500491295
 10
2.974251990598645
 20
1.987099920119287
 10
2.336113257740818
 20
1.987099920119287
 42
-0.4142135623730951
 10
2.320488257740818
 20
2.002724920119288
 10
2.320488257740818
 20
2.271474920119287
 42
-0.4142135623730951
 10
2.336113257740818
 20
2.287099920119287
 10
2.582988257740817
 20
2.287099920119287
  0
TEXT
  5
14FAFB5
330
14FB10A
100
AcDbEntity
  8
TEXT
100
AcDbText
 10
1.890451124316166
 20
1.239599920119287
 30
0.0
 40
0.125
  1
PART #110027
  7
ITALICC
 72
     1
 11
2.646403505268547
 21
1.239599920119287
 31
0.0
100
AcDbText
  0
TEXT
  5
14FAFB6
330
14FB10A
100
AcDbEntity
  8
TEXT
100
AcDbText
 10
3.059708663518867
 20
0.7926772774469127
 30
0.0
 40
0.0522247191011236
  1
Phone  1-800-328-2495
 41
1.272321428571429
 72
     5
 11
4.388641247788531
 21
0.7926772774469127
 31
0.0
100
AcDbText
  0
TEXT
  5
14FAFB7
330
14FB10A
100
AcDbEntity
  8
TEXT
100
AcDbText
 10
3.059708663518867
 20
1.072452558345789
 30
0.0
 40
0.0522247191011236
  1
Stylmark  Incorporated
 41
1.221428571428573
 72
     5
 11
4.388641247788531
 21
1.072452558345789
 31
0.0
100
AcDbText
  0
TEXT
  5
14FAFB8
330
14FB10A
100
AcDbEntity
  8
TEXT
100
AcDbText
 10
3.059708663518867
 20
0.979194131379497
 30
0.0
 40
0.0522247191011236
  1
6536 Main St. N.E. * P.O. Box 32008
 41
0.8388932496075366
 72
     5
 11
4.388641247788531
 21
0.979194131379497
 31
0.0
100
AcDbText
  0
TEXT
  5
14FAFB9
330
14FB10A
100
AcDbEntity
  8
TEXT
100
AcDbText
 10
3.059708663518867
 20
0.8859357044132048
 30
0.0
 40
0.0522247191011236
  1
Minneapolis, MN 55432-0008
 41
1.11444212721585
 72
     5
 11
4.388641247788531
 21
0.8859357044132048
 31
0.0
100
AcDbText
  0
LWPOLYLINE
  5
14FAFBA
330
14FB10A
100
AcDbEntity
  8
TEXT
100
AcDbPolyline
 90
        3
 70
     0
 43
0.0006660908203125
 10
0.9037549714515602
 20
0.9063220400843475
 10
0.9037549714515602
 20
0.7930866006312199
 10
1.016990410904682
 20
0.7930866006312199
  0
LWPOLYLINE
  5
14FAFBF
330
14FB10A
100
AcDbEntity
  8
TEXT
100
AcDbPolyline
 90
        3
 70
     0
 43
0.0006660908203125
 10
0.9303986042640577
 20
0.9063220400843475
 10
0.9303986042640577
 20
0.8197302334437209
 10
1.016990410904682
 20
0.8197302334437209
  0
LWPOLYLINE
  5
14FAFC4
330
14FB10A
100
AcDbEntity
  8
TEXT
100
AcDbPolyline
 90
        2
 70
     0
 43
0.0001332181640625
 10
0.9770249616859345
 20
0.9163134023890327
 10
0.9037549714515602
 20
0.9063220400843475
  0
LWPOLYLINE
  5
14FAFC8
330
14FB10A
100
AcDbEntity
  8
TEXT
100
AcDbPolyline
 90
        2
 70
     0
 43
0.0001332181640625
 10
0.9303986042640577
 20
0.9063220400843475
 10
0.990346778092185
 20
0.9163134023890327
  0
LWPOLYLINE
  5
14FAFCC
330
14FB10A
100
AcDbEntity
  8
TEXT
100
AcDbPolyline
 90
        2
 70
     0
 43
0.0001332181640625
 10
0.9303986042640577
 20
0.8197302334437209
 10
0.990346778092185
 20
0.8796784072718464
  0
LWPOLYLINE
  5
14FAFD0
330
14FB10A
100
AcDbEntity
  8
TEXT
100
AcDbPolyline
 90
        3
 70
     0
 43
0.0006660908203125
 10
1.016990410904682
 20
1.059522928756223
 10
0.9037549714515602
 20
1.059522928756223
 10
0.9037549714515602
 20
0.9462874893030955
  0
LWPOLYLINE
  5
14FAFD5
330
14FB10A
100
AcDbEntity
  8
TEXT
100
AcDbPolyline
 90
        3
 70
     0
 43
0.0006660908203125
 10
1.016990410904682
 20
1.032879295943722
 10
0.9303986042640577
 20
1.032879295943722
 10
0.9303986042640577
 20
0.9462874893030955
  0
LWPOLYLINE
  5
14FAFDA
330
14FB10A
100
AcDbEntity
  8
TEXT
100
AcDbPolyline
 90
        2
 70
     0
 43
0.0001332181640625
 10
0.9303986042640577
 20
1.032879295943722
 10
0.9903467780921832
 20
0.9729311221155965
  0
LWPOLYLINE
  5
14FAFDE
330
14FB10A
100
AcDbEntity
  8
TEXT
100
AcDbPolyline
 90
        2
 70
     0
 43
0.0001332181640625
 10
0.9303986042640577
 20
0.9462874893030955
 10
0.9903467780921832
 20
0.9362961269984067
  0
LWPOLYLINE
  5
14FAFE2
330
14FB10A
100
AcDbEntity
  8
TEXT
100
AcDbPolyline
 90
        2
 70
     0
 43
0.0001332181640625
 10
0.9037549714515602
 20
0.9462874893030955
 10
0.9770249616859345
 20
0.9362961269984067
  0
LWPOLYLINE
  5
14FAFE6
330
14FB10A
100
AcDbEntity
  8
TEXT
100
AcDbPolyline
 90
        2
 70
     0
 43
0.0006660908203125
 10
0.9303986042640577
 20
0.9063220400843475
 10
0.9037549714515602
 20
0.9063220400843475
  0
LWPOLYLINE
  5
14FAFEA
330
14FB10A
100
AcDbEntity
  8
TEXT
100
AcDbPolyline
 90
        2
 70
     0
 43
0.0006660908203125
 10
0.9303986042640577
 20
0.9462874893030955
 10
0.9037549714515602
 20
0.9462874893030955
  0
LINE
  5
14FAFEE
330
14FB10A
100
AcDbEntity
  8
TEXT
100
AcDbLine
 10
2.418945400578057
 20
0.9952462340994541
 30
0.0
 11
2.311739127190768
 21
0.9952462340994541
 31
0.0
  0
LINE
  5
14FAFEF
330
14FB10A
100
AcDbEntity
  8
TEXT
100
AcDbLine
 10
2.447976298922536
 20
1.059522928756219
 30
0.0
 11
2.313144389705477
 21
1.059522928756219
 31
0.0
  0
ARC
  5
14FAFF0
330
14FB10A
100
AcDbEntity
  8
TEXT
100
AcDbCircle
 10
2.372458486098794
 20
0.8902856794932032
 30
0.0
 40
0.0676855811441166
100
AcDbArc
 50
90.0
 51
153.7768192527749
  0
LWPOLYLINE
  5
14FAFF1
330
14FB10A
100
AcDbEntity
  8
TEXT
100
AcDbPolyline
 90
        2
 70
     0
 43
0.0
 10
2.310706631735958
 20
0.8365408407181467
 42
0.2901071551932823
 10
2.353782564603593
 20
0.7930498957677087
 42
5.328517124445801
  0
ARC
  5
14FAFF5
330
14FB10A
100
AcDbEntity
  8
TEXT
100
AcDbCircle
 10
1.667327108427308
 20
0.8528422871057584
 30
0.0
 40
0.0601160179737537
100
AcDbArc
 50
180.0000000000003
 51
264.0521544866073
  0
LINE
  5
14FAFF6
330
14FB10A
100
AcDbEntity
  8
TEXT
100
AcDbLine
 10
1.670842464052856
 20
1.093910846350357
 30
0.0
 11
1.610799859208849
 21
1.093910846350357
 31
0.0
  0
ARC
  5
14FAFF7
330
14FB10A
100
AcDbEntity
  8
TEXT
100
AcDbCircle
 10
1.435068106310337
 20
0.9774354693097178
 30
0.0
 40
0.0820874594465043
100
AcDbArc
 50
90.0
 51
270.0
  0
LWPOLYLINE
  5
14FAFF8
330
14FB10A
100
AcDbEntity
  8
TEXT
100
AcDbPolyline
 90
        2
 70
     0
 43
0.0001332181640625
 10
1.026981773209373
 20
0.9862529385218435
 10
1.016990410904682
 20
1.059522928756223
  0
LWPOLYLINE
  5
14FAFFC
330
14FB10A
100
AcDbEntity
  8
TEXT
100
AcDbPolyline
 90
        2
 70
     0
 43
0.0001332181640625
 10
1.016990410904682
 20
1.032879295943722
 10
1.026981773209373
 20
0.9729311221155965
  0
LWPOLYLINE
  5
14FB000
330
14FB10A
100
AcDbEntity
  8
TEXT
100
AcDbPolyline
 90
        3
 70
     0
 43
0.0006660908203125
 10
1.170191299576559
 20
0.9462874893030955
 10
1.170191299576559
 20
1.059522928756223
 10
1.056955860123434
 20
1.059522928756223
  0
LWPOLYLINE
  5
14FB005
330
14FB10A
100
AcDbEntity
  8
TEXT
100
AcDbPolyline
 90
        3
 70
     0
 43
0.0006660908203125
 10
1.143547666764058
 20
0.9462874893030955
 10
1.143547666764058
 20
1.032879295943722
 10
1.056955860123434
 20
1.032879295943722
  0
LWPOLYLINE
  5
14FB00A
330
14FB10A
100
AcDbEntity
  8
TEXT
100
AcDbPolyline
 90
        2
 70
     0
 43
0.0001332181640625
 10
1.143547666764058
 20
1.032879295943722
 10
1.083599492935935
 20
0.9729311221155965
  0
LWPOLYLINE
  5
14FB00E
330
14FB10A
100
AcDbEntity
  8
TEXT
100
AcDbPolyline
 90
        2
 70
     0
 43
0.0001332181640625
 10
1.056955860123434
 20
1.032879295943722
 10
1.046964497818745
 20
0.9729311221155965
  0
LWPOLYLINE
  5
14FB012
330
14FB10A
100
AcDbEntity
  8
TEXT
100
AcDbPolyline
 90
        2
 70
     0
 43
0.0001332181640625
 10
1.056955860123434
 20
1.059522928756223
 10
1.046964497818745
 20
0.9862529385218435
  0
LWPOLYLINE
  5
14FB016
330
14FB10A
100
AcDbEntity
  8
TEXT
100
AcDbPolyline
 90
        2
 70
     0
 43
0.0001332181640625
 10
1.096921309342183
 20
0.9362961269984067
 10
1.170191299576559
 20
0.9462874893030955
  0
LWPOLYLINE
  5
14FB01A
330
14FB10A
100
AcDbEntity
  8
TEXT
100
AcDbPolyline
 90
        2
 70
     0
 43
0.0001332181640625
 10
1.143547666764058
 20
0.9462874893030955
 10
1.083599492935935
 20
0.9362961269984067
  0
LWPOLYLINE
  5
14FB01E
330
14FB10A
100
AcDbEntity
  8
TEXT
100
AcDbPolyline
 90
        2
 70
     0
 43
0.0001332181640625
 10
1.170191299576559
 20
0.9063220400843475
 10
1.096921309342183
 20
0.9163134023890327
  0
LWPOLYLINE
  5
14FB022
330
14FB10A
100
AcDbEntity
  8
TEXT
100
AcDbPolyline
 90
        2
 70
     0
 43
0.0001332181640625
 10
1.143547666764058
 20
0.9063220400843475
 10
1.083599492935935
 20
0.9163134023890327
  0
LWPOLYLINE
  5
14FB026
330
14FB10A
100
AcDbEntity
  8
TEXT
100
AcDbPolyline
 90
        2
 70
     0
 43
0.0001332181640625
 10
1.143547666764058
 20
0.8197302334437209
 10
1.083599492935935
 20
0.8796784072718464
  0
LWPOLYLINE
  5
14FB02A
330
14FB10A
100
AcDbEntity
  8
TEXT
100
AcDbPolyline
 90
        3
 70
     0
 43
0.0006660908203125
 10
1.056955860123434
 20
0.8197302334437209
 10
1.143547666764058
 20
0.8197302334437209
 10
1.143547666764058
 20
0.9063220400843475
  0
LWPOLYLINE
  5
14FB02F
330
14FB10A
100
AcDbEntity
  8
TEXT
100
AcDbPolyline
 90
        3
 70
     0
 43
0.0006660908203125
 10
1.056955860123434
 20
0.7930866006312199
 10
1.170191299576559
 20
0.7930866006312199
 10
1.170191299576559
 20
0.9063220400843475
  0
LWPOLYLINE
  5
14FB034
330
14FB10A
100
AcDbEntity
  8
TEXT
100
AcDbPolyline
 90
        5
 70
     0
 43
0.0001332181640625
 10
1.026981773209373
 20
0.8663565908655959
 10
1.026981773209373
 20
0.8796784072718464
 10
0.990346778092185
 20
0.8796784072718464
 10
0.990346778092185
 20
0.9163134023890327
 10
0.9770249616859345
 20
0.9163134023890327
  0
LWPOLYLINE
  5
14FB03B
330
14FB10A
100
AcDbEntity
  8
TEXT
100
AcDbPolyline
 90
        2
 70
     0
 43
0.0006660908203125
 10
1.016990410904682
 20
0.8197302334437209
 10
1.016990410904682
 20
0.7930866006312199
  0
LWPOLYLINE
  5
14FB03F
330
14FB10A
100
AcDbEntity
  8
TEXT
100
AcDbPolyline
 90
        2
 70
     0
 43
0.0001332181640625
 10
1.016990410904682
 20
0.8197302334437209
 10
1.026981773209373
 20
0.8796784072718464
  0
LWPOLYLINE
  5
14FB043
330
14FB10A
100
AcDbEntity
  8
TEXT
100
AcDbPolyline
 90
        2
 70
     0
 43
0.0001332181640625
 10
1.016990410904682
 20
0.7930866006312199
 10
1.026981773209373
 20
0.8663565908655959
  0
LWPOLYLINE
  5
14FB047
330
14FB10A
100
AcDbEntity
  8
TEXT
100
AcDbPolyline
 90
        5
 70
     0
 43
0.0001332181640625
 10
0.9770249616859345
 20
0.9362961269984067
 10
0.9903467780921832
 20
0.9362961269984067
 10
0.9903467780921832
 20
0.9729311221155965
 10
1.026981773209373
 20
0.9729311221155965
 10
1.026981773209373
 20
0.9862529385218435
  0
LWPOLYLINE
  5
14FB04E
330
14FB10A
100
AcDbEntity
  8
TEXT
100
AcDbPolyline
 90
        5
 70
     0
 43
0.0001332181640625
 10
1.046964497818745
 20
0.9862529385218435
 10
1.046964497818745
 20
0.9729311221155965
 10
1.083599492935935
 20
0.9729311221155965
 10
1.083599492935935
 20
0.9362961269984067
 10
1.096921309342183
 20
0.9362961269984067
  0
LWPOLYLINE
  5
14FB055
330
14FB10A
100
AcDbEntity
  8
TEXT
100
AcDbPolyline
 90
        2
 70
     0
 43
0.0001332181640625
 10
1.056955860123434
 20
0.8197302334437209
 10
1.046964497818745
 20
0.8796784072718464
  0
LWPOLYLINE
  5
14FB059
330
14FB10A
100
AcDbEntity
  8
TEXT
100
AcDbPolyline
 90
        2
 70
     0
 43
0.0001332181640625
 10
1.046964497818745
 20
0.8663565908655959
 10
1.056955860123434
 20
0.7930866006312199
  0
LWPOLYLINE
  5
14FB05D
330
14FB10A
100
AcDbEntity
  8
TEXT
100
AcDbPolyline
 90
        2
 70
     0
 43
0.0006660908203125
 10
1.056955860123434
 20
0.8197302334437209
 10
1.056955860123434
 20
0.7930866006312199
  0
LWPOLYLINE
  5
14FB061
330
14FB10A
100
AcDbEntity
  8
TEXT
100
AcDbPolyline
 90
        5
 70
     0
 43
0.0001332181640625
 10
1.096921309342183
 20
0.9163134023890327
 10
1.083599492935935
 20
0.9163134023890327
 10
1.083599492935935
 20
0.8796784072718464
 10
1.046964497818745
 20
0.8796784072718464
 10
1.046964497818745
 20
0.8663565908655959
  0
LWPOLYLINE
  5
14FB068
330
14FB10A
100
AcDbEntity
  8
TEXT
100
AcDbPolyline
 90
        2
 70
     0
 43
0.0006660908203125
 10
1.143547666764058
 20
0.9462874893030955
 10
1.170191299576559
 20
0.9462874893030955
  0
LWPOLYLINE
  5
14FB06C
330
14FB10A
100
AcDbEntity
  8
TEXT
100
AcDbPolyline
 90
        2
 70
     0
 43
0.0006660908203125
 10
1.143547666764058
 20
0.9063220400843475
 10
1.170191299576559
 20
0.9063220400843475
  0
LINE
  5
14FB070
330
14FB10A
100
AcDbEntity
  8
TEXT
100
AcDbLine
 10
1.440305436424584
 20
0.9952462340994541
 30
0.0
 11
1.607211090453556
 21
0.9952462340994541
 31
0.0
  0
LINE
  5
14FB071
330
14FB10A
100
AcDbEntity
  8
TEXT
100
AcDbLine
 10
1.505905572668885
 20
0.9594415124888262
 30
0.0
 11
1.440305436424584
 21
0.9594415124888262
 31
0.0
  0
LINE
  5
14FB072
330
14FB10A
100
AcDbEntity
  8
TEXT
100
AcDbLine
 10
1.352980646863833
 20
0.7930498957677087
 30
0.0
 11
1.505905572668885
 21
0.7930498957677087
 31
0.0
  0
LINE
  5
14FB073
330
14FB10A
100
AcDbEntity
  8
TEXT
100
AcDbLine
 10
1.510845946575165
 20
0.8614069021011479
 30
0.0
 11
1.352980646863831
 21
0.8614069021011479
 31
0.0
  0
LINE
  5
14FB074
330
14FB10A
100
AcDbEntity
  8
TEXT
100
AcDbLine
 10
1.435068106310336
 20
0.8953480098632125
 30
0.0
 11
1.510845946575165
 21
0.8953480098632125
 31
0.0
  0
ARC
  5
14FB075
330
14FB10A
100
AcDbEntity
  8
TEXT
100
AcDbCircle
 10
1.440305436424585
 20
0.977343873294142
 30
0.0
 40
0.017902360805315
100
AcDbArc
 50
90.0
 51
270.0
  0
LINE
  5
14FB076
330
14FB10A
100
AcDbEntity
  8
TEXT
100
AcDbLine
 10
1.352980646863831
 20
0.8614069021011479
 30
0.0
 11
1.352980646863833
 21
0.7930498957677087
 31
0.0
  0
LINE
  5
14FB077
330
14FB10A
100
AcDbEntity
  8
TEXT
100
AcDbLine
 10
1.607211090453556
 20
0.9952462340994541
 30
0.0
 11
1.607211090453556
 21
0.8528422871057584
 31
0.0
  0
ARC
  5
14FB078
330
14FB10A
100
AcDbEntity
  8
TEXT
100
AcDbCircle
 10
1.505905572668886
 20
0.8762457041282656
 30
0.0
 40
0.0831958083605586
100
AcDbArc
 50
270.0
 51
90.0
  0
ARC
  5
14FB079
330
14FB10A
100
AcDbEntity
  8
TEXT
100
AcDbCircle
 10
1.510845946575166
 20
0.878377455982182
 30
0.0
 40
0.0169705538810321
100
AcDbArc
 50
270.0
 51
90.0
  0
LWPOLYLINE
  5
14FB07A
330
14FB10A
100
AcDbEntity
  8
TEXT
100
AcDbPolyline
 90
        2
 70
     0
 43
0.0006660908203125
 10
1.016990410904682
 20
1.032879295943722
 10
1.016990410904682
 20
1.059522928756223
  0
LWPOLYLINE
  5
14FB07E
330
14FB10A
100
AcDbEntity
  8
TEXT
100
AcDbPolyline
 90
        2
 70
     0
 43
0.0006660908203125
 10
1.056955860123434
 20
1.032879295943722
 10
1.056955860123434
 20
1.059522928756223
  0
LINE
  5
14FB082
330
14FB10A
100
AcDbEntity
  8
TEXT
100
AcDbLine
 10
1.610799859208849
 20
1.059522928756219
 30
0.0
 11
1.435068106310336
 21
1.059522928756219
 31
0.0
  0
LINE
  5
14FB083
330
14FB10A
100
AcDbEntity
  8
TEXT
100
AcDbLine
 10
1.610799859208849
 20
1.093910846350357
 30
0.0
 11
1.610799859208849
 21
1.059522928756219
 31
0.0
  0
LINE
  5
14FB084
330
14FB10A
100
AcDbEntity
  8
TEXT
100
AcDbLine
 10
1.801271751228701
 20
0.958650932643099
 30
0.0
 11
1.742641430196763
 21
1.059522928756219
 31
0.0
  0
LINE
  5
14FB085
330
14FB10A
100
AcDbEntity
  8
TEXT
100
AcDbLine
 10
1.860020314034566
 20
1.059522928756219
 30
0.0
 11
1.801271751228701
 21
0.958650932643099
 31
0.0
  0
LINE
  5
14FB086
330
14FB10A
100
AcDbEntity
  8
TEXT
100
AcDbLine
 10
1.956950939394308
 20
0.8754377338707078
 30
0.0
 11
1.956950939394308
 21
1.12753440649503
 31
0.0
  0
LINE
  5
14FB087
330
14FB10A
100
AcDbEntity
  8
TEXT
100
AcDbLine
 10
1.989262793531968
 20
1.059522928756219
 30
0.0
 11
1.989262793531968
 21
0.8586587220238113
 31
0.0
  0
LINE
  5
14FB088
330
14FB10A
100
AcDbEntity
  8
TEXT
100
AcDbLine
 10
1.989262793531968
 20
0.8586587220238113
 30
0.0
 11
1.972269156647366
 21
0.8586587220238113
 31
0.0
  0
LINE
  5
14FB089
330
14FB10A
100
AcDbEntity
  8
TEXT
100
AcDbLine
 10
1.958090512890502
 20
0.7930498957677087
 30
0.0
 11
2.056093846589937
 21
0.7930498957677087
 31
0.0
  0
LINE
  5
14FB08A
330
14FB10A
100
AcDbEntity
  8
TEXT
100
AcDbLine
 10
1.791671514231746
 20
0.8130084018727215
 30
0.0
 11
1.888971220325191
 21
0.9773586128079896
 31
0.0
  0
ARC
  5
14FB08B
330
14FB10A
100
AcDbEntity
  8
TEXT
100
AcDbCircle
 10
1.757627954319533
 20
0.8325976180414043
 30
0.0
 40
0.0392772371940762
100
AcDbArc
 50
270.1604552698595
 51
330.0831797321295
  0
LINE
  5
14FB08C
330
14FB10A
100
AcDbEntity
  8
TEXT
100
AcDbLine
 10
1.661097697933661
 20
0.7930498957677087
 30
0.0
 11
1.757737949008656
 21
0.7933205348659909
 31
0.0
  0
LWPOLYLINE
  5
14FB08D
330
14FB10A
100
AcDbEntity
  8
TEXT
100
AcDbPolyline
 90
        6
 70
     1
 43
0.0
 10
1.703621501508811
 20
0.9952462340994541
 10
1.673304907288603
 20
0.9952462340994541
 10
1.673304907288603
 20
0.8721352360445598
 42
0.407328721240804
 10
1.684848558450079
 20
0.8603163213681737
 10
1.74547025749481
 20
0.8603163213681737
 10
1.762935597902128
 20
0.8931285504116528
  0
LINE
  5
14FB095
330
14FB10A
100
AcDbEntity
  8
TEXT
100
AcDbLine
 10
1.888971220325191
 20
0.9773586128079896
 30
0.0
 11
1.888971220325191
 21
0.8446012379826333
 31
0.0
  0
ARC
  5
14FB096
330
14FB10A
100
AcDbEntity
  8
TEXT
100
AcDbCircle
 10
1.972269156647365
 20
0.8740405282672368
 30
0.0
 40
0.0153818062434269
100
AcDbArc
 50
174.7883570302258
 51
270.0
  0
LWPOLYLINE
  5
14FB097
330
14FB10A
100
AcDbEntity
  8
TEXT
100
AcDbPolyline
 90
        2
 70
     0
 43
0.0
 10
1.888971220325189
 20
0.8446012379826369
 42
0.3318488747599744
 10
1.958090512890502
 20
0.7930498957677087
 42
-6.868794160588311
  0
LINE
  5
14FB09B
330
14FB10A
100
AcDbEntity
  8
TEXT
100
AcDbLine
 10
2.113482915579198
 20
0.7930498957677087
 30
0.0
 11
2.180540962361038
 21
0.7930498957677087
 31
0.0
  0
LINE
  5
14FB09C
330
14FB10A
100
AcDbEntity
  8
TEXT
100
AcDbLine
 10
2.113482915579198
 20
0.9876924449333442
 30
0.0
 11
2.113482915579198
 21
0.7930498957677087
 31
0.0
  0
LINE
  5
14FB09D
330
14FB10A
100
AcDbEntity
  8
TEXT
100
AcDbLine
 10
2.056093846589937
 20
0.9952462340994541
 30
0.0
 11
2.105929126413085
 21
0.9952462340994541
 31
0.0
  0
LINE
  5
14FB09E
330
14FB10A
100
AcDbEntity
  8
TEXT
100
AcDbLine
 10
2.056093846589937
 20
0.7930498957677087
 30
0.0
 11
2.056093846589937
 21
0.9952462340994541
 31
0.0
  0
LWPOLYLINE
  5
14FB09F
330
14FB10A
100
AcDbEntity
  8
TEXT
100
AcDbPolyline
 90
        2
 70
     0
 43
0.0
 10
2.105929126413083
 20
0.9952462340994541
 42
-0.4142135623731017
 10
2.113482915579196
 20
0.9876924449333442
 42
-0.9999999999999998
  0
LINE
  5
14FB0A3
330
14FB10A
100
AcDbEntity
  8
TEXT
100
AcDbLine
 10
2.311739127190768
 20
0.9952462340994541
 30
0.0
 11
2.311739127190768
 21
0.9201938280252475
 31
0.0
  0
LINE
  5
14FB0A4
330
14FB10A
100
AcDbEntity
  8
TEXT
100
AcDbLine
 10
2.180540962361038
 20
0.9952462340994541
 30
0.0
 11
2.234674559281988
 21
0.9952462340994541
 31
0.0
  0
LINE
  5
14FB0A5
330
14FB10A
100
AcDbEntity
  8
TEXT
100
AcDbLine
 10
2.180540962361038
 20
0.7930498957677087
 30
0.0
 11
2.180540962361038
 21
0.9952462340994541
 31
0.0
  0
LWPOLYLINE
  5
14FB0A6
330
14FB10A
100
AcDbEntity
  8
TEXT
100
AcDbPolyline
 90
        2
 70
     0
 43
0.0
 10
2.234674559281986
 20
0.9952462340994541
 42
-0.4142135623731017
 10
2.2422283484481
 20
0.9876924449333442
 42
-0.9999999999999998
  0
LWPOLYLINE
  5
14FB0AA
330
14FB10A
100
AcDbEntity
  8
TEXT
100
AcDbPolyline
 90
        4
 70
     0
 43
0.0
 10
2.2422283484481
 20
0.9876924449333442
 10
2.2422283484481
 20
0.7930498957677087
 10
2.310706631735958
 20
0.7930498957677087
 10
2.310706631735958
 20
0.8365408407181467
 42
-1.714843617202739
  0
LINE
  5
14FB0B0
330
14FB10A
100
AcDbEntity
  8
TEXT
100
AcDbLine
 10
1.670842464052856
 20
1.059522928756219
 30
0.0
 11
1.670842464052856
 21
1.093910846350357
 31
0.0
  0
LINE
  5
14FB0B1
330
14FB10A
100
AcDbEntity
  8
TEXT
100
AcDbLine
 10
1.742641430196763
 20
1.059522928756219
 30
0.0
 11
1.670842464052856
 21
1.059522928756219
 31
0.0
  0
LINE
  5
14FB0B2
330
14FB10A
100
AcDbEntity
  8
TEXT
100
AcDbLine
 10
1.890142226827943
 20
1.059522928756219
 30
0.0
 11
1.860020314034566
 21
1.059522928756219
 31
0.0
  0
LINE
  5
14FB0B3
330
14FB10A
100
AcDbEntity
  8
TEXT
100
AcDbLine
 10
1.890142226827943
 20
1.12753440649503
 30
0.0
 11
1.890142226827943
 21
1.059522928756219
 31
0.0
  0
LINE
  5
14FB0B4
330
14FB10A
100
AcDbEntity
  8
TEXT
100
AcDbLine
 10
1.956950939394308
 20
1.12753440649503
 30
0.0
 11
1.890142226827943
 21
1.12753440649503
 31
0.0
  0
LWPOLYLINE
  5
14FB0B5
330
14FB10A
100
AcDbEntity
  8
TEXT
100
AcDbPolyline
 90
        3
 70
     0
 43
0.0
 10
2.27736269899231
 20
1.059522928756223
 10
2.159062540176265
 20
1.059522928756223
 10
2.159062540176265
 20
1.032355431995327
 42
-1.960274751411753
  0
LINE
  5
14FB0BA
330
14FB10A
100
AcDbEntity
  8
TEXT
100
AcDbLine
 10
2.123280849463104
 20
1.059522928756219
 30
0.0
 11
1.989262793531968
 21
1.059522928756219
 31
0.0
  0
LWPOLYLINE
  5
14FB0BB
330
14FB10A
100
AcDbEntity
  8
TEXT
100
AcDbPolyline
 90
        2
 70
     0
 43
0.0
 10
2.123280849463104
 20
1.059522928756223
 42
-0.3328679258950098
 10
2.159062540176265
 20
1.032355431995327
 42
6.772930709997214
  0
LINE
  5
14FB0BF
330
14FB10A
100
AcDbEntity
  8
TEXT
100
AcDbLine
 10
2.313144389705477
 20
1.059522928756219
 30
0.0
 11
2.313144389705477
 21
1.031200382986575
 31
0.0
  0
LWPOLYLINE
  5
14FB0C0
330
14FB10A
100
AcDbEntity
  8
TEXT
100
AcDbPolyline
 90
        2
 70
     0
 43
0.0
 10
2.27736269899231
 20
1.059522928756223
 42
-0.3277054968067132
 10
2.313144389705475
 20
1.031200382986579
 42
6.667889725900311
  0
LINE
  5
14FB0C4
330
14FB10A
100
AcDbEntity
  8
TEXT
100
AcDbLine
 10
2.526936237797577
 20
0.9543109502027922
 30
0.0
 11
2.483185466615675
 21
1.036561226198937
 31
0.0
  0
LINE
  5
14FB0C5
330
14FB10A
100
AcDbEntity
  8
TEXT
100
AcDbLine
 10
2.526936237797577
 20
1.059522928756219
 30
0.0
 11
2.526936237797577
 21
0.9543109502027922
 31
0.0
  0
LINE
  5
14FB0C6
330
14FB10A
100
AcDbEntity
  8
TEXT
100
AcDbLine
 10
2.754619976735946
 20
0.9836576023446815
 30
0.0
 11
2.754619976735946
 21
1.12498713452382
 31
0.0
  0
LINE
  5
14FB0C7
330
14FB10A
100
AcDbEntity
  8
TEXT
100
AcDbLine
 10
2.80171813529193
 20
1.059522928756219
 30
0.0
 11
2.754619976735946
 21
0.9836576023446815
 31
0.0
  0
LINE
  5
14FB0C8
330
14FB10A
100
AcDbEntity
  8
TEXT
100
AcDbLine
 10
2.812152852055853
 20
0.949629685815246
 30
0.0
 11
2.876709968021558
 21
1.059522928756219
 31
0.0
  0
LINE
  5
14FB0C9
330
14FB10A
100
AcDbEntity
  8
TEXT
100
AcDbLine
 10
2.690784985513173
 20
0.7930498957677087
 30
0.0
 11
2.755163169831793
 21
0.7930498957677087
 31
0.0
  0
LWPOLYLINE
  5
14FB0CA
330
14FB10A
100
AcDbEntity
  8
TEXT
100
AcDbPolyline
 90
        2
 70
     0
 43
0.0
 10
2.530875915102615
 20
0.8365408407181467
 42
-0.2901071551932486
 10
2.48779998223497
 20
0.7930498957677087
 42
-5.328517124445184
  0
ARC
  5
14FB0CE
330
14FB10A
100
AcDbEntity
  8
TEXT
100
AcDbCircle
 10
2.418945400578055
 20
0.9668868590994568
 30
0.0
 40
0.028359375
100
AcDbArc
 50
25.78218179591245
 51
90.0
  0
LINE
  5
14FB0CF
330
14FB10A
100
AcDbEntity
  8
TEXT
100
AcDbLine
 10
2.454746475882179
 20
0.9579712606373218
 30
0.0
 11
2.444481715468614
 21
0.9792218002100161
 31
0.0
  0
LINE
  5
14FB0D0
330
14FB10A
100
AcDbEntity
  8
TEXT
100
AcDbLine
 10
2.372458486098795
 20
0.9579712606373218
 30
0.0
 11
2.454746475882179
 21
0.9579712606373218
 31
0.0
  0
LWPOLYLINE
  5
14FB0D1
330
14FB10A
100
AcDbEntity
  8
TEXT
100
AcDbPolyline
 90
        4
 70
     1
 43
0.0
 10
2.467677517165077
 20
0.8960138737517338
 10
2.379017198505219
 20
0.8960138737517338
 42
0.9999999999999998
 10
2.379017198505219
 20
0.8536153332478731
 10
2.467677517165077
 20
0.8536153332478731
 42
1.0
  0
LWPOLYLINE
  5
14FB0D7
330
14FB10A
100
AcDbEntity
  8
TEXT
100
AcDbPolyline
 90
        2
 70
     0
 43
0.0
 10
2.353782564603593
 20
0.7930498957677087
 10
2.48779998223497
 20
0.7930498957677087
 42
0.9999999999999998
  0
LINE
  5
14FB0DB
330
14FB10A
100
AcDbEntity
  8
TEXT
100
AcDbLine
 10
2.61413700422061
 20
0.9952462340994541
 30
0.0
 11
2.690784985513167
 21
0.9952462340994541
 31
0.0
  0
LINE
  5
14FB0DC
330
14FB10A
100
AcDbEntity
  8
TEXT
100
AcDbLine
 10
2.690784985513167
 20
0.9952462340994541
 30
0.0
 11
2.690784985513173
 21
0.7930498957677087
 31
0.0
  0
ARC
  5
14FB0DD
330
14FB10A
100
AcDbEntity
  8
TEXT
100
AcDbCircle
 10
2.614137004220608
 20
0.9703403588167914
 30
0.0
 40
0.0249058752826653
100
AcDbArc
 50
89.99971217465335
 51
179.9999999999985
  0
LINE
  5
14FB0DE
330
14FB10A
100
AcDbEntity
  8
TEXT
100
AcDbLine
 10
2.58923112893795
 20
0.7930498957677087
 30
0.0
 11
2.589231128937945
 21
0.970340401199177
 31
0.0
  0
LWPOLYLINE
  5
14FB0DF
330
14FB10A
100
AcDbEntity
  8
TEXT
100
AcDbPolyline
 90
        2
 70
     0
 43
0.0
 10
2.530875915102615
 20
0.7930498957677087
 10
2.589231128937949
 20
0.7930498957677087
  0
LWPOLYLINE
  5
14FB0E3
330
14FB10A
100
AcDbEntity
  8
TEXT
100
AcDbPolyline
 90
        2
 70
     0
 43
0.0
 10
2.530875915102615
 20
0.8365408407181467
 10
2.530875915102615
 20
0.7930498957677087
  0
LINE
  5
14FB0E7
330
14FB10A
100
AcDbEntity
  8
TEXT
100
AcDbLine
 10
2.907645075419464
 20
0.7930498957677087
 30
0.0
 11
2.812152852055853
 21
0.949629685815246
 31
0.0
  0
LINE
  5
14FB0E8
330
14FB10A
100
AcDbEntity
  8
TEXT
100
AcDbLine
 10
2.831066703043258
 20
0.7930498957677087
 30
0.0
 11
2.907645075419464
 21
0.7930498957677087
 31
0.0
  0
LINE
  5
14FB0E9
330
14FB10A
100
AcDbEntity
  8
TEXT
100
AcDbLine
 10
2.755163169831793
 20
0.9246294642438888
 30
0.0
 11
2.831066703043258
 21
0.7930498957677087
 31
0.0
  0
LINE
  5
14FB0EA
330
14FB10A
100
AcDbEntity
  8
TEXT
100
AcDbLine
 10
2.755163169831793
 20
0.7930498957677087
 30
0.0
 11
2.755163169831793
 21
0.9246294642438888
 31
0.0
  0
LINE
  5
14FB0EB
330
14FB10A
100
AcDbEntity
  8
TEXT
100
AcDbLine
 10
2.754619976735946
 20
1.12498713452382
 30
0.0
 11
2.686305098186672
 21
1.12498713452382
 31
0.0
  0
ARC
  5
14FB0EC
330
14FB10A
100
AcDbEntity
  8
TEXT
100
AcDbCircle
 10
2.445949359145466
 20
1.017939361635317
 30
0.0
 40
0.0416329381542859
100
AcDbArc
 50
26.56974201007528
 51
87.20939649401342
  0
LINE
  5
14FB0ED
330
14FB10A
100
AcDbEntity
  8
TEXT
100
AcDbLine
 10
2.590833144097078
 20
1.059522928756219
 30
0.0
 11
2.526936237797577
 21
1.059522928756219
 31
0.0
  0
LINE
  5
14FB0EE
330
14FB10A
100
AcDbEntity
  8
TEXT
100
AcDbLine
 10
2.590833144097078
 20
1.031975278895344
 30
0.0
 11
2.590833144097078
 21
1.059522928756219
 31
0.0
  0
ARC
  5
14FB0EF
330
14FB10A
100
AcDbEntity
  8
TEXT
100
AcDbCircle
 10
2.622025961160185
 20
1.028277201473954
 30
0.0
 40
0.0314112657011332
100
AcDbArc
 50
95.88484768694724
 51
173.2388340632136
  0
LINE
  5
14FB0F0
330
14FB10A
100
AcDbEntity
  8
TEXT
100
AcDbLine
 10
2.686305098186667
 20
1.059522928756219
 30
0.0
 11
2.618805380537151
 21
1.059522928756219
 31
0.0
  0
LINE
  5
14FB0F1
330
14FB10A
100
AcDbEntity
  8
TEXT
100
AcDbLine
 10
2.686305098186672
 20
1.12498713452382
 30
0.0
 11
2.686305098186667
 21
1.059522928756219
 31
0.0
  0
LINE
  5
14FB0F2
330
14FB10A
100
AcDbEntity
  8
TEXT
100
AcDbLine
 10
2.876709968021558
 20
1.059522928756219
 30
0.0
 11
2.801718135291932
 21
1.059522928756219
 31
0.0
  0
ENDSEC
  0
SECTION
  2
OBJECTS
  0
DICTIONARY
  5
14FB0FE
330
0
100
AcDbDictionary
  3
ACAD_GROUP
350
14FB0FF
  3
ACAD_LAYOUT
350
14FB124
  3
ACAD_MLINESTYLE
350
14FB100
  3
ACAD_PLOTSETTINGS
350
14FB125
  3
ACAD_PLOTSTYLENAME
350
14FB122
  3
ACDBHEADERROUNDTRIPXREC
350
14FB12F
  3
ACDBVARIABLEDICTIONARY
350
14FB12C
  0
DICTIONARY
  5
14FB151
330
14FB10A
100
AcDbDictionary
280
     1
  3
ACAD_LAYOUTSELFREF
360
14FB152
  0
DICTIONARY
  5
14FB14F
330
14FB107
100
AcDbDictionary
280
     1
  3
ACAD_LAYOUTSELFREF
360
14FB150
  0
DICTIONARY
  5
14FB0FF
102
{ACAD_REACTORS
330
14FB0FE
102
}
330
14FB0FE
100
AcDbDictionary
  0
DICTIONARY
  5
14FB124
102
{ACAD_REACTORS
330
14FB0FE
102
}
330
14FB0FE
100
AcDbDictionary
  0
DICTIONARY
  5
14FB100
102
{ACAD_REACTORS
330
14FB0FE
102
}
330
14FB0FE
100
AcDbDictionary
  3
STANDARD
350
14FB10D
  0
DICTIONARY
  5
14FB125
102
{ACAD_REACTORS
330
14FB0FE
102
}
330
14FB0FE
100
AcDbDictionary
  0
ACDBDICTIONARYWDFLT
  5
14FB122
102
{ACAD_REACTORS
330
14FB0FE
102
}
330
14FB0FE
100
AcDbDictionary
281
     1
  3
Normal
350
14FB123
100
AcDbDictionaryWithDefault
340
14FB123
  0
DICTIONARY
  5
14FB12F
102
{ACAD_REACTORS
330
14FB0FE
102
}
330
14FB0FE
100
AcDbDictionary
  3
CEPSNTYPE
350
14FB139
  3
FINGERPRINTGUID
350
14FB13A
  3
HYPERLINKBASE
350
14FB132
  3
INSUNITS
350
14FB138
  3
LAYOUTDICT
350
14FB134
  3
LWETCUNION
350
14FB137
  3
PLOTSETDICT
350
14FB135
  3
PLOTSTYLNAMDICT
350
14FB136
  3
PSVPSCALE
350
14FB13C
  3
PUCSBASE
350
14FB13F
  3
PUCSORGBACK
350
14FB145
  3
PUCSORGBOTTOM
350
14FB141
  3
PUCSORGFRONT
350
14FB144
  3
PUCSORGLEFT
350
14FB142
  3
PUCSORGRIGHT
350
14FB143
  3
PUCSORGTOP
350
14FB140
  3
PUCSORTHOREF
350
14FB13D
  3
PUCSORTHOVIEW
350
14FB13E
  3
STYLESHEET
350
14FB133
  3
TSTACKALIGN
350
14FB130
  3
TSTACKSIZE
350
14FB131
  3
UCSBASE
350
14FB148
  3
UCSORGBACK
350
14FB14E
  3
UCSORGBOTTOM
350
14FB14A
  3
UCSORGFRONT
350
14FB14D
  3
UCSORGLEFT
350
14FB14B
  3
UCSORGRIGHT
350
14FB14C
  3
UCSORGTOP
350
14FB149
  3
UCSORTHOREF
350
14FB146
  3
UCSORTHOVIEW
350
14FB147
  3
VERSIONGUID
350
14FB13B
  0
DICTIONARY
  5
14FB12C
102
{ACAD_REACTORS
330
14FB0FE
102
}
330
14FB0FE
100
AcDbDictionary
  3
DIMASSOC
350
14FB12D
  0
XRECORD
  5
14FB152
102
{ACAD_REACTORS
330
14FB151
102
}
330
14FB151
100
AcDbXrecord
340
14FB10A
  0
XRECORD
  5
14FB150
102
{ACAD_REACTORS
330
14FB14F
102
}
330
14FB14F
100
AcDbXrecord
340
14FB107
  0
MLINESTYLE
  5
14FB10D
102
{ACAD_REACTORS
330
14FB100
102
}
330
14FB100
100
AcDbMlineStyle
  2
STANDARD
 70
     0
  3

 62
     0
 51
90.0
 52
90.0
 71
     2
 49
0.5
 62
   256
  6
BYLAYER
 49
-0.5
 62
   256
  6
BYLAYER
  0
ACDBPLACEHOLDER
  5
14FB123
102
{ACAD_REACTORS
330
14FB122
102
}
330
14FB122
100
AcDbPlaceHolder
280
     0
  0
XRECORD
  5
14FB139
102
{ACAD_REACTORS
330
14FB12F
102
}
330
14FB12F
100
AcDbXrecord
 90
        0
  0
XRECORD
  5
14FB13A
102
{ACAD_REACTORS
330
14FB12F
102
}
330
14FB12F
100
AcDbXrecord
  1
{71CD4CC0-8DB3-11D6-88E6-0090279574E7}
  0
XRECORD
  5
14FB132
102
{ACAD_REACTORS
330
14FB12F
102
}
330
14FB12F
100
AcDbXrecord
  1

  0
XRECORD
  5
14FB138
102
{ACAD_REACTORS
330
14FB12F
102
}
330
14FB12F
100
AcDbXrecord
 90
        0
  0
XRECORD
  5
14FB134
102
{ACAD_REACTORS
330
14FB12F
102
}
330
14FB12F
100
AcDbXrecord
340
14FB124
  0
XRECORD
  5
14FB137
102
{ACAD_REACTORS
330
14FB12F
102
}
330
14FB12F
100
AcDbXrecord
 90
    14877
  0
XRECORD
  5
14FB135
102
{ACAD_REACTORS
330
14FB12F
102
}
330
14FB12F
100
AcDbXrecord
340
14FB125
  0
XRECORD
  5
14FB136
102
{ACAD_REACTORS
330
14FB12F
102
}
330
14FB12F
100
AcDbXrecord
340
14FB122
  0
XRECORD
  5
14FB13C
102
{ACAD_REACTORS
330
14FB12F
102
}
330
14FB12F
100
AcDbXrecord
 40
0.0
  0
XRECORD
  5
14FB13F
102
{ACAD_REACTORS
330
14FB12F
102
}
330
14FB12F
100
AcDbXrecord
340
0
  0
XRECORD
  5
14FB145
102
{ACAD_REACTORS
330
14FB12F
102
}
330
14FB12F
100
AcDbXrecord
 10
0.0
 20
0.0
 30
0.0
  0
XRECORD
  5
14FB141
102
{ACAD_REACTORS
330
14FB12F
102
}
330
14FB12F
100
AcDbXrecord
 10
0.0
 20
0.0
 30
0.0
  0
XRECORD
  5
14FB144
102
{ACAD_REACTORS
330
14FB12F
102
}
330
14FB12F
100
AcDbXrecord
 10
0.0
 20
0.0
 30
0.0
  0
XRECORD
  5
14FB142
102
{ACAD_REACTORS
330
14FB12F
102
}
330
14FB12F
100
AcDbXrecord
 10
0.0
 20
0.0
 30
0.0
  0
XRECORD
  5
14FB143
102
{ACAD_REACTORS
330
14FB12F
102
}
330
14FB12F
100
AcDbXrecord
 10
0.0
 20
0.0
 30
0.0
  0
XRECORD
  5
14FB140
102
{ACAD_REACTORS
330
14FB12F
102
}
330
14FB12F
100
AcDbXrecord
 10
0.0
 20
0.0
 30
0.0
  0
XRECORD
  5
14FB13D
102
{ACAD_REACTORS
330
14FB12F
102
}
330
14FB12F
100
AcDbXrecord
340
0
  0
XRECORD
  5
14FB13E
102
{ACAD_REACTORS
330
14FB12F
102
}
330
14FB12F
100
AcDbXrecord
 70
     0
  0
XRECORD
  5
14FB133
102
{ACAD_REACTORS
330
14FB12F
102
}
330
14FB12F
100
AcDbXrecord
  1

  0
XRECORD
  5
14FB130
102
{ACAD_REACTORS
330
14FB12F
102
}
330
14FB12F
100
AcDbXrecord
 90
        1
  0
XRECORD
  5
14FB131
102
{ACAD_REACTORS
330
14FB12F
102
}
330
14FB12F
100
AcDbXrecord
 90
       70
  0
XRECORD
  5
14FB148
102
{ACAD_REACTORS
330
14FB12F
102
}
330
14FB12F
100
AcDbXrecord
340
0
  0
XRECORD
  5
14FB14E
102
{ACAD_REACTORS
330
14FB12F
102
}
330
14FB12F
100
AcDbXrecord
 10
0.0
 20
0.0
 30
0.0
  0
XRECORD
  5
14FB14A
102
{ACAD_REACTORS
330
14FB12F
102
}
330
14FB12F
100
AcDbXrecord
 10
0.0
 20
0.0
 30
0.0
  0
XRECORD
  5
14FB14D
102
{ACAD_REACTORS
330
14FB12F
102
}
330
14FB12F
100
AcDbXrecord
 10
0.0
 20
0.0
 30
0.0
  0
XRECORD
  5
14FB14B
102
{ACAD_REACTORS
330
14FB12F
102
}
330
14FB12F
100
AcDbXrecord
 10
0.0
 20
0.0
 30
0.0
  0
XRECORD
  5
14FB14C
102
{ACAD_REACTORS
330
14FB12F
102
}
330
14FB12F
100
AcDbXrecord
 10
0.0
 20
0.0
 30
0.0
  0
XRECORD
  5
14FB149
102
{ACAD_REACTORS
330
14FB12F
102
}
330
14FB12F
100
AcDbXrecord
 10
0.0
 20
0.0
 30
0.0
  0
XRECORD
  5
14FB146
102
{ACAD_REACTORS
330
14FB12F
102
}
330
14FB12F
100
AcDbXrecord
340
0
  0
XRECORD
  5
14FB147
102
{ACAD_REACTORS
330
14FB12F
102
}
330
14FB12F
100
AcDbXrecord
 70
     0
  0
XRECORD
  5
14FB13B
102
{ACAD_REACTORS
330
14FB12F
102
}
330
14FB12F
100
AcDbXrecord
  1
{71CD4CC2-8DB3-11D6-88E6-0090279574E7}
  0
DICTIONARYVAR
  5
14FB12D
102
{ACAD_REACTORS
330
14FB12C
102
}
330
14FB12C
100
DictionaryVariables
280
     0
  1
1
  0
ENDSEC
  0
EOF
