  0
SECTION
  2
HEADER
  9
$ACADVER
  1
AC1014
  9
$ACADMAINTVER
 70
     9
  9
$DWGCODEPAGE
  3
ANSI_1252
  9
$INSBASE
 10
1.74875
 20
1.09375
 30
0.0
  9
$EXTMIN
 10
0.0057684207728567
 20
0.3794813959174184
 30
0.0
  9
$EXTMAX
 10
3.490987742519984
 20
1.663750000000001
 30
0.0
  9
$LIMMIN
 10
0.0
 20
0.0
  9
$LIMMAX
 10
18.0
 20
12.0
  9
$ORTHOMODE
 70
     1
  9
$REGENMODE
 70
     1
  9
$FILLMODE
 70
     1
  9
$QTEXTMODE
 70
     0
  9
$MIRRTEXT
 70
     0
  9
$DRAGMODE
 70
     2
  9
$LTSCALE
 40
1.0
  9
$OSMODE
 70
    39
  9
$ATTMODE
 70
     1
  9
$TEXTSIZE
 40
0.125
  9
$TRACEWID
 40
0.05
  9
$TEXTSTYLE
  7
ROMANS
  9
$CLAYER
  8
0
  9
$CELTYPE
  6
BYLAYER
  9
$CECOLOR
 62
   256
  9
$CELTSCALE
 40
1.0
  9
$DELOBJ
 70
     1
  9
$DISPSILH
 70
     1
  9
$DIMSCALE
 40
1.0
  9
$DIMASZ
 40
0.125
  9
$DIMEXO
 40
0.125
  9
$DIMDLI
 40
0.375
  9
$DIMRND
 40
0.0
  9
$DIMDLE
 40
0.0
  9
$DIMEXE
 40
0.125
  9
$DIMTP
 40
0.0
  9
$DIMTM
 40
0.0
  9
$DIMTXT
 40
0.125
  9
$DIMCEN
 40
-0.125
  9
$DIMTSZ
 40
0.0
  9
$DIMTOL
 70
     0
  9
$DIMLIM
 70
     0
  9
$DIMTIH
 70
     1
  9
$DIMTOH
 70
     1
  9
$DIMSE1
 70
     0
  9
$DIMSE2
 70
     0
  9
$DIMTAD
 70
     0
  9
$DIMZIN
 70
     4
  9
$DIMBLK
  1

  9
$DIMASO
 70
     1
  9
$DIMSHO
 70
     1
  9
$DIMPOST
  1

  9
$DIMAPOST
  1

  9
$DIMALT
 70
     0
  9
$DIMALTD
 70
     2
  9
$DIMALTF
 40
25.4
  9
$DIMLFAC
 40
1.0
  9
$DIMTOFL
 70
     0
  9
$DIMTVP
 40
0.0
  9
$DIMTIX
 70
     1
  9
$DIMSOXD
 70
     0
  9
$DIMSAH
 70
     0
  9
$DIMBLK1
  1

  9
$DIMBLK2
  1

  9
$DIMSTYLE
  2
STANDARD
  9
$DIMCLRD
 70
     0
  9
$DIMCLRE
 70
     0
  9
$DIMCLRT
 70
     0
  9
$DIMTFAC
 40
1.0
  9
$DIMGAP
 40
0.09
  9
$DIMJUST
 70
     0
  9
$DIMSD1
 70
     0
  9
$DIMSD2
 70
     0
  9
$DIMTOLJ
 70
     1
  9
$DIMTZIN
 70
     4
  9
$DIMALTZ
 70
     0
  9
$DIMALTTZ
 70
     0
  9
$DIMFIT
 70
     3
  9
$DIMUPT
 70
     0
  9
$DIMUNIT
 70
     2
  9
$DIMDEC
 70
     3
  9
$DIMTDEC
 70
     3
  9
$DIMALTU
 70
     2
  9
$DIMALTTD
 70
     2
  9
$DIMTXSTY
  7
ROMANS
  9
$DIMAUNIT
 70
     0
  9
$LUNITS
 70
     2
  9
$LUPREC
 70
     3
  9
$SKETCHINC
 40
0.1
  9
$FILLETRAD
 40
0.03125
  9
$AUNITS
 70
     0
  9
$AUPREC
 70
     0
  9
$MENU
  1
ACAD
  9
$ELEVATION
 40
0.0
  9
$PELEVATION
 40
0.0
  9
$THICKNESS
 40
0.0
  9
$LIMCHECK
 70
     0
  9
$BLIPMODE
 70
     0
  9
$CHAMFERA
 40
0.0
  9
$CHAMFERB
 40
0.0
  9
$CHAMFERC
 40
0.0
  9
$CHAMFERD
 40
0.0
  9
$SKPOLY
 70
     0
  9
$TDCREATE
 40
2448993.419738194
  9
$TDUPDATE
 40
2452458.292680543
  9
$TDINDWG
 40
0.0006230093
  9
$TDUSRTIMER
 40
0.0006230093
  9
$USRTIMER
 70
     1
  9
$ANGBASE
 50
0.0
  9
$ANGDIR
 70
     0
  9
$PDMODE
 70
     0
  9
$PDSIZE
 40
0.0
  9
$PLINEWID
 40
0.0
  9
$COORDS
 70
     2
  9
$SPLFRAME
 70
     0
  9
$SPLINETYPE
 70
     6
  9
$SPLINESEGS
 70
     8
  9
$ATTDIA
 70
     0
  9
$ATTREQ
 70
     1
  9
$HANDLING
 70
 22529
  9
$HANDSEED
  5
A7E079
  9
$SURFTAB1
 70
     6
  9
$SURFTAB2
 70
     6
  9
$SURFTYPE
 70
     6
  9
$SURFU
 70
     6
  9
$SURFV
 70
     6
  9
$UCSNAME
  2

  9
$UCSORG
 10
0.0
 20
0.0
 30
0.0
  9
$UCSXDIR
 10
1.0
 20
0.0
 30
0.0
  9
$UCSYDIR
 10
0.0
 20
1.0
 30
0.0
  9
$PUCSNAME
  2

  9
$PUCSORG
 10
0.0
 20
0.0
 30
0.0
  9
$PUCSXDIR
 10
1.0
 20
0.0
 30
0.0
  9
$PUCSYDIR
 10
0.0
 20
1.0
 30
0.0
  9
$USERI1
 70
     0
  9
$USERI2
 70
     0
  9
$USERI3
 70
     0
  9
$USERI4
 70
     0
  9
$USERI5
 70
     0
  9
$USERR1
 40
0.0
  9
$USERR2
 40
0.0
  9
$USERR3
 40
0.0
  9
$USERR4
 40
0.0
  9
$USERR5
 40
0.0
  9
$WORLDVIEW
 70
     1
  9
$SHADEDGE
 70
     3
  9
$SHADEDIF
 70
    70
  9
$TILEMODE
 70
     1
  9
$MAXACTVP
 70
    16
  9
$PINSBASE
 10
1.112054318971702
 20
50.00000000000001
 30
1.820121956333899
  9
$PLIMCHECK
 70
     0
  9
$PEXTMIN
 10
1.000000000000000E+20
 20
1.000000000000000E+20
 30
1.000000000000000E+20
  9
$PEXTMAX
 10
-1.000000000000000E+20
 20
-1.000000000000000E+20
 30
-1.000000000000000E+20
  9
$PLIMMIN
 10
0.0
 20
0.0
  9
$PLIMMAX
 10
12.0
 20
9.0
  9
$UNITMODE
 70
     0
  9
$VISRETAIN
 70
     0
  9
$PLINEGEN
 70
     1
  9
$PSLTSCALE
 70
     0
  9
$TREEDEPTH
 70
  3020
  9
$PICKSTYLE
 70
     1
  9
$CMLSTYLE
  2
STANDARD
  9
$CMLJUST
 70
     0
  9
$CMLSCALE
 40
1.0
  9
$PROXYGRAPHICS
 70
     1
  9
$MEASUREMENT
 70
     0
  0
ENDSEC
  0
SECTION
  2
CLASSES
  0
CLASS
  1
LWPOLYLINE
  2
AcDbPolyline
  3
AutoCAD 2000
 90
        0
280
     0
281
     1
  0
CLASS
  1
ACDBDICTIONARYWDFLT
  2
AcDbDictionaryWithDefault
  3
AutoCAD 2000
 90
        0
280
     0
281
     0
  0
CLASS
  1
ACDBPLACEHOLDER
  2
AcDbPlaceHolder
  3
AutoCAD 2000
 90
        0
280
     0
281
     0
  0
CLASS
  1
LAYOUT
  2
AcDbLayout
  3
AutoCAD 2000
 90
        0
280
     0
281
     0
  0
CLASS
  1
DICTIONARYVAR
  2
AcDbDictionaryVar
  3
AutoCAD 2000
 90
        0
280
     0
281
     0
  0
CLASS
  1
LONG_TRANSACTION
  2
AcDbLongTransaction
  3
AutoCAD 2000
 90
        0
280
     0
281
     0
  0
CLASS
  1
LWPOLYLINE
  2
AcDbPolyline
  3
AutoCAD 2000
 90
        0
280
     0
281
     1
  0
CLASS
  1
HATCH
  2
AcDbHatch
  3
AutoCAD 2000
 90
        0
280
     0
281
     1
  0
CLASS
  1
XRECORD
  2
AcDbXrecord
  3
AutoCAD 2000
 90
        0
280
     0
281
     0
  0
ENDSEC
  0
SECTION
  2
TABLES
  0
TABLE
  2
VPORT
  5
A7E020
330
0
100
AcDbSymbolTable
 70
     2
  0
VPORT
  5
A7E054
330
A7E020
100
AcDbSymbolTableRecord
100
AcDbViewportTableRecord
  2
*ACTIVE
 70
     0
 10
0.0
 20
0.0
 11
1.0
 21
1.0
 12
4.724673114498262
 22
1.02136232683128
 13
0.0
 23
0.0
 14
0.015625
 24
0.015625
 15
0.0
 25
0.0
 16
0.0
 26
0.0
 36
1.0
 17
0.0
 27
0.0
 37
0.0
 40
2.282647215150728
 41
4.320930232558139
 42
50.0
 43
0.0
 44
0.0
 50
0.0
 51
0.0
 71
     0
 72
  2000
 73
     1
 74
     0
 75
     1
 76
     0
 77
     0
 78
     0
  0
ENDTAB
  0
TABLE
  2
LTYPE
  5
A7E01D
330
0
100
AcDbSymbolTable
 70
     1
  0
LTYPE
  5
A7E02A
330
A7E01D
100
AcDbSymbolTableRecord
100
AcDbLinetypeTableRecord
  2
BYBLOCK
 70
     0
  3

 72
    65
 73
     0
 40
0.0
  0
LTYPE
  5
A7E02B
330
A7E01D
100
AcDbSymbolTableRecord
100
AcDbLinetypeTableRecord
  2
BYLAYER
 70
     0
  3

 72
    65
 73
     0
 40
0.0
  0
LTYPE
  5
A7E02C
330
A7E01D
100
AcDbSymbolTableRecord
100
AcDbLinetypeTableRecord
  2
CONTINUOUS
 70
     0
  3
Solid line
 72
    65
 73
     0
 40
0.0
  0
ENDTAB
  0
TABLE
  2
LAYER
  5
A7E01A
330
0
100
AcDbSymbolTable
 70
     2
  0
LAYER
  5
A7E027
330
A7E01A
100
AcDbSymbolTableRecord
100
AcDbLayerTableRecord
  2
0
 70
     0
 62
     7
  6
CONTINUOUS
  0
LAYER
  5
A7E037
330
A7E01A
100
AcDbSymbolTableRecord
100
AcDbLayerTableRecord
  2
TEXT
 70
     0
 62
     3
  6
CONTINUOUS
  0
ENDTAB
  0
TABLE
  2
STYLE
  5
A7E01B
330
0
100
AcDbSymbolTable
 70
     3
  0
STYLE
  5
A7E028
330
A7E01B
100
AcDbSymbolTableRecord
100
AcDbTextStyleTableRecord
  2
STANDARD
 70
     0
 40
0.0
 41
1.0
 50
0.0
 71
     0
 42
0.3125
  3
txt
  4

  0
STYLE
  5
A7E034
330
A7E01B
100
AcDbSymbolTableRecord
100
AcDbTextStyleTableRecord
  2
ITALICC
 70
     0
 40
0.0
 41
1.0
 50
0.0
 71
     0
 42
0.125
  3
italicc
  4

  0
STYLE
  5
A7E044
330
A7E01B
100
AcDbSymbolTableRecord
100
AcDbTextStyleTableRecord
  2
ROMANS
 70
     0
 40
0.0
 41
1.0
 50
0.0
 71
     0
 42
0.125
  3
romans.shx
  4

  0
ENDTAB
  0
TABLE
  2
VIEW
  5
A7E01E
330
0
100
AcDbSymbolTable
 70
     0
  0
ENDTAB
  0
TABLE
  2
UCS
  5
A7E01F
330
0
100
AcDbSymbolTable
 70
     0
  0
ENDTAB
  0
TABLE
  2
APPID
  5
A7E021
330
0
100
AcDbSymbolTable
 70
     1
  0
APPID
  5
A7E029
330
A7E021
100
AcDbSymbolTableRecord
100
AcDbRegAppTableRecord
  2
ACAD
 70
     0
  0
ENDTAB
  0
TABLE
  2
DIMSTYLE
  5
A7E022
330
0
100
AcDbSymbolTable
 70
     1
  0
DIMSTYLE
105
A7E03C
330
A7E022
100
AcDbSymbolTableRecord
100
AcDbDimStyleTableRecord
  2
STANDARD
 70
     0
  3

  4

  5

  6

  7

 40
1.0
 41
0.125
 42
0.125
 43
0.375
 44
0.125
 45
0.0
 46
0.0
 47
0.0
 48
0.0
140
0.125
141
-0.125
142
0.0
143
25.4
144
1.0
145
0.0
146
1.0
147
0.09
 71
     0
 72
     0
 73
     1
 74
     1
 75
     0
 76
     0
 77
     0
 78
     4
170
     0
171
     2
172
     0
173
     0
174
     1
175
     0
176
     0
177
     0
178
     0
270
     2
271
     3
272
     3
273
     2
274
     2
340
A7E044
275
     0
280
     0
281
     0
282
     0
283
     1
284
     4
285
     0
286
     0
287
     3
288
     0
  0
ENDTAB
  0
TABLE
  2
BLOCK_RECORD
  5
A7E019
330
0
100
AcDbSymbolTable
 70
     0
  0
BLOCK_RECORD
  5
A7E030
102
{ACAD_XDICTIONARY
360
A7E077
102
}
330
A7E019
100
AcDbSymbolTableRecord
100
AcDbBlockTableRecord
  2
*MODEL_SPACE
  0
BLOCK_RECORD
  5
A7E02D
102
{ACAD_XDICTIONARY
360
A7E075
102
}
330
A7E019
100
AcDbSymbolTableRecord
100
AcDbBlockTableRecord
  2
*PAPER_SPACE
  0
ENDTAB
  0
ENDSEC
  0
SECTION
  2
BLOCKS
  0
BLOCK
  5
A7E03A
330
A7E030
100
AcDbEntity
  8
0
100
AcDbBlockBegin
  2
*MODEL_SPACE
 70
     0
 10
0.0
 20
0.0
 30
0.0
  3
*MODEL_SPACE
  1

  0
ENDBLK
  5
A7E03B
330
A7E030
100
AcDbEntity
  8
0
100
AcDbBlockEnd
  0
BLOCK
  5
A7E038
330
A7E02D
100
AcDbEntity
 67
     1
  8
0
100
AcDbBlockBegin
  2
*PAPER_SPACE
 70
     0
 10
0.0
 20
0.0
 30
0.0
  3
*PAPER_SPACE
  1

  0
ENDBLK
  5
A7E039
330
A7E02D
100
AcDbEntity
 67
     1
  8
0
100
AcDbBlockEnd
  0
ENDSEC
  0
SECTION
  2
ENTITIES
  0
LWPOLYLINE
  5
A7CC6E
330
A7E030
100
AcDbEntity
  8
0
100
AcDbPolyline
 90
       19
 70
     1
 43
0.0
 10
1.898749999999999
 20
1.328749999999999
 10
1.898749999999999
 20
1.63375
 42
-0.9999999999999998
 10
1.95875
 20
1.63375
 10
1.958749999999999
 20
1.113749999999999
 42
-0.414213562373095
 10
1.938749999999999
 20
1.09375
 10
1.74875
 20
1.09375
 10
1.558749999999999
 20
1.09375
 42
-0.4142135623730951
 10
1.53875
 20
1.113750000000001
 10
1.53875
 20
1.63375
 42
-0.9999999999999998
 10
1.598749999999999
 20
1.63375
 10
1.598749999999999
 20
1.328750000000001
 10
1.699675227118881
 20
1.328750000000001
 10
1.7195
 20
1.294412486121389
 42
0.7673269879789602
 10
1.74875
 20
1.185249999999999
 42
0.7673269879789601
 10
1.778
 20
1.294412486121389
 10
1.797824772881118
 20
1.328749999999999
 10
1.842749999999999
 20
1.328749999999999
 10
1.852749999999999
 20
1.318749999999999
 10
1.86275
 20
1.328749999999999
  0
TEXT
  5
A7DEDB
330
A7E030
100
AcDbEntity
  8
TEXT
100
AcDbText
 10
0.9957738095238099
 20
0.8375
 30
0.0
 40
0.125
  1
PART #110026
  7
ITALICC
 72
     1
 11
1.74875
 21
0.8375
 31
0.0
100
AcDbText
  0
TEXT
  5
A7DEDC
330
A7E030
100
AcDbEntity
  8
TEXT
100
AcDbText
 10
2.16205515825032
 20
0.3905773573276248
 30
0.0
 40
0.0522247191011236
  1
Phone  1-800-328-2495
 41
1.272321428571429
 72
     5
 11
3.490987742519984
 21
0.3905773573276248
 31
0.0
100
AcDbText
  0
TEXT
  5
A7DEDD
330
A7E030
100
AcDbEntity
  8
TEXT
100
AcDbText
 10
2.16205515825032
 20
0.6703526382265013
 30
0.0
 40
0.0522247191011236
  1
Stylmark  Incorporated
 41
1.221428571428573
 72
     5
 11
3.490987742519984
 21
0.6703526382265013
 31
0.0
100
AcDbText
  0
TEXT
  5
A7DEDE
330
A7E030
100
AcDbEntity
  8
TEXT
100
AcDbText
 10
2.16205515825032
 20
0.5770942112602091
 30
0.0
 40
0.0522247191011236
  1
6536 Main St. N.E. * P.O. Box 32008
 41
0.8388932496075366
 72
     5
 11
3.490987742519984
 21
0.5770942112602091
 31
0.0
100
AcDbText
  0
TEXT
  5
A7DEDF
330
A7E030
100
AcDbEntity
  8
TEXT
100
AcDbText
 10
2.16205515825032
 20
0.483835784293917
 30
0.0
 40
0.0522247191011236
  1
Minneapolis, MN 55432-0008
 41
1.11444212721585
 72
     5
 11
3.490987742519984
 21
0.483835784293917
 31
0.0
100
AcDbText
  0
LWPOLYLINE
  5
A7DEE0
330
A7E030
100
AcDbEntity
  8
TEXT
100
AcDbPolyline
 90
        3
 70
     0
 43
0.0006660908203125
 10
0.006101466183013
 20
0.5042221199650597
 10
0.006101466183013
 20
0.390986680511932
 10
0.1193369056361353
 20
0.390986680511932
  0
LWPOLYLINE
  5
A7DEE5
330
A7E030
100
AcDbEntity
  8
TEXT
100
AcDbPolyline
 90
        3
 70
     0
 43
0.0006660908203125
 10
0.0327450989955105
 20
0.5042221199650597
 10
0.0327450989955105
 20
0.4176303133244331
 10
0.1193369056361353
 20
0.4176303133244331
  0
LWPOLYLINE
  5
A7DEEA
330
A7E030
100
AcDbEntity
  8
TEXT
100
AcDbPolyline
 90
        2
 70
     0
 43
0.0001332181640625
 10
0.0793714564173873
 20
0.5142134822697449
 10
0.006101466183013
 20
0.5042221199650597
  0
LWPOLYLINE
  5
A7DEEE
330
A7E030
100
AcDbEntity
  8
TEXT
100
AcDbPolyline
 90
        2
 70
     0
 43
0.0001332181640625
 10
0.0327450989955105
 20
0.5042221199650597
 10
0.0926932728236378
 20
0.5142134822697449
  0
LWPOLYLINE
  5
A7DEF2
330
A7E030
100
AcDbEntity
  8
TEXT
100
AcDbPolyline
 90
        2
 70
     0
 43
0.0001332181640625
 10
0.0327450989955105
 20
0.4176303133244331
 10
0.0926932728236378
 20
0.4775784871525586
  0
LWPOLYLINE
  5
A7DEF6
330
A7E030
100
AcDbEntity
  8
TEXT
100
AcDbPolyline
 90
        3
 70
     0
 43
0.0006660908203125
 10
0.1193369056361353
 20
0.6574230086369353
 10
0.006101466183013
 20
0.6574230086369353
 10
0.006101466183013
 20
0.5441875691838077
  0
LWPOLYLINE
  5
A7DEFB
330
A7E030
100
AcDbEntity
  8
TEXT
100
AcDbPolyline
 90
        3
 70
     0
 43
0.0006660908203125
 10
0.1193369056361353
 20
0.6307793758244343
 10
0.0327450989955105
 20
0.6307793758244343
 10
0.0327450989955105
 20
0.5441875691838077
  0
LWPOLYLINE
  5
A7DF00
330
A7E030
100
AcDbEntity
  8
TEXT
100
AcDbPolyline
 90
        2
 70
     0
 43
0.0001332181640625
 10
0.0327450989955105
 20
0.6307793758244343
 10
0.0926932728236361
 20
0.5708312019963087
  0
LWPOLYLINE
  5
A7DF04
330
A7E030
100
AcDbEntity
  8
TEXT
100
AcDbPolyline
 90
        2
 70
     0
 43
0.0001332181640625
 10
0.0327450989955105
 20
0.5441875691838077
 10
0.0926932728236361
 20
0.5341962068791189
  0
LWPOLYLINE
  5
A7DF08
330
A7E030
100
AcDbEntity
  8
TEXT
100
AcDbPolyline
 90
        2
 70
     0
 43
0.0001332181640625
 10
0.006101466183013
 20
0.5441875691838077
 10
0.0793714564173873
 20
0.5341962068791189
  0
LWPOLYLINE
  5
A7DF0C
330
A7E030
100
AcDbEntity
  8
TEXT
100
AcDbPolyline
 90
        2
 70
     0
 43
0.0006660908203125
 10
0.0327450989955105
 20
0.5042221199650597
 10
0.006101466183013
 20
0.5042221199650597
  0
LWPOLYLINE
  5
A7DF10
330
A7E030
100
AcDbEntity
  8
TEXT
100
AcDbPolyline
 90
        2
 70
     0
 43
0.0006660908203125
 10
0.0327450989955105
 20
0.5441875691838077
 10
0.006101466183013
 20
0.5441875691838077
  0
LINE
  5
A7DF14
330
A7E030
100
AcDbEntity
  8
TEXT
100
AcDbLine
 10
1.52129189530951
 20
0.5931463139801663
 30
0.0
 11
1.414085621922221
 21
0.5931463139801663
 31
0.0
  0
LINE
  5
A7DF15
330
A7E030
100
AcDbEntity
  8
TEXT
100
AcDbLine
 10
1.550322793653988
 20
0.6574230086369317
 30
0.0
 11
1.415490884436929
 21
0.6574230086369317
 31
0.0
  0
ARC
  5
A7DF16
330
A7E030
100
AcDbEntity
  8
TEXT
100
AcDbCircle
 10
1.474804980830246
 20
0.4881857593739154
 30
0.0
 40
0.0676855811441166
100
AcDbArc
 50
90.0
 51
153.7768192527749
  0
LWPOLYLINE
  5
A7DF17
330
A7E030
100
AcDbEntity
  8
TEXT
100
AcDbPolyline
 90
        2
 70
     0
 43
0.0
 10
1.413053126467411
 20
0.4344409205988589
 42
0.2901071551932823
 10
1.456129059335046
 20
0.3909499756484207
 42
5.328517124445801
  0
ARC
  5
A7DF1B
330
A7E030
100
AcDbEntity
  8
TEXT
100
AcDbCircle
 10
0.7696736031587611
 20
0.4507423669864706
 30
0.0
 40
0.0601160179737537
100
AcDbArc
 50
180.0000000000003
 51
264.0521544866073
  0
LINE
  5
A7DF1C
330
A7E030
100
AcDbEntity
  8
TEXT
100
AcDbLine
 10
0.7731889587843089
 20
0.6918109262310699
 30
0.0
 11
0.7131463539403019
 21
0.6918109262310699
 31
0.0
  0
ARC
  5
A7DF1D
330
A7E030
100
AcDbEntity
  8
TEXT
100
AcDbCircle
 10
0.5374146010417905
 20
0.57533554919043
 30
0.0
 40
0.0820874594465043
100
AcDbArc
 50
90.0
 51
270.0
  0
LWPOLYLINE
  5
A7DF1E
330
A7E030
100
AcDbEntity
  8
TEXT
100
AcDbPolyline
 90
        2
 70
     0
 43
0.0001332181640625
 10
0.1293282679408259
 20
0.5841530184025557
 10
0.1193369056361353
 20
0.6574230086369353
  0
LWPOLYLINE
  5
A7DF22
330
A7E030
100
AcDbEntity
  8
TEXT
100
AcDbPolyline
 90
        2
 70
     0
 43
0.0001332181640625
 10
0.1193369056361353
 20
0.6307793758244343
 10
0.1293282679408259
 20
0.5708312019963087
  0
LWPOLYLINE
  5
A7DF26
330
A7E030
100
AcDbEntity
  8
TEXT
100
AcDbPolyline
 90
        3
 70
     0
 43
0.0006660908203125
 10
0.2725377943080127
 20
0.5441875691838077
 10
0.2725377943080127
 20
0.6574230086369353
 10
0.1593023548548869
 20
0.6574230086369353
  0
LWPOLYLINE
  5
A7DF2B
330
A7E030
100
AcDbEntity
  8
TEXT
100
AcDbPolyline
 90
        3
 70
     0
 43
0.0006660908203125
 10
0.2458941614955117
 20
0.5441875691838077
 10
0.2458941614955117
 20
0.6307793758244343
 10
0.1593023548548869
 20
0.6307793758244343
  0
LWPOLYLINE
  5
A7DF30
330
A7E030
100
AcDbEntity
  8
TEXT
100
AcDbPolyline
 90
        2
 70
     0
 43
0.0001332181640625
 10
0.2458941614955117
 20
0.6307793758244343
 10
0.1859459876673879
 20
0.5708312019963087
  0
LWPOLYLINE
  5
A7DF34
330
A7E030
100
AcDbEntity
  8
TEXT
100
AcDbPolyline
 90
        2
 70
     0
 43
0.0001332181640625
 10
0.1593023548548869
 20
0.6307793758244343
 10
0.1493109925501981
 20
0.5708312019963087
  0
LWPOLYLINE
  5
A7DF38
330
A7E030
100
AcDbEntity
  8
TEXT
100
AcDbPolyline
 90
        2
 70
     0
 43
0.0001332181640625
 10
0.1593023548548869
 20
0.6574230086369353
 10
0.1493109925501981
 20
0.5841530184025557
  0
LWPOLYLINE
  5
A7DF3C
330
A7E030
100
AcDbEntity
  8
TEXT
100
AcDbPolyline
 90
        2
 70
     0
 43
0.0001332181640625
 10
0.1992678040736366
 20
0.5341962068791189
 10
0.2725377943080127
 20
0.5441875691838077
  0
LWPOLYLINE
  5
A7DF40
330
A7E030
100
AcDbEntity
  8
TEXT
100
AcDbPolyline
 90
        2
 70
     0
 43
0.0001332181640625
 10
0.2458941614955117
 20
0.5441875691838077
 10
0.1859459876673879
 20
0.5341962068791189
  0
LWPOLYLINE
  5
A7DF44
330
A7E030
100
AcDbEntity
  8
TEXT
100
AcDbPolyline
 90
        2
 70
     0
 43
0.0001332181640625
 10
0.2725377943080127
 20
0.5042221199650597
 10
0.1992678040736366
 20
0.5142134822697449
  0
LWPOLYLINE
  5
A7DF48
330
A7E030
100
AcDbEntity
  8
TEXT
100
AcDbPolyline
 90
        2
 70
     0
 43
0.0001332181640625
 10
0.2458941614955117
 20
0.5042221199650597
 10
0.1859459876673879
 20
0.5142134822697449
  0
LWPOLYLINE
  5
A7DF4C
330
A7E030
100
AcDbEntity
  8
TEXT
100
AcDbPolyline
 90
        2
 70
     0
 43
0.0001332181640625
 10
0.2458941614955117
 20
0.4176303133244331
 10
0.1859459876673879
 20
0.4775784871525586
  0
LWPOLYLINE
  5
A7DF50
330
A7E030
100
AcDbEntity
  8
TEXT
100
AcDbPolyline
 90
        3
 70
     0
 43
0.0006660908203125
 10
0.1593023548548869
 20
0.4176303133244331
 10
0.2458941614955117
 20
0.4176303133244331
 10
0.2458941614955117
 20
0.5042221199650597
  0
LWPOLYLINE
  5
A7DF55
330
A7E030
100
AcDbEntity
  8
TEXT
100
AcDbPolyline
 90
        3
 70
     0
 43
0.0006660908203125
 10
0.1593023548548869
 20
0.390986680511932
 10
0.2725377943080127
 20
0.390986680511932
 10
0.2725377943080127
 20
0.5042221199650597
  0
LWPOLYLINE
  5
A7DF5A
330
A7E030
100
AcDbEntity
  8
TEXT
100
AcDbPolyline
 90
        5
 70
     0
 43
0.0001332181640625
 10
0.1293282679408259
 20
0.4642566707463081
 10
0.1293282679408259
 20
0.4775784871525586
 10
0.0926932728236378
 20
0.4775784871525586
 10
0.0926932728236378
 20
0.5142134822697449
 10
0.0793714564173873
 20
0.5142134822697449
  0
LWPOLYLINE
  5
A7DF61
330
A7E030
100
AcDbEntity
  8
TEXT
100
AcDbPolyline
 90
        2
 70
     0
 43
0.0006660908203125
 10
0.1193369056361353
 20
0.4176303133244331
 10
0.1193369056361353
 20
0.390986680511932
  0
LWPOLYLINE
  5
A7DF65
330
A7E030
100
AcDbEntity
  8
TEXT
100
AcDbPolyline
 90
        2
 70
     0
 43
0.0001332181640625
 10
0.1193369056361353
 20
0.4176303133244331
 10
0.1293282679408259
 20
0.4775784871525586
  0
LWPOLYLINE
  5
A7DF69
330
A7E030
100
AcDbEntity
  8
TEXT
100
AcDbPolyline
 90
        2
 70
     0
 43
0.0001332181640625
 10
0.1193369056361353
 20
0.390986680511932
 10
0.1293282679408259
 20
0.4642566707463081
  0
LWPOLYLINE
  5
A7DF6D
330
A7E030
100
AcDbEntity
  8
TEXT
100
AcDbPolyline
 90
        5
 70
     0
 43
0.0001332181640625
 10
0.0793714564173873
 20
0.5341962068791189
 10
0.0926932728236361
 20
0.5341962068791189
 10
0.0926932728236361
 20
0.5708312019963087
 10
0.1293282679408259
 20
0.5708312019963087
 10
0.1293282679408259
 20
0.5841530184025557
  0
LWPOLYLINE
  5
A7DF74
330
A7E030
100
AcDbEntity
  8
TEXT
100
AcDbPolyline
 90
        5
 70
     0
 43
0.0001332181640625
 10
0.1493109925501981
 20
0.5841530184025557
 10
0.1493109925501981
 20
0.5708312019963087
 10
0.1859459876673879
 20
0.5708312019963087
 10
0.1859459876673879
 20
0.5341962068791189
 10
0.1992678040736366
 20
0.5341962068791189
  0
LWPOLYLINE
  5
A7DF7B
330
A7E030
100
AcDbEntity
  8
TEXT
100
AcDbPolyline
 90
        2
 70
     0
 43
0.0001332181640625
 10
0.1593023548548869
 20
0.4176303133244331
 10
0.1493109925501981
 20
0.4775784871525586
  0
LWPOLYLINE
  5
A7DF7F
330
A7E030
100
AcDbEntity
  8
TEXT
100
AcDbPolyline
 90
        2
 70
     0
 43
0.0001332181640625
 10
0.1493109925501981
 20
0.4642566707463081
 10
0.1593023548548869
 20
0.390986680511932
  0
LWPOLYLINE
  5
A7DF83
330
A7E030
100
AcDbEntity
  8
TEXT
100
AcDbPolyline
 90
        2
 70
     0
 43
0.0006660908203125
 10
0.1593023548548869
 20
0.4176303133244331
 10
0.1593023548548869
 20
0.390986680511932
  0
LWPOLYLINE
  5
A7DF87
330
A7E030
100
AcDbEntity
  8
TEXT
100
AcDbPolyline
 90
        5
 70
     0
 43
0.0001332181640625
 10
0.1992678040736366
 20
0.5142134822697449
 10
0.1859459876673879
 20
0.5142134822697449
 10
0.1859459876673879
 20
0.4775784871525586
 10
0.1493109925501981
 20
0.4775784871525586
 10
0.1493109925501981
 20
0.4642566707463081
  0
LWPOLYLINE
  5
A7DF8E
330
A7E030
100
AcDbEntity
  8
TEXT
100
AcDbPolyline
 90
        2
 70
     0
 43
0.0006660908203125
 10
0.2458941614955117
 20
0.5441875691838077
 10
0.2725377943080127
 20
0.5441875691838077
  0
LWPOLYLINE
  5
A7DF92
330
A7E030
100
AcDbEntity
  8
TEXT
100
AcDbPolyline
 90
        2
 70
     0
 43
0.0006660908203125
 10
0.2458941614955117
 20
0.5042221199650597
 10
0.2725377943080127
 20
0.5042221199650597
  0
LINE
  5
A7DF96
330
A7E030
100
AcDbEntity
  8
TEXT
100
AcDbLine
 10
0.5426519311560377
 20
0.5931463139801663
 30
0.0
 11
0.709557585185009
 21
0.5931463139801663
 31
0.0
  0
LINE
  5
A7DF97
330
A7E030
100
AcDbEntity
  8
TEXT
100
AcDbLine
 10
0.6082520674003387
 20
0.5573415923695384
 30
0.0
 11
0.5426519311560377
 21
0.5573415923695384
 31
0.0
  0
LINE
  5
A7DF98
330
A7E030
100
AcDbEntity
  8
TEXT
100
AcDbLine
 10
0.4553271415952861
 20
0.3909499756484207
 30
0.0
 11
0.6082520674003387
 21
0.3909499756484207
 31
0.0
  0
LINE
  5
A7DF99
330
A7E030
100
AcDbEntity
  8
TEXT
100
AcDbLine
 10
0.6131924413066184
 20
0.4593069819818601
 30
0.0
 11
0.4553271415952843
 21
0.4593069819818601
 31
0.0
  0
LINE
  5
A7DF9A
330
A7E030
100
AcDbEntity
  8
TEXT
100
AcDbLine
 10
0.5374146010417896
 20
0.4932480897439247
 30
0.0
 11
0.6131924413066184
 21
0.4932480897439247
 31
0.0
  0
ARC
  5
A7DF9B
330
A7E030
100
AcDbEntity
  8
TEXT
100
AcDbCircle
 10
0.5426519311560386
 20
0.5752439531748541
 30
0.0
 40
0.017902360805315
100
AcDbArc
 50
90.0
 51
270.0
  0
LINE
  5
A7DF9C
330
A7E030
100
AcDbEntity
  8
TEXT
100
AcDbLine
 10
0.4553271415952843
 20
0.4593069819818601
 30
0.0
 11
0.4553271415952861
 21
0.3909499756484207
 31
0.0
  0
LINE
  5
A7DF9D
330
A7E030
100
AcDbEntity
  8
TEXT
100
AcDbLine
 10
0.709557585185009
 20
0.5931463139801663
 30
0.0
 11
0.709557585185009
 21
0.4507423669864706
 31
0.0
  0
ARC
  5
A7DF9E
330
A7E030
100
AcDbEntity
  8
TEXT
100
AcDbCircle
 10
0.6082520674003396
 20
0.4741457840089778
 30
0.0
 40
0.0831958083605586
100
AcDbArc
 50
270.0
 51
90.0
  0
ARC
  5
A7DF9F
330
A7E030
100
AcDbEntity
  8
TEXT
100
AcDbCircle
 10
0.6131924413066193
 20
0.4762775358628942
 30
0.0
 40
0.0169705538810321
100
AcDbArc
 50
270.0
 51
90.0
  0
LWPOLYLINE
  5
A7DFA0
330
A7E030
100
AcDbEntity
  8
TEXT
100
AcDbPolyline
 90
        2
 70
     0
 43
0.0006660908203125
 10
0.1193369056361353
 20
0.6307793758244343
 10
0.1193369056361353
 20
0.6574230086369353
  0
LWPOLYLINE
  5
A7DFA4
330
A7E030
100
AcDbEntity
  8
TEXT
100
AcDbPolyline
 90
        2
 70
     0
 43
0.0006660908203125
 10
0.1593023548548869
 20
0.6307793758244343
 10
0.1593023548548869
 20
0.6574230086369353
  0
LINE
  5
A7DFA8
330
A7E030
100
AcDbEntity
  8
TEXT
100
AcDbLine
 10
0.7131463539403019
 20
0.6574230086369317
 30
0.0
 11
0.5374146010417896
 21
0.6574230086369317
 31
0.0
  0
LINE
  5
A7DFA9
330
A7E030
100
AcDbEntity
  8
TEXT
100
AcDbLine
 10
0.7131463539403019
 20
0.6918109262310699
 30
0.0
 11
0.7131463539403019
 21
0.6574230086369317
 31
0.0
  0
LINE
  5
A7DFAA
330
A7E030
100
AcDbEntity
  8
TEXT
100
AcDbLine
 10
0.903618245960154
 20
0.5565510125238112
 30
0.0
 11
0.8449879249282162
 21
0.6574230086369317
 31
0.0
  0
LINE
  5
A7DFAB
330
A7E030
100
AcDbEntity
  8
TEXT
100
AcDbLine
 10
0.9623668087660195
 20
0.6574230086369317
 30
0.0
 11
0.903618245960154
 21
0.5565510125238112
 31
0.0
  0
LINE
  5
A7DFAC
330
A7E030
100
AcDbEntity
  8
TEXT
100
AcDbLine
 10
1.05929743412576
 20
0.47333781375142
 30
0.0
 11
1.05929743412576
 21
0.7254344863757423
 31
0.0
  0
LINE
  5
A7DFAD
330
A7E030
100
AcDbEntity
  8
TEXT
100
AcDbLine
 10
1.09160928826342
 20
0.6574230086369317
 30
0.0
 11
1.09160928826342
 21
0.4565588019045235
 31
0.0
  0
LINE
  5
A7DFAE
330
A7E030
100
AcDbEntity
  8
TEXT
100
AcDbLine
 10
1.09160928826342
 20
0.4565588019045235
 30
0.0
 11
1.074615651378819
 21
0.4565588019045235
 31
0.0
  0
LINE
  5
A7DFAF
330
A7E030
100
AcDbEntity
  8
TEXT
100
AcDbLine
 10
1.060437007621955
 20
0.3909499756484207
 30
0.0
 11
1.15844034132139
 21
0.3909499756484207
 31
0.0
  0
LINE
  5
A7DFB0
330
A7E030
100
AcDbEntity
  8
TEXT
100
AcDbLine
 10
0.8940180089631997
 20
0.4109084817534337
 30
0.0
 11
0.9913177150566443
 21
0.5752586926887018
 31
0.0
  0
ARC
  5
A7DFB1
330
A7E030
100
AcDbEntity
  8
TEXT
100
AcDbCircle
 10
0.8599744490509857
 20
0.4304976979221165
 30
0.0
 40
0.0392772371940762
100
AcDbArc
 50
270.1604552698595
 51
330.0831797321295
  0
LINE
  5
A7DFB2
330
A7E030
100
AcDbEntity
  8
TEXT
100
AcDbLine
 10
0.7634441926651146
 20
0.3909499756484207
 30
0.0
 11
0.8600844437401089
 21
0.391220614746703
 31
0.0
  0
LWPOLYLINE
  5
A7DFB3
330
A7E030
100
AcDbEntity
  8
TEXT
100
AcDbPolyline
 90
        6
 70
     1
 43
0.0
 10
0.8059679962402642
 20
0.5931463139801663
 10
0.7756514020200561
 20
0.5931463139801663
 10
0.7756514020200561
 20
0.470035315925272
 42
0.407328721240804
 10
0.7871950531815325
 20
0.4582164012488859
 10
0.8478167522262632
 20
0.4582164012488859
 10
0.8652820926335811
 20
0.491028630292365
  0
LINE
  5
A7DFBB
330
A7E030
100
AcDbEntity
  8
TEXT
100
AcDbLine
 10
0.9913177150566443
 20
0.5752586926887018
 30
0.0
 11
0.9913177150566443
 21
0.4425013178633455
 31
0.0
  0
ARC
  5
A7DFBC
330
A7E030
100
AcDbEntity
  8
TEXT
100
AcDbCircle
 10
1.074615651378817
 20
0.471940608147949
 30
0.0
 40
0.0153818062434269
100
AcDbArc
 50
174.7883570302258
 51
270.0
  0
LWPOLYLINE
  5
A7DFBD
330
A7E030
100
AcDbEntity
  8
TEXT
100
AcDbPolyline
 90
        2
 70
     0
 43
0.0
 10
0.9913177150566426
 20
0.442501317863349
 42
0.3318488747599744
 10
1.060437007621955
 20
0.3909499756484207
 42
-6.868794160588311
  0
LINE
  5
A7DFC1
330
A7E030
100
AcDbEntity
  8
TEXT
100
AcDbLine
 10
1.215829410310651
 20
0.3909499756484207
 30
0.0
 11
1.282887457092491
 21
0.3909499756484207
 31
0.0
  0
LINE
  5
A7DFC2
330
A7E030
100
AcDbEntity
  8
TEXT
100
AcDbLine
 10
1.215829410310651
 20
0.5855925248140564
 30
0.0
 11
1.215829410310651
 21
0.3909499756484207
 31
0.0
  0
LINE
  5
A7DFC3
330
A7E030
100
AcDbEntity
  8
TEXT
100
AcDbLine
 10
1.15844034132139
 20
0.5931463139801663
 30
0.0
 11
1.208275621144537
 21
0.5931463139801663
 31
0.0
  0
LINE
  5
A7DFC4
330
A7E030
100
AcDbEntity
  8
TEXT
100
AcDbLine
 10
1.15844034132139
 20
0.3909499756484207
 30
0.0
 11
1.15844034132139
 21
0.5931463139801663
 31
0.0
  0
LWPOLYLINE
  5
A7DFC5
330
A7E030
100
AcDbEntity
  8
TEXT
100
AcDbPolyline
 90
        2
 70
     0
 43
0.0
 10
1.208275621144536
 20
0.5931463139801663
 42
-0.4142135623731017
 10
1.215829410310649
 20
0.5855925248140564
 42
-0.9999999999999998
  0
LINE
  5
A7DFC9
330
A7E030
100
AcDbEntity
  8
TEXT
100
AcDbLine
 10
1.414085621922221
 20
0.5931463139801663
 30
0.0
 11
1.414085621922221
 21
0.5180939079059597
 31
0.0
  0
LINE
  5
A7DFCA
330
A7E030
100
AcDbEntity
  8
TEXT
100
AcDbLine
 10
1.282887457092491
 20
0.5931463139801663
 30
0.0
 11
1.337021054013441
 21
0.5931463139801663
 31
0.0
  0
LINE
  5
A7DFCB
330
A7E030
100
AcDbEntity
  8
TEXT
100
AcDbLine
 10
1.282887457092491
 20
0.3909499756484207
 30
0.0
 11
1.282887457092491
 21
0.5931463139801663
 31
0.0
  0
LWPOLYLINE
  5
A7DFCC
330
A7E030
100
AcDbEntity
  8
TEXT
100
AcDbPolyline
 90
        2
 70
     0
 43
0.0
 10
1.337021054013439
 20
0.5931463139801663
 42
-0.4142135623731017
 10
1.344574843179553
 20
0.5855925248140564
 42
-0.9999999999999998
  0
LWPOLYLINE
  5
A7DFD0
330
A7E030
100
AcDbEntity
  8
TEXT
100
AcDbPolyline
 90
        4
 70
     0
 43
0.0
 10
1.344574843179553
 20
0.5855925248140564
 10
1.344574843179553
 20
0.3909499756484207
 10
1.413053126467411
 20
0.3909499756484207
 10
1.413053126467411
 20
0.4344409205988589
 42
-1.714843617202739
  0
LINE
  5
A7DFD6
330
A7E030
100
AcDbEntity
  8
TEXT
100
AcDbLine
 10
0.7731889587843089
 20
0.6574230086369317
 30
0.0
 11
0.7731889587843089
 21
0.6918109262310699
 31
0.0
  0
LINE
  5
A7DFD7
330
A7E030
100
AcDbEntity
  8
TEXT
100
AcDbLine
 10
0.8449879249282162
 20
0.6574230086369317
 30
0.0
 11
0.7731889587843089
 21
0.6574230086369317
 31
0.0
  0
LINE
  5
A7DFD8
330
A7E030
100
AcDbEntity
  8
TEXT
100
AcDbLine
 10
0.9924887215593958
 20
0.6574230086369317
 30
0.0
 11
0.9623668087660195
 21
0.6574230086369317
 31
0.0
  0
LINE
  5
A7DFD9
330
A7E030
100
AcDbEntity
  8
TEXT
100
AcDbLine
 10
0.9924887215593958
 20
0.7254344863757423
 30
0.0
 11
0.9924887215593958
 21
0.6574230086369317
 31
0.0
  0
LINE
  5
A7DFDA
330
A7E030
100
AcDbEntity
  8
TEXT
100
AcDbLine
 10
1.05929743412576
 20
0.7254344863757423
 30
0.0
 11
0.9924887215593958
 21
0.7254344863757423
 31
0.0
  0
LWPOLYLINE
  5
A7DFDB
330
A7E030
100
AcDbEntity
  8
TEXT
100
AcDbPolyline
 90
        3
 70
     0
 43
0.0
 10
1.379709193723763
 20
0.6574230086369353
 10
1.261409034907718
 20
0.6574230086369353
 10
1.261409034907718
 20
0.6302555118760394
 42
-1.960274751411753
  0
LINE
  5
A7DFE0
330
A7E030
100
AcDbEntity
  8
TEXT
100
AcDbLine
 10
1.225627344194557
 20
0.6574230086369317
 30
0.0
 11
1.09160928826342
 21
0.6574230086369317
 31
0.0
  0
LWPOLYLINE
  5
A7DFE1
330
A7E030
100
AcDbEntity
  8
TEXT
100
AcDbPolyline
 90
        2
 70
     0
 43
0.0
 10
1.225627344194557
 20
0.6574230086369353
 42
-0.3328679258950098
 10
1.261409034907718
 20
0.6302555118760394
 42
6.772930709997214
  0
LINE
  5
A7DFE5
330
A7E030
100
AcDbEntity
  8
TEXT
100
AcDbLine
 10
1.415490884436929
 20
0.6574230086369317
 30
0.0
 11
1.415490884436929
 21
0.6291004628672879
 31
0.0
  0
LWPOLYLINE
  5
A7DFE6
330
A7E030
100
AcDbEntity
  8
TEXT
100
AcDbPolyline
 90
        2
 70
     0
 43
0.0
 10
1.379709193723763
 20
0.6574230086369353
 42
-0.3277054968067132
 10
1.415490884436928
 20
0.6291004628672914
 42
6.667889725900311
  0
LINE
  5
A7DFEA
330
A7E030
100
AcDbEntity
  8
TEXT
100
AcDbLine
 10
1.62928273252903
 20
0.5522110300835044
 30
0.0
 11
1.585531961347128
 21
0.6344613060796496
 31
0.0
  0
LINE
  5
A7DFEB
330
A7E030
100
AcDbEntity
  8
TEXT
100
AcDbLine
 10
1.62928273252903
 20
0.6574230086369317
 30
0.0
 11
1.62928273252903
 21
0.5522110300835044
 31
0.0
  0
LINE
  5
A7DFEC
330
A7E030
100
AcDbEntity
  8
TEXT
100
AcDbLine
 10
1.856966471467399
 20
0.5815576822253937
 30
0.0
 11
1.856966471467399
 21
0.7228872144045324
 31
0.0
  0
LINE
  5
A7DFED
330
A7E030
100
AcDbEntity
  8
TEXT
100
AcDbLine
 10
1.904064630023383
 20
0.6574230086369317
 30
0.0
 11
1.856966471467399
 21
0.5815576822253937
 31
0.0
  0
LINE
  5
A7DFEE
330
A7E030
100
AcDbEntity
  8
TEXT
100
AcDbLine
 10
1.914499346787306
 20
0.5475297656959582
 30
0.0
 11
1.979056462753011
 21
0.6574230086369317
 31
0.0
  0
LINE
  5
A7DFEF
330
A7E030
100
AcDbEntity
  8
TEXT
100
AcDbLine
 10
1.793131480244625
 20
0.3909499756484207
 30
0.0
 11
1.857509664563246
 21
0.3909499756484207
 31
0.0
  0
LWPOLYLINE
  5
A7DFF0
330
A7E030
100
AcDbEntity
  8
TEXT
100
AcDbPolyline
 90
        2
 70
     0
 43
0.0
 10
1.633222409834067
 20
0.4344409205988589
 42
-0.2901071551932486
 10
1.590146476966423
 20
0.3909499756484207
 42
-5.328517124445184
  0
ARC
  5
A7DFF4
330
A7E030
100
AcDbEntity
  8
TEXT
100
AcDbCircle
 10
1.521291895309508
 20
0.564786938980169
 30
0.0
 40
0.028359375
100
AcDbArc
 50
25.78218179591245
 51
90.0
  0
LINE
  5
A7DFF5
330
A7E030
100
AcDbEntity
  8
TEXT
100
AcDbLine
 10
1.557092970613631
 20
0.555871340518034
 30
0.0
 11
1.546828210200067
 21
0.5771218800907283
 31
0.0
  0
LINE
  5
A7DFF6
330
A7E030
100
AcDbEntity
  8
TEXT
100
AcDbLine
 10
1.474804980830248
 20
0.555871340518034
 30
0.0
 11
1.557092970613631
 21
0.555871340518034
 31
0.0
  0
LWPOLYLINE
  5
A7DFF7
330
A7E030
100
AcDbEntity
  8
TEXT
100
AcDbPolyline
 90
        4
 70
     1
 43
0.0
 10
1.57002401189653
 20
0.493913953632446
 10
1.481363693236672
 20
0.493913953632446
 42
0.9999999999999998
 10
1.481363693236672
 20
0.4515154131285853
 10
1.57002401189653
 20
0.4515154131285853
 42
1.0
  0
LWPOLYLINE
  5
A7DFFD
330
A7E030
100
AcDbEntity
  8
TEXT
100
AcDbPolyline
 90
        2
 70
     0
 43
0.0
 10
1.456129059335046
 20
0.3909499756484207
 10
1.590146476966423
 20
0.3909499756484207
 42
0.9999999999999998
  0
LINE
  5
A7E001
330
A7E030
100
AcDbEntity
  8
TEXT
100
AcDbLine
 10
1.716483498952062
 20
0.5931463139801663
 30
0.0
 11
1.79313148024462
 21
0.5931463139801663
 31
0.0
  0
LINE
  5
A7E002
330
A7E030
100
AcDbEntity
  8
TEXT
100
AcDbLine
 10
1.79313148024462
 20
0.5931463139801663
 30
0.0
 11
1.793131480244625
 21
0.3909499756484207
 31
0.0
  0
ARC
  5
A7E003
330
A7E030
100
AcDbEntity
  8
TEXT
100
AcDbCircle
 10
1.716483498952061
 20
0.5682404386975036
 30
0.0
 40
0.0249058752826653
100
AcDbArc
 50
89.99971217465335
 51
179.9999999999985
  0
LINE
  5
A7E004
330
A7E030
100
AcDbEntity
  8
TEXT
100
AcDbLine
 10
1.691577623669403
 20
0.3909499756484207
 30
0.0
 11
1.691577623669398
 21
0.5682404810798892
 31
0.0
  0
LWPOLYLINE
  5
A7E005
330
A7E030
100
AcDbEntity
  8
TEXT
100
AcDbPolyline
 90
        2
 70
     0
 43
0.0
 10
1.633222409834067
 20
0.3909499756484207
 10
1.691577623669401
 20
0.3909499756484207
  0
LWPOLYLINE
  5
A7E009
330
A7E030
100
AcDbEntity
  8
TEXT
100
AcDbPolyline
 90
        2
 70
     0
 43
0.0
 10
1.633222409834067
 20
0.4344409205988589
 10
1.633222409834067
 20
0.3909499756484207
  0
LINE
  5
A7E00D
330
A7E030
100
AcDbEntity
  8
TEXT
100
AcDbLine
 10
2.009991570150917
 20
0.3909499756484207
 30
0.0
 11
1.914499346787306
 21
0.5475297656959582
 31
0.0
  0
LINE
  5
A7E00E
330
A7E030
100
AcDbEntity
  8
TEXT
100
AcDbLine
 10
1.93341319777471
 20
0.3909499756484207
 30
0.0
 11
2.009991570150917
 21
0.3909499756484207
 31
0.0
  0
LINE
  5
A7E00F
330
A7E030
100
AcDbEntity
  8
TEXT
100
AcDbLine
 10
1.857509664563246
 20
0.522529544124601
 30
0.0
 11
1.93341319777471
 21
0.3909499756484207
 31
0.0
  0
LINE
  5
A7E010
330
A7E030
100
AcDbEntity
  8
TEXT
100
AcDbLine
 10
1.857509664563246
 20
0.3909499756484207
 30
0.0
 11
1.857509664563246
 21
0.522529544124601
 31
0.0
  0
LINE
  5
A7E011
330
A7E030
100
AcDbEntity
  8
TEXT
100
AcDbLine
 10
1.856966471467399
 20
0.7228872144045324
 30
0.0
 11
1.788651592918125
 21
0.7228872144045324
 31
0.0
  0
ARC
  5
A7E012
330
A7E030
100
AcDbEntity
  8
TEXT
100
AcDbCircle
 10
1.548295853876919
 20
0.6158394415160294
 30
0.0
 40
0.0416329381542859
100
AcDbArc
 50
26.56974201007528
 51
87.20939649401342
  0
LINE
  5
A7E013
330
A7E030
100
AcDbEntity
  8
TEXT
100
AcDbLine
 10
1.69317963882853
 20
0.6574230086369317
 30
0.0
 11
1.62928273252903
 21
0.6574230086369317
 31
0.0
  0
LINE
  5
A7E014
330
A7E030
100
AcDbEntity
  8
TEXT
100
AcDbLine
 10
1.69317963882853
 20
0.6298753587760571
 30
0.0
 11
1.69317963882853
 21
0.6574230086369317
 31
0.0
  0
ARC
  5
A7E015
330
A7E030
100
AcDbEntity
  8
TEXT
100
AcDbCircle
 10
1.724372455891638
 20
0.6261772813546669
 30
0.0
 40
0.0314112657011332
100
AcDbArc
 50
95.88484768694724
 51
173.2388340632136
  0
LINE
  5
A7E016
330
A7E030
100
AcDbEntity
  8
TEXT
100
AcDbLine
 10
1.78865159291812
 20
0.6574230086369317
 30
0.0
 11
1.721151875268603
 21
0.6574230086369317
 31
0.0
  0
LINE
  5
A7E017
330
A7E030
100
AcDbEntity
  8
TEXT
100
AcDbLine
 10
1.788651592918125
 20
0.7228872144045324
 30
0.0
 11
1.78865159291812
 21
0.6574230086369317
 31
0.0
  0
LINE
  5
A7E018
330
A7E030
100
AcDbEntity
  8
TEXT
100
AcDbLine
 10
1.979056462753011
 20
0.6574230086369317
 30
0.0
 11
1.904064630023385
 21
0.6574230086369317
 31
0.0
  0
ENDSEC
  0
SECTION
  2
OBJECTS
  0
DICTIONARY
  5
A7E024
330
0
100
AcDbDictionary
  3
ACAD_GROUP
350
A7E025
  3
ACAD_LAYOUT
350
A7E04A
  3
ACAD_MLINESTYLE
350
A7E026
  3
ACAD_PLOTSETTINGS
350
A7E04B
  3
ACAD_PLOTSTYLENAME
350
A7E048
  3
ACDBHEADERROUNDTRIPXREC
350
A7E055
  3
ACDBVARIABLEDICTIONARY
350
A7E052
  0
DICTIONARY
  5
A7E077
330
A7E030
100
AcDbDictionary
280
     1
  3
ACAD_LAYOUTSELFREF
360
A7E078
  0
DICTIONARY
  5
A7E075
330
A7E02D
100
AcDbDictionary
280
     1
  3
ACAD_LAYOUTSELFREF
360
A7E076
  0
DICTIONARY
  5
A7E025
102
{ACAD_REACTORS
330
A7E024
102
}
330
A7E024
100
AcDbDictionary
  0
DICTIONARY
  5
A7E04A
102
{ACAD_REACTORS
330
A7E024
102
}
330
A7E024
100
AcDbDictionary
  0
DICTIONARY
  5
A7E026
102
{ACAD_REACTORS
330
A7E024
102
}
330
A7E024
100
AcDbDictionary
  3
STANDARD
350
A7E033
  0
DICTIONARY
  5
A7E04B
102
{ACAD_REACTORS
330
A7E024
102
}
330
A7E024
100
AcDbDictionary
  0
ACDBDICTIONARYWDFLT
  5
A7E048
102
{ACAD_REACTORS
330
A7E024
102
}
330
A7E024
100
AcDbDictionary
281
     1
  3
Normal
350
A7E049
100
AcDbDictionaryWithDefault
340
A7E049
  0
DICTIONARY
  5
A7E055
102
{ACAD_REACTORS
330
A7E024
102
}
330
A7E024
100
AcDbDictionary
  3
CEPSNTYPE
350
A7E05F
  3
FINGERPRINTGUID
350
A7E060
  3
HYPERLINKBASE
350
A7E058
  3
INSUNITS
350
A7E05E
  3
LAYOUTDICT
350
A7E05A
  3
LWETCUNION
350
A7E05D
  3
PLOTSETDICT
350
A7E05B
  3
PLOTSTYLNAMDICT
350
A7E05C
  3
PSVPSCALE
350
A7E062
  3
PUCSBASE
350
A7E065
  3
PUCSORGBACK
350
A7E06B
  3
PUCSORGBOTTOM
350
A7E067
  3
PUCSORGFRONT
350
A7E06A
  3
PUCSORGLEFT
350
A7E068
  3
PUCSORGRIGHT
350
A7E069
  3
PUCSORGTOP
350
A7E066
  3
PUCSORTHOREF
350
A7E063
  3
PUCSORTHOVIEW
350
A7E064
  3
STYLESHEET
350
A7E059
  3
TSTACKALIGN
350
A7E056
  3
TSTACKSIZE
350
A7E057
  3
UCSBASE
350
A7E06E
  3
UCSORGBACK
350
A7E074
  3
UCSORGBOTTOM
350
A7E070
  3
UCSORGFRONT
350
A7E073
  3
UCSORGLEFT
350
A7E071
  3
UCSORGRIGHT
350
A7E072
  3
UCSORGTOP
350
A7E06F
  3
UCSORTHOREF
350
A7E06C
  3
UCSORTHOVIEW
350
A7E06D
  3
VERSIONGUID
350
A7E061
  0
DICTIONARY
  5
A7E052
102
{ACAD_REACTORS
330
A7E024
102
}
330
A7E024
100
AcDbDictionary
  3
DIMASSOC
350
A7E053
  0
XRECORD
  5
A7E078
102
{ACAD_REACTORS
330
A7E077
102
}
330
A7E077
100
AcDbXrecord
340
A7E030
  0
XRECORD
  5
A7E076
102
{ACAD_REACTORS
330
A7E075
102
}
330
A7E075
100
AcDbXrecord
340
A7E02D
  0
MLINESTYLE
  5
A7E033
102
{ACAD_REACTORS
330
A7E026
102
}
330
A7E026
100
AcDbMlineStyle
  2
STANDARD
 70
     0
  3

 62
     0
 51
90.0
 52
90.0
 71
     2
 49
0.5
 62
   256
  6
BYLAYER
 49
-0.5
 62
   256
  6
BYLAYER
  0
ACDBPLACEHOLDER
  5
A7E049
102
{ACAD_REACTORS
330
A7E048
102
}
330
A7E048
100
AcDbPlaceHolder
280
     0
  0
XRECORD
  5
A7E05F
102
{ACAD_REACTORS
330
A7E055
102
}
330
A7E055
100
AcDbXrecord
 90
        0
  0
XRECORD
  5
A7E060
102
{ACAD_REACTORS
330
A7E055
102
}
330
A7E055
100
AcDbXrecord
  1
{6D967A60-8DB3-11D6-88E6-0090279574E7}
  0
XRECORD
  5
A7E058
102
{ACAD_REACTORS
330
A7E055
102
}
330
A7E055
100
AcDbXrecord
  1

  0
XRECORD
  5
A7E05E
102
{ACAD_REACTORS
330
A7E055
102
}
330
A7E055
100
AcDbXrecord
 90
        0
  0
XRECORD
  5
A7E05A
102
{ACAD_REACTORS
330
A7E055
102
}
330
A7E055
100
AcDbXrecord
340
A7E04A
  0
XRECORD
  5
A7E05D
102
{ACAD_REACTORS
330
A7E055
102
}
330
A7E055
100
AcDbXrecord
 90
    14877
  0
XRECORD
  5
A7E05B
102
{ACAD_REACTORS
330
A7E055
102
}
330
A7E055
100
AcDbXrecord
340
A7E04B
  0
XRECORD
  5
A7E05C
102
{ACAD_REACTORS
330
A7E055
102
}
330
A7E055
100
AcDbXrecord
340
A7E048
  0
XRECORD
  5
A7E062
102
{ACAD_REACTORS
330
A7E055
102
}
330
A7E055
100
AcDbXrecord
 40
0.0
  0
XRECORD
  5
A7E065
102
{ACAD_REACTORS
330
A7E055
102
}
330
A7E055
100
AcDbXrecord
340
0
  0
XRECORD
  5
A7E06B
102
{ACAD_REACTORS
330
A7E055
102
}
330
A7E055
100
AcDbXrecord
 10
0.0
 20
0.0
 30
0.0
  0
XRECORD
  5
A7E067
102
{ACAD_REACTORS
330
A7E055
102
}
330
A7E055
100
AcDbXrecord
 10
0.0
 20
0.0
 30
0.0
  0
XRECORD
  5
A7E06A
102
{ACAD_REACTORS
330
A7E055
102
}
330
A7E055
100
AcDbXrecord
 10
0.0
 20
0.0
 30
0.0
  0
XRECORD
  5
A7E068
102
{ACAD_REACTORS
330
A7E055
102
}
330
A7E055
100
AcDbXrecord
 10
0.0
 20
0.0
 30
0.0
  0
XRECORD
  5
A7E069
102
{ACAD_REACTORS
330
A7E055
102
}
330
A7E055
100
AcDbXrecord
 10
0.0
 20
0.0
 30
0.0
  0
XRECORD
  5
A7E066
102
{ACAD_REACTORS
330
A7E055
102
}
330
A7E055
100
AcDbXrecord
 10
0.0
 20
0.0
 30
0.0
  0
XRECORD
  5
A7E063
102
{ACAD_REACTORS
330
A7E055
102
}
330
A7E055
100
AcDbXrecord
340
0
  0
XRECORD
  5
A7E064
102
{ACAD_REACTORS
330
A7E055
102
}
330
A7E055
100
AcDbXrecord
 70
     0
  0
XRECORD
  5
A7E059
102
{ACAD_REACTORS
330
A7E055
102
}
330
A7E055
100
AcDbXrecord
  1

  0
XRECORD
  5
A7E056
102
{ACAD_REACTORS
330
A7E055
102
}
330
A7E055
100
AcDbXrecord
 90
        1
  0
XRECORD
  5
A7E057
102
{ACAD_REACTORS
330
A7E055
102
}
330
A7E055
100
AcDbXrecord
 90
       70
  0
XRECORD
  5
A7E06E
102
{ACAD_REACTORS
330
A7E055
102
}
330
A7E055
100
AcDbXrecord
340
0
  0
XRECORD
  5
A7E074
102
{ACAD_REACTORS
330
A7E055
102
}
330
A7E055
100
AcDbXrecord
 10
0.0
 20
0.0
 30
0.0
  0
XRECORD
  5
A7E070
102
{ACAD_REACTORS
330
A7E055
102
}
330
A7E055
100
AcDbXrecord
 10
0.0
 20
0.0
 30
0.0
  0
XRECORD
  5
A7E073
102
{ACAD_REACTORS
330
A7E055
102
}
330
A7E055
100
AcDbXrecord
 10
0.0
 20
0.0
 30
0.0
  0
XRECORD
  5
A7E071
102
{ACAD_REACTORS
330
A7E055
102
}
330
A7E055
100
AcDbXrecord
 10
0.0
 20
0.0
 30
0.0
  0
XRECORD
  5
A7E072
102
{ACAD_REACTORS
330
A7E055
102
}
330
A7E055
100
AcDbXrecord
 10
0.0
 20
0.0
 30
0.0
  0
XRECORD
  5
A7E06F
102
{ACAD_REACTORS
330
A7E055
102
}
330
A7E055
100
AcDbXrecord
 10
0.0
 20
0.0
 30
0.0
  0
XRECORD
  5
A7E06C
102
{ACAD_REACTORS
330
A7E055
102
}
330
A7E055
100
AcDbXrecord
340
0
  0
XRECORD
  5
A7E06D
102
{ACAD_REACTORS
330
A7E055
102
}
330
A7E055
100
AcDbXrecord
 70
     0
  0
XRECORD
  5
A7E061
102
{ACAD_REACTORS
330
A7E055
102
}
330
A7E055
100
AcDbXrecord
  1
{6D967A62-8DB3-11D6-88E6-0090279574E7}
  0
DICTIONARYVAR
  5
A7E053
102
{ACAD_REACTORS
330
A7E052
102
}
330
A7E052
100
DictionaryVariables
280
     0
  1
1
  0
ENDSEC
  0
EOF
