  0
SECTION
  2
HEADER
  9
$ACADVER
  1
AC1014
  9
$ACADMAINTVER
 70
     9
  9
$DWGCODEPAGE
  3
ANSI_1252
  9
$INSBASE
 10
2.487955939472271
 20
1.949041778558787
 30
0.0
  9
$EXTMIN
 10
0.7449743602451278
 20
1.209773174476205
 30
0.0
  9
$EXTMAX
 10
4.230193681992257
 20
2.324041778558787
 30
0.0
  9
$LIMMIN
 10
0.0
 20
0.0
  9
$LIMMAX
 10
18.0
 20
12.0
  9
$ORTHOMODE
 70
     1
  9
$REGENMODE
 70
     1
  9
$FILLMODE
 70
     1
  9
$QTEXTMODE
 70
     0
  9
$MIRRTEXT
 70
     0
  9
$DRAGMODE
 70
     2
  9
$LTSCALE
 40
1.0
  9
$OSMODE
 70
    39
  9
$ATTMODE
 70
     1
  9
$TEXTSIZE
 40
0.125
  9
$TRACEWID
 40
0.05
  9
$TEXTSTYLE
  7
ROMANS
  9
$CLAYER
  8
0
  9
$CELTYPE
  6
BYLAYER
  9
$CECOLOR
 62
   256
  9
$CELTSCALE
 40
1.0
  9
$DELOBJ
 70
     1
  9
$DISPSILH
 70
     1
  9
$DIMSCALE
 40
1.0
  9
$DIMASZ
 40
0.125
  9
$DIMEXO
 40
0.125
  9
$DIMDLI
 40
0.375
  9
$DIMRND
 40
0.0
  9
$DIMDLE
 40
0.0
  9
$DIMEXE
 40
0.125
  9
$DIMTP
 40
0.0
  9
$DIMTM
 40
0.0
  9
$DIMTXT
 40
0.125
  9
$DIMCEN
 40
-0.125
  9
$DIMTSZ
 40
0.0
  9
$DIMTOL
 70
     0
  9
$DIMLIM
 70
     0
  9
$DIMTIH
 70
     1
  9
$DIMTOH
 70
     1
  9
$DIMSE1
 70
     0
  9
$DIMSE2
 70
     0
  9
$DIMTAD
 70
     0
  9
$DIMZIN
 70
     4
  9
$DIMBLK
  1

  9
$DIMASO
 70
     1
  9
$DIMSHO
 70
     1
  9
$DIMPOST
  1

  9
$DIMAPOST
  1

  9
$DIMALT
 70
     0
  9
$DIMALTD
 70
     2
  9
$DIMALTF
 40
25.4
  9
$DIMLFAC
 40
1.0
  9
$DIMTOFL
 70
     0
  9
$DIMTVP
 40
0.0
  9
$DIMTIX
 70
     1
  9
$DIMSOXD
 70
     0
  9
$DIMSAH
 70
     0
  9
$DIMBLK1
  1

  9
$DIMBLK2
  1

  9
$DIMSTYLE
  2
STANDARD
  9
$DIMCLRD
 70
     0
  9
$DIMCLRE
 70
     0
  9
$DIMCLRT
 70
     0
  9
$DIMTFAC
 40
1.0
  9
$DIMGAP
 40
0.09
  9
$DIMJUST
 70
     0
  9
$DIMSD1
 70
     0
  9
$DIMSD2
 70
     0
  9
$DIMTOLJ
 70
     1
  9
$DIMTZIN
 70
     4
  9
$DIMALTZ
 70
     0
  9
$DIMALTTZ
 70
     0
  9
$DIMFIT
 70
     3
  9
$DIMUPT
 70
     0
  9
$DIMUNIT
 70
     2
  9
$DIMDEC
 70
     3
  9
$DIMTDEC
 70
     3
  9
$DIMALTU
 70
     2
  9
$DIMALTTD
 70
     2
  9
$DIMTXSTY
  7
ROMANS
  9
$DIMAUNIT
 70
     0
  9
$LUNITS
 70
     2
  9
$LUPREC
 70
     3
  9
$SKETCHINC
 40
0.1
  9
$FILLETRAD
 40
0.03125
  9
$AUNITS
 70
     0
  9
$AUPREC
 70
     0
  9
$MENU
  1
ACAD
  9
$ELEVATION
 40
0.0
  9
$PELEVATION
 40
0.0
  9
$THICKNESS
 40
0.0
  9
$LIMCHECK
 70
     0
  9
$BLIPMODE
 70
     0
  9
$CHAMFERA
 40
0.0
  9
$CHAMFERB
 40
0.0
  9
$CHAMFERC
 40
0.0
  9
$CHAMFERD
 40
0.0
  9
$SKPOLY
 70
     0
  9
$TDCREATE
 40
2448993.418306481
  9
$TDUPDATE
 40
2452458.292600798
  9
$TDINDWG
 40
0.0013752083
  9
$TDUSRTIMER
 40
0.0013752083
  9
$USRTIMER
 70
     1
  9
$ANGBASE
 50
0.0
  9
$ANGDIR
 70
     0
  9
$PDMODE
 70
     0
  9
$PDSIZE
 40
0.0
  9
$PLINEWID
 40
0.0
  9
$COORDS
 70
     2
  9
$SPLFRAME
 70
     0
  9
$SPLINETYPE
 70
     6
  9
$SPLINESEGS
 70
     8
  9
$ATTDIA
 70
     0
  9
$ATTREQ
 70
     1
  9
$HANDLING
 70
 22529
  9
$HANDSEED
  5
2A0A8A
  9
$SURFTAB1
 70
     6
  9
$SURFTAB2
 70
     6
  9
$SURFTYPE
 70
     6
  9
$SURFU
 70
     6
  9
$SURFV
 70
     6
  9
$UCSNAME
  2

  9
$UCSORG
 10
0.0
 20
0.0
 30
0.0
  9
$UCSXDIR
 10
1.0
 20
0.0
 30
0.0
  9
$UCSYDIR
 10
0.0
 20
1.0
 30
0.0
  9
$PUCSNAME
  2

  9
$PUCSORG
 10
0.0
 20
0.0
 30
0.0
  9
$PUCSXDIR
 10
1.0
 20
0.0
 30
0.0
  9
$PUCSYDIR
 10
0.0
 20
1.0
 30
0.0
  9
$USERI1
 70
     0
  9
$USERI2
 70
     0
  9
$USERI3
 70
     0
  9
$USERI4
 70
     0
  9
$USERI5
 70
     0
  9
$USERR1
 40
0.0
  9
$USERR2
 40
0.0
  9
$USERR3
 40
0.0
  9
$USERR4
 40
0.0
  9
$USERR5
 40
0.0
  9
$WORLDVIEW
 70
     1
  9
$SHADEDGE
 70
     3
  9
$SHADEDIF
 70
    70
  9
$TILEMODE
 70
     1
  9
$MAXACTVP
 70
    16
  9
$PINSBASE
 10
1.648277778346711
 20
50.00000000000001
 30
0.9298780385597154
  9
$PLIMCHECK
 70
     0
  9
$PEXTMIN
 10
1.000000000000000E+20
 20
1.000000000000000E+20
 30
1.000000000000000E+20
  9
$PEXTMAX
 10
-1.000000000000000E+20
 20
-1.000000000000000E+20
 30
-1.000000000000000E+20
  9
$PLIMMIN
 10
0.0
 20
0.0
  9
$PLIMMAX
 10
12.0
 20
9.0
  9
$UNITMODE
 70
     0
  9
$VISRETAIN
 70
     0
  9
$PLINEGEN
 70
     1
  9
$PSLTSCALE
 70
     0
  9
$TREEDEPTH
 70
  3020
  9
$PICKSTYLE
 70
     1
  9
$CMLSTYLE
  2
STANDARD
  9
$CMLJUST
 70
     0
  9
$CMLSCALE
 40
1.0
  9
$PROXYGRAPHICS
 70
     1
  9
$MEASUREMENT
 70
     0
  0
ENDSEC
  0
SECTION
  2
CLASSES
  0
CLASS
  1
LWPOLYLINE
  2
AcDbPolyline
  3
AutoCAD 2000
 90
        0
280
     0
281
     1
  0
CLASS
  1
ACDBDICTIONARYWDFLT
  2
AcDbDictionaryWithDefault
  3
AutoCAD 2000
 90
        0
280
     0
281
     0
  0
CLASS
  1
ACDBPLACEHOLDER
  2
AcDbPlaceHolder
  3
AutoCAD 2000
 90
        0
280
     0
281
     0
  0
CLASS
  1
LAYOUT
  2
AcDbLayout
  3
AutoCAD 2000
 90
        0
280
     0
281
     0
  0
CLASS
  1
DICTIONARYVAR
  2
AcDbDictionaryVar
  3
AutoCAD 2000
 90
        0
280
     0
281
     0
  0
CLASS
  1
LONG_TRANSACTION
  2
AcDbLongTransaction
  3
AutoCAD 2000
 90
        0
280
     0
281
     0
  0
CLASS
  1
LWPOLYLINE
  2
AcDbPolyline
  3
AutoCAD 2000
 90
        0
280
     0
281
     1
  0
CLASS
  1
HATCH
  2
AcDbHatch
  3
AutoCAD 2000
 90
        0
280
     0
281
     1
  0
CLASS
  1
XRECORD
  2
AcDbXrecord
  3
AutoCAD 2000
 90
        0
280
     0
281
     0
  0
ENDSEC
  0
SECTION
  2
TABLES
  0
TABLE
  2
VPORT
  5
2A0A31
330
0
100
AcDbSymbolTable
 70
     2
  0
VPORT
  5
2A0A65
330
2A0A31
100
AcDbSymbolTableRecord
100
AcDbViewportTableRecord
  2
*ACTIVE
 70
     0
 10
0.0
 20
0.0
 11
1.0
 21
1.0
 12
5.463503681764625
 22
1.766601585511352
 13
0.0
 23
0.0
 14
0.015625
 24
0.015625
 15
0.0
 25
0.0
 16
0.0
 26
0.0
 36
1.0
 17
0.0
 27
0.0
 37
0.0
 40
2.282647215150728
 41
4.320930232558139
 42
50.0
 43
0.0
 44
0.0
 50
0.0
 51
0.0
 71
     0
 72
  2000
 73
     1
 74
     0
 75
     1
 76
     0
 77
     0
 78
     0
  0
ENDTAB
  0
TABLE
  2
LTYPE
  5
2A0A2E
330
0
100
AcDbSymbolTable
 70
     1
  0
LTYPE
  5
2A0A3B
330
2A0A2E
100
AcDbSymbolTableRecord
100
AcDbLinetypeTableRecord
  2
BYBLOCK
 70
     0
  3

 72
    65
 73
     0
 40
0.0
  0
LTYPE
  5
2A0A3C
330
2A0A2E
100
AcDbSymbolTableRecord
100
AcDbLinetypeTableRecord
  2
BYLAYER
 70
     0
  3

 72
    65
 73
     0
 40
0.0
  0
LTYPE
  5
2A0A3D
330
2A0A2E
100
AcDbSymbolTableRecord
100
AcDbLinetypeTableRecord
  2
CONTINUOUS
 70
     0
  3
Solid line
 72
    65
 73
     0
 40
0.0
  0
ENDTAB
  0
TABLE
  2
LAYER
  5
2A0A2B
330
0
100
AcDbSymbolTable
 70
     2
  0
LAYER
  5
2A0A38
330
2A0A2B
100
AcDbSymbolTableRecord
100
AcDbLayerTableRecord
  2
0
 70
     0
 62
     7
  6
CONTINUOUS
  0
LAYER
  5
2A0A48
330
2A0A2B
100
AcDbSymbolTableRecord
100
AcDbLayerTableRecord
  2
TEXT
 70
     0
 62
     3
  6
CONTINUOUS
  0
ENDTAB
  0
TABLE
  2
STYLE
  5
2A0A2C
330
0
100
AcDbSymbolTable
 70
     3
  0
STYLE
  5
2A0A39
330
2A0A2C
100
AcDbSymbolTableRecord
100
AcDbTextStyleTableRecord
  2
STANDARD
 70
     0
 40
0.0
 41
1.0
 50
0.0
 71
     0
 42
0.3125
  3
txt
  4

  0
STYLE
  5
2A0A45
330
2A0A2C
100
AcDbSymbolTableRecord
100
AcDbTextStyleTableRecord
  2
ITALICC
 70
     0
 40
0.0
 41
1.0
 50
0.0
 71
     0
 42
0.125
  3
italicc
  4

  0
STYLE
  5
2A0A55
330
2A0A2C
100
AcDbSymbolTableRecord
100
AcDbTextStyleTableRecord
  2
ROMANS
 70
     0
 40
0.0
 41
1.0
 50
0.0
 71
     0
 42
0.125
  3
romans.shx
  4

  0
ENDTAB
  0
TABLE
  2
VIEW
  5
2A0A2F
330
0
100
AcDbSymbolTable
 70
     0
  0
ENDTAB
  0
TABLE
  2
UCS
  5
2A0A30
330
0
100
AcDbSymbolTable
 70
     0
  0
ENDTAB
  0
TABLE
  2
APPID
  5
2A0A32
330
0
100
AcDbSymbolTable
 70
     1
  0
APPID
  5
2A0A3A
330
2A0A32
100
AcDbSymbolTableRecord
100
AcDbRegAppTableRecord
  2
ACAD
 70
     0
  0
ENDTAB
  0
TABLE
  2
DIMSTYLE
  5
2A0A33
330
0
100
AcDbSymbolTable
 70
     1
  0
DIMSTYLE
105
2A0A4D
330
2A0A33
100
AcDbSymbolTableRecord
100
AcDbDimStyleTableRecord
  2
STANDARD
 70
     0
  3

  4

  5

  6

  7

 40
1.0
 41
0.125
 42
0.125
 43
0.375
 44
0.125
 45
0.0
 46
0.0
 47
0.0
 48
0.0
140
0.125
141
-0.125
142
0.0
143
25.4
144
1.0
145
0.0
146
1.0
147
0.09
 71
     0
 72
     0
 73
     1
 74
     1
 75
     0
 76
     0
 77
     0
 78
     4
170
     0
171
     2
172
     0
173
     0
174
     1
175
     0
176
     0
177
     0
178
     0
270
     2
271
     3
272
     3
273
     2
274
     2
340
2A0A55
275
     0
280
     0
281
     0
282
     0
283
     1
284
     4
285
     0
286
     0
287
     3
288
     0
  0
ENDTAB
  0
TABLE
  2
BLOCK_RECORD
  5
2A0A2A
330
0
100
AcDbSymbolTable
 70
     0
  0
BLOCK_RECORD
  5
2A0A41
102
{ACAD_XDICTIONARY
360
2A0A88
102
}
330
2A0A2A
100
AcDbSymbolTableRecord
100
AcDbBlockTableRecord
  2
*MODEL_SPACE
  0
BLOCK_RECORD
  5
2A0A3E
102
{ACAD_XDICTIONARY
360
2A0A86
102
}
330
2A0A2A
100
AcDbSymbolTableRecord
100
AcDbBlockTableRecord
  2
*PAPER_SPACE
  0
ENDTAB
  0
ENDSEC
  0
SECTION
  2
BLOCKS
  0
BLOCK
  5
2A0A4B
330
2A0A41
100
AcDbEntity
  8
0
100
AcDbBlockBegin
  2
*MODEL_SPACE
 70
     0
 10
0.0
 20
0.0
 30
0.0
  3
*MODEL_SPACE
  1

  0
ENDBLK
  5
2A0A4C
330
2A0A41
100
AcDbEntity
  8
0
100
AcDbBlockEnd
  0
BLOCK
  5
2A0A49
330
2A0A3E
100
AcDbEntity
 67
     1
  8
0
100
AcDbBlockBegin
  2
*PAPER_SPACE
 70
     0
 10
0.0
 20
0.0
 30
0.0
  3
*PAPER_SPACE
  1

  0
ENDBLK
  5
2A0A4A
330
2A0A3E
100
AcDbEntity
 67
     1
  8
0
100
AcDbBlockEnd
  0
ENDSEC
  0
SECTION
  2
ENTITIES
  0
LWPOLYLINE
  5
29F065
330
2A0A41
100
AcDbEntity
  8
0
100
AcDbPolyline
 90
       13
 70
     1
 43
0.0
 10
2.277955939472271
 20
1.969041778558787
 42
0.4142135623730951
 10
2.29795593947227
 20
1.949041778558787
 10
2.677955939472271
 20
1.949041778558787
 42
0.4142135623730951
 10
2.69795593947227
 20
1.969041778558787
 10
2.69795593947227
 20
2.294041778558787
 42
0.9999999999999998
 10
2.63795593947227
 20
2.294041778558787
 10
2.63795593947227
 20
2.009041778558787
 10
2.337955939472271
 20
2.009041778558787
 10
2.337955939472271
 20
2.126041778558787
 10
2.327955939472271
 20
2.136041778558787
 10
2.337955939472271
 20
2.146041778558787
 10
2.337955939472271
 20
2.294041778558787
 42
0.9999999999999998
 10
2.277955939472271
 20
2.294041778558787
  0
TEXT
  5
2A08EC
330
2A0A41
100
AcDbEntity
  8
TEXT
100
AcDbText
 10
1.734979748996081
 20
1.667791778558787
 30
0.0
 40
0.125
  1
PART #110024
  7
ITALICC
 72
     1
 11
2.487955939472271
 21
1.667791778558787
 31
0.0
100
AcDbText
  0
TEXT
  5
2A08ED
330
2A0A41
100
AcDbEntity
  8
TEXT
100
AcDbText
 10
2.901261097722591
 20
1.220869135886412
 30
0.0
 40
0.0522247191011236
  1
Phone  1-800-328-2495
 41
1.272321428571429
 72
     5
 11
4.230193681992255
 21
1.220869135886412
 31
0.0
100
AcDbText
  0
TEXT
  5
2A08EE
330
2A0A41
100
AcDbEntity
  8
TEXT
100
AcDbText
 10
2.901261097722591
 20
1.500644416785288
 30
0.0
 40
0.0522247191011236
  1
Stylmark  Incorporated
 41
1.221428571428573
 72
     5
 11
4.230193681992255
 21
1.500644416785288
 31
0.0
100
AcDbText
  0
TEXT
  5
2A08EF
330
2A0A41
100
AcDbEntity
  8
TEXT
100
AcDbText
 10
2.901261097722591
 20
1.407385989818996
 30
0.0
 40
0.0522247191011236
  1
6536 Main St. N.E. * P.O. Box 32008
 41
0.8388932496075366
 72
     5
 11
4.230193681992255
 21
1.407385989818996
 31
0.0
100
AcDbText
  0
TEXT
  5
2A08F0
330
2A0A41
100
AcDbEntity
  8
TEXT
100
AcDbText
 10
2.901261097722591
 20
1.314127562852704
 30
0.0
 40
0.0522247191011236
  1
Minneapolis, MN 55432-0008
 41
1.11444212721585
 72
     5
 11
4.230193681992255
 21
1.314127562852704
 31
0.0
100
AcDbText
  0
LWPOLYLINE
  5
2A08F1
330
2A0A41
100
AcDbEntity
  8
TEXT
100
AcDbPolyline
 90
        3
 70
     0
 43
0.0006660908203125
 10
0.745307405655284
 20
1.334513898523846
 10
0.745307405655284
 20
1.221278459070719
 10
0.8585428451084062
 20
1.221278459070719
  0
LWPOLYLINE
  5
2A08F6
330
2A0A41
100
AcDbEntity
  8
TEXT
100
AcDbPolyline
 90
        3
 70
     0
 43
0.0006660908203125
 10
0.7719510384677815
 20
1.334513898523846
 10
0.7719510384677815
 20
1.24792209188322
 10
0.8585428451084062
 20
1.24792209188322
  0
LWPOLYLINE
  5
2A08FB
330
2A0A41
100
AcDbEntity
  8
TEXT
100
AcDbPolyline
 90
        2
 70
     0
 43
0.0001332181640625
 10
0.8185773958896582
 20
1.344505260828532
 10
0.745307405655284
 20
1.334513898523846
  0
LWPOLYLINE
  5
2A08FF
330
2A0A41
100
AcDbEntity
  8
TEXT
100
AcDbPolyline
 90
        2
 70
     0
 43
0.0001332181640625
 10
0.7719510384677815
 20
1.334513898523846
 10
0.8318992122959087
 20
1.344505260828532
  0
LWPOLYLINE
  5
2A0903
330
2A0A41
100
AcDbEntity
  8
TEXT
100
AcDbPolyline
 90
        2
 70
     0
 43
0.0001332181640625
 10
0.7719510384677815
 20
1.24792209188322
 10
0.8318992122959087
 20
1.307870265711345
  0
LWPOLYLINE
  5
2A0907
330
2A0A41
100
AcDbEntity
  8
TEXT
100
AcDbPolyline
 90
        3
 70
     0
 43
0.0006660908203125
 10
0.8585428451084062
 20
1.487714787195722
 10
0.745307405655284
 20
1.487714787195722
 10
0.745307405655284
 20
1.374479347742594
  0
LWPOLYLINE
  5
2A090C
330
2A0A41
100
AcDbEntity
  8
TEXT
100
AcDbPolyline
 90
        3
 70
     0
 43
0.0006660908203125
 10
0.8585428451084062
 20
1.461071154383221
 10
0.7719510384677815
 20
1.461071154383221
 10
0.7719510384677815
 20
1.374479347742594
  0
LWPOLYLINE
  5
2A0911
330
2A0A41
100
AcDbEntity
  8
TEXT
100
AcDbPolyline
 90
        2
 70
     0
 43
0.0001332181640625
 10
0.7719510384677815
 20
1.461071154383221
 10
0.831899212295907
 20
1.401122980555095
  0
LWPOLYLINE
  5
2A0915
330
2A0A41
100
AcDbEntity
  8
TEXT
100
AcDbPolyline
 90
        2
 70
     0
 43
0.0001332181640625
 10
0.7719510384677815
 20
1.374479347742594
 10
0.831899212295907
 20
1.364487985437906
  0
LWPOLYLINE
  5
2A0919
330
2A0A41
100
AcDbEntity
  8
TEXT
100
AcDbPolyline
 90
        2
 70
     0
 43
0.0001332181640625
 10
0.745307405655284
 20
1.374479347742594
 10
0.8185773958896582
 20
1.364487985437906
  0
LWPOLYLINE
  5
2A091D
330
2A0A41
100
AcDbEntity
  8
TEXT
100
AcDbPolyline
 90
        2
 70
     0
 43
0.0006660908203125
 10
0.7719510384677815
 20
1.334513898523846
 10
0.745307405655284
 20
1.334513898523846
  0
LWPOLYLINE
  5
2A0921
330
2A0A41
100
AcDbEntity
  8
TEXT
100
AcDbPolyline
 90
        2
 70
     0
 43
0.0006660908203125
 10
0.7719510384677815
 20
1.374479347742594
 10
0.745307405655284
 20
1.374479347742594
  0
LINE
  5
2A0925
330
2A0A41
100
AcDbEntity
  8
TEXT
100
AcDbLine
 10
2.260497834781781
 20
1.423438092538953
 30
0.0
 11
2.153291561394492
 21
1.423438092538953
 31
0.0
  0
LINE
  5
2A0926
330
2A0A41
100
AcDbEntity
  8
TEXT
100
AcDbLine
 10
2.289528733126259
 20
1.487714787195718
 30
0.0
 11
2.1546968239092
 21
1.487714787195718
 31
0.0
  0
ARC
  5
2A0927
330
2A0A41
100
AcDbEntity
  8
TEXT
100
AcDbCircle
 10
2.214010920302517
 20
1.318477537932702
 30
0.0
 40
0.0676855811441166
100
AcDbArc
 50
90.0
 51
153.7768192527749
  0
LWPOLYLINE
  5
2A0928
330
2A0A41
100
AcDbEntity
  8
TEXT
100
AcDbPolyline
 90
        2
 70
     0
 43
0.0
 10
2.152259065939682
 20
1.264732699157646
 42
0.2901071551932823
 10
2.195334998807317
 20
1.221241754207208
 42
5.328517124445801
  0
ARC
  5
2A092C
330
2A0A41
100
AcDbEntity
  8
TEXT
100
AcDbCircle
 10
1.508879542631031
 20
1.281034145545257
 30
0.0
 40
0.0601160179737537
100
AcDbArc
 50
180.0000000000003
 51
264.0521544866073
  0
LINE
  5
2A092D
330
2A0A41
100
AcDbEntity
  8
TEXT
100
AcDbLine
 10
1.512394898256579
 20
1.522102704789857
 30
0.0
 11
1.452352293412572
 21
1.522102704789857
 31
0.0
  0
ARC
  5
2A092E
330
2A0A41
100
AcDbEntity
  8
TEXT
100
AcDbCircle
 10
1.276620540514061
 20
1.405627327749217
 30
0.0
 40
0.0820874594465043
100
AcDbArc
 50
90.0
 51
270.0
  0
LWPOLYLINE
  5
2A092F
330
2A0A41
100
AcDbEntity
  8
TEXT
100
AcDbPolyline
 90
        2
 70
     0
 43
0.0001332181640625
 10
0.8685342074130968
 20
1.414444796961342
 10
0.8585428451084062
 20
1.487714787195722
  0
LWPOLYLINE
  5
2A0933
330
2A0A41
100
AcDbEntity
  8
TEXT
100
AcDbPolyline
 90
        2
 70
     0
 43
0.0001332181640625
 10
0.8585428451084062
 20
1.461071154383221
 10
0.8685342074130968
 20
1.401122980555095
  0
LWPOLYLINE
  5
2A0937
330
2A0A41
100
AcDbEntity
  8
TEXT
100
AcDbPolyline
 90
        3
 70
     0
 43
0.0006660908203125
 10
1.011743733780283
 20
1.374479347742594
 10
1.011743733780283
 20
1.487714787195722
 10
0.8985082943271578
 20
1.487714787195722
  0
LWPOLYLINE
  5
2A093C
330
2A0A41
100
AcDbEntity
  8
TEXT
100
AcDbPolyline
 90
        3
 70
     0
 43
0.0006660908203125
 10
0.9851001009677826
 20
1.374479347742594
 10
0.9851001009677826
 20
1.461071154383221
 10
0.8985082943271578
 20
1.461071154383221
  0
LWPOLYLINE
  5
2A0941
330
2A0A41
100
AcDbEntity
  8
TEXT
100
AcDbPolyline
 90
        2
 70
     0
 43
0.0001332181640625
 10
0.9851001009677826
 20
1.461071154383221
 10
0.9251519271396588
 20
1.401122980555095
  0
LWPOLYLINE
  5
2A0945
330
2A0A41
100
AcDbEntity
  8
TEXT
100
AcDbPolyline
 90
        2
 70
     0
 43
0.0001332181640625
 10
0.8985082943271578
 20
1.461071154383221
 10
0.888516932022469
 20
1.401122980555095
  0
LWPOLYLINE
  5
2A0949
330
2A0A41
100
AcDbEntity
  8
TEXT
100
AcDbPolyline
 90
        2
 70
     0
 43
0.0001332181640625
 10
0.8985082943271578
 20
1.487714787195722
 10
0.888516932022469
 20
1.414444796961342
  0
LWPOLYLINE
  5
2A094D
330
2A0A41
100
AcDbEntity
  8
TEXT
100
AcDbPolyline
 90
        2
 70
     0
 43
0.0001332181640625
 10
0.9384737435459076
 20
1.364487985437906
 10
1.011743733780283
 20
1.374479347742594
  0
LWPOLYLINE
  5
2A0951
330
2A0A41
100
AcDbEntity
  8
TEXT
100
AcDbPolyline
 90
        2
 70
     0
 43
0.0001332181640625
 10
0.9851001009677826
 20
1.374479347742594
 10
0.9251519271396588
 20
1.364487985437906
  0
LWPOLYLINE
  5
2A0955
330
2A0A41
100
AcDbEntity
  8
TEXT
100
AcDbPolyline
 90
        2
 70
     0
 43
0.0001332181640625
 10
1.011743733780283
 20
1.334513898523846
 10
0.9384737435459076
 20
1.344505260828532
  0
LWPOLYLINE
  5
2A0959
330
2A0A41
100
AcDbEntity
  8
TEXT
100
AcDbPolyline
 90
        2
 70
     0
 43
0.0001332181640625
 10
0.9851001009677826
 20
1.334513898523846
 10
0.9251519271396588
 20
1.344505260828532
  0
LWPOLYLINE
  5
2A095D
330
2A0A41
100
AcDbEntity
  8
TEXT
100
AcDbPolyline
 90
        2
 70
     0
 43
0.0001332181640625
 10
0.9851001009677826
 20
1.24792209188322
 10
0.9251519271396588
 20
1.307870265711345
  0
LWPOLYLINE
  5
2A0961
330
2A0A41
100
AcDbEntity
  8
TEXT
100
AcDbPolyline
 90
        3
 70
     0
 43
0.0006660908203125
 10
0.8985082943271578
 20
1.24792209188322
 10
0.9851001009677826
 20
1.24792209188322
 10
0.9851001009677826
 20
1.334513898523846
  0
LWPOLYLINE
  5
2A0966
330
2A0A41
100
AcDbEntity
  8
TEXT
100
AcDbPolyline
 90
        3
 70
     0
 43
0.0006660908203125
 10
0.8985082943271578
 20
1.221278459070719
 10
1.011743733780283
 20
1.221278459070719
 10
1.011743733780283
 20
1.334513898523846
  0
LWPOLYLINE
  5
2A096B
330
2A0A41
100
AcDbEntity
  8
TEXT
100
AcDbPolyline
 90
        5
 70
     0
 43
0.0001332181640625
 10
0.8685342074130968
 20
1.294548449305095
 10
0.8685342074130968
 20
1.307870265711345
 10
0.8318992122959087
 20
1.307870265711345
 10
0.8318992122959087
 20
1.344505260828532
 10
0.8185773958896582
 20
1.344505260828532
  0
LWPOLYLINE
  5
2A0972
330
2A0A41
100
AcDbEntity
  8
TEXT
100
AcDbPolyline
 90
        2
 70
     0
 43
0.0006660908203125
 10
0.8585428451084062
 20
1.24792209188322
 10
0.8585428451084062
 20
1.221278459070719
  0
LWPOLYLINE
  5
2A0976
330
2A0A41
100
AcDbEntity
  8
TEXT
100
AcDbPolyline
 90
        2
 70
     0
 43
0.0001332181640625
 10
0.8585428451084062
 20
1.24792209188322
 10
0.8685342074130968
 20
1.307870265711345
  0
LWPOLYLINE
  5
2A097A
330
2A0A41
100
AcDbEntity
  8
TEXT
100
AcDbPolyline
 90
        2
 70
     0
 43
0.0001332181640625
 10
0.8585428451084062
 20
1.221278459070719
 10
0.8685342074130968
 20
1.294548449305095
  0
LWPOLYLINE
  5
2A097E
330
2A0A41
100
AcDbEntity
  8
TEXT
100
AcDbPolyline
 90
        5
 70
     0
 43
0.0001332181640625
 10
0.8185773958896582
 20
1.364487985437906
 10
0.831899212295907
 20
1.364487985437906
 10
0.831899212295907
 20
1.401122980555095
 10
0.8685342074130968
 20
1.401122980555095
 10
0.8685342074130968
 20
1.414444796961342
  0
LWPOLYLINE
  5
2A0985
330
2A0A41
100
AcDbEntity
  8
TEXT
100
AcDbPolyline
 90
        5
 70
     0
 43
0.0001332181640625
 10
0.888516932022469
 20
1.414444796961342
 10
0.888516932022469
 20
1.401122980555095
 10
0.9251519271396588
 20
1.401122980555095
 10
0.9251519271396588
 20
1.364487985437906
 10
0.9384737435459076
 20
1.364487985437906
  0
LWPOLYLINE
  5
2A098C
330
2A0A41
100
AcDbEntity
  8
TEXT
100
AcDbPolyline
 90
        2
 70
     0
 43
0.0001332181640625
 10
0.8985082943271578
 20
1.24792209188322
 10
0.888516932022469
 20
1.307870265711345
  0
LWPOLYLINE
  5
2A0990
330
2A0A41
100
AcDbEntity
  8
TEXT
100
AcDbPolyline
 90
        2
 70
     0
 43
0.0001332181640625
 10
0.888516932022469
 20
1.294548449305095
 10
0.8985082943271578
 20
1.221278459070719
  0
LWPOLYLINE
  5
2A0994
330
2A0A41
100
AcDbEntity
  8
TEXT
100
AcDbPolyline
 90
        2
 70
     0
 43
0.0006660908203125
 10
0.8985082943271578
 20
1.24792209188322
 10
0.8985082943271578
 20
1.221278459070719
  0
LWPOLYLINE
  5
2A0998
330
2A0A41
100
AcDbEntity
  8
TEXT
100
AcDbPolyline
 90
        5
 70
     0
 43
0.0001332181640625
 10
0.9384737435459076
 20
1.344505260828532
 10
0.9251519271396588
 20
1.344505260828532
 10
0.9251519271396588
 20
1.307870265711345
 10
0.888516932022469
 20
1.307870265711345
 10
0.888516932022469
 20
1.294548449305095
  0
LWPOLYLINE
  5
2A099F
330
2A0A41
100
AcDbEntity
  8
TEXT
100
AcDbPolyline
 90
        2
 70
     0
 43
0.0006660908203125
 10
0.9851001009677826
 20
1.374479347742594
 10
1.011743733780283
 20
1.374479347742594
  0
LWPOLYLINE
  5
2A09A3
330
2A0A41
100
AcDbEntity
  8
TEXT
100
AcDbPolyline
 90
        2
 70
     0
 43
0.0006660908203125
 10
0.9851001009677826
 20
1.334513898523846
 10
1.011743733780283
 20
1.334513898523846
  0
LINE
  5
2A09A7
330
2A0A41
100
AcDbEntity
  8
TEXT
100
AcDbLine
 10
1.281857870628308
 20
1.423438092538953
 30
0.0
 11
1.448763524657279
 21
1.423438092538953
 31
0.0
  0
LINE
  5
2A09A8
330
2A0A41
100
AcDbEntity
  8
TEXT
100
AcDbLine
 10
1.347458006872609
 20
1.387633370928325
 30
0.0
 11
1.281857870628308
 21
1.387633370928325
 31
0.0
  0
LINE
  5
2A09A9
330
2A0A41
100
AcDbEntity
  8
TEXT
100
AcDbLine
 10
1.194533081067556
 20
1.221241754207208
 30
0.0
 11
1.347458006872609
 21
1.221241754207208
 31
0.0
  0
LINE
  5
2A09AA
330
2A0A41
100
AcDbEntity
  8
TEXT
100
AcDbLine
 10
1.352398380778889
 20
1.289598760540647
 30
0.0
 11
1.194533081067555
 21
1.289598760540647
 31
0.0
  0
LINE
  5
2A09AB
330
2A0A41
100
AcDbEntity
  8
TEXT
100
AcDbLine
 10
1.27662054051406
 20
1.323539868302711
 30
0.0
 11
1.352398380778889
 21
1.323539868302711
 31
0.0
  0
ARC
  5
2A09AC
330
2A0A41
100
AcDbEntity
  8
TEXT
100
AcDbCircle
 10
1.281857870628309
 20
1.405535731733641
 30
0.0
 40
0.017902360805315
100
AcDbArc
 50
90.0
 51
270.0
  0
LINE
  5
2A09AD
330
2A0A41
100
AcDbEntity
  8
TEXT
100
AcDbLine
 10
1.194533081067555
 20
1.289598760540647
 30
0.0
 11
1.194533081067556
 21
1.221241754207208
 31
0.0
  0
LINE
  5
2A09AE
330
2A0A41
100
AcDbEntity
  8
TEXT
100
AcDbLine
 10
1.448763524657279
 20
1.423438092538953
 30
0.0
 11
1.448763524657279
 21
1.281034145545257
 31
0.0
  0
ARC
  5
2A09AF
330
2A0A41
100
AcDbEntity
  8
TEXT
100
AcDbCircle
 10
1.34745800687261
 20
1.304437562567765
 30
0.0
 40
0.0831958083605586
100
AcDbArc
 50
270.0
 51
90.0
  0
ARC
  5
2A09B0
330
2A0A41
100
AcDbEntity
  8
TEXT
100
AcDbCircle
 10
1.35239838077889
 20
1.306569314421681
 30
0.0
 40
0.0169705538810321
100
AcDbArc
 50
270.0
 51
90.0
  0
LWPOLYLINE
  5
2A09B1
330
2A0A41
100
AcDbEntity
  8
TEXT
100
AcDbPolyline
 90
        2
 70
     0
 43
0.0006660908203125
 10
0.8585428451084062
 20
1.461071154383221
 10
0.8585428451084062
 20
1.487714787195722
  0
LWPOLYLINE
  5
2A09B5
330
2A0A41
100
AcDbEntity
  8
TEXT
100
AcDbPolyline
 90
        2
 70
     0
 43
0.0006660908203125
 10
0.8985082943271578
 20
1.461071154383221
 10
0.8985082943271578
 20
1.487714787195722
  0
LINE
  5
2A09B9
330
2A0A41
100
AcDbEntity
  8
TEXT
100
AcDbLine
 10
1.452352293412572
 20
1.487714787195718
 30
0.0
 11
1.27662054051406
 21
1.487714787195718
 31
0.0
  0
LINE
  5
2A09BA
330
2A0A41
100
AcDbEntity
  8
TEXT
100
AcDbLine
 10
1.452352293412572
 20
1.522102704789857
 30
0.0
 11
1.452352293412572
 21
1.487714787195718
 31
0.0
  0
LINE
  5
2A09BB
330
2A0A41
100
AcDbEntity
  8
TEXT
100
AcDbLine
 10
1.642824185432425
 20
1.386842791082598
 30
0.0
 11
1.584193864400487
 21
1.487714787195718
 31
0.0
  0
LINE
  5
2A09BC
330
2A0A41
100
AcDbEntity
  8
TEXT
100
AcDbLine
 10
1.70157274823829
 20
1.487714787195718
 30
0.0
 11
1.642824185432425
 21
1.386842791082598
 31
0.0
  0
LINE
  5
2A09BD
330
2A0A41
100
AcDbEntity
  8
TEXT
100
AcDbLine
 10
1.798503373598031
 20
1.303629592310207
 30
0.0
 11
1.798503373598031
 21
1.555726264934529
 31
0.0
  0
LINE
  5
2A09BE
330
2A0A41
100
AcDbEntity
  8
TEXT
100
AcDbLine
 10
1.830815227735691
 20
1.487714787195718
 30
0.0
 11
1.830815227735691
 21
1.28685058046331
 31
0.0
  0
LINE
  5
2A09BF
330
2A0A41
100
AcDbEntity
  8
TEXT
100
AcDbLine
 10
1.830815227735691
 20
1.28685058046331
 30
0.0
 11
1.81382159085109
 21
1.28685058046331
 31
0.0
  0
LINE
  5
2A09C0
330
2A0A41
100
AcDbEntity
  8
TEXT
100
AcDbLine
 10
1.799642947094226
 20
1.221241754207208
 30
0.0
 11
1.897646280793661
 21
1.221241754207208
 31
0.0
  0
LINE
  5
2A09C1
330
2A0A41
100
AcDbEntity
  8
TEXT
100
AcDbLine
 10
1.63322394843547
 20
1.24120026031222
 30
0.0
 11
1.730523654528915
 21
1.405550471247489
 31
0.0
  0
ARC
  5
2A09C2
330
2A0A41
100
AcDbEntity
  8
TEXT
100
AcDbCircle
 10
1.599180388523256
 20
1.260789476480903
 30
0.0
 40
0.0392772371940762
100
AcDbArc
 50
270.1604552698595
 51
330.0831797321295
  0
LINE
  5
2A09C3
330
2A0A41
100
AcDbEntity
  8
TEXT
100
AcDbLine
 10
1.502650132137385
 20
1.221241754207208
 30
0.0
 11
1.599290383212379
 21
1.22151239330549
 31
0.0
  0
LWPOLYLINE
  5
2A09C4
330
2A0A41
100
AcDbEntity
  8
TEXT
100
AcDbPolyline
 90
        6
 70
     1
 43
0.0
 10
1.545173935712535
 20
1.423438092538953
 10
1.514857341492326
 20
1.423438092538953
 10
1.514857341492326
 20
1.300327094484059
 42
0.407328721240804
 10
1.526400992653803
 20
1.288508179807673
 10
1.587022691698534
 20
1.288508179807673
 10
1.604488032105852
 20
1.321320408851152
  0
LINE
  5
2A09CC
330
2A0A41
100
AcDbEntity
  8
TEXT
100
AcDbLine
 10
1.730523654528915
 20
1.405550471247489
 30
0.0
 11
1.730523654528915
 21
1.272793096422132
 31
0.0
  0
ARC
  5
2A09CD
330
2A0A41
100
AcDbEntity
  8
TEXT
100
AcDbCircle
 10
1.813821590851088
 20
1.302232386706736
 30
0.0
 40
0.0153818062434269
100
AcDbArc
 50
174.7883570302258
 51
270.0
  0
LWPOLYLINE
  5
2A09CE
330
2A0A41
100
AcDbEntity
  8
TEXT
100
AcDbPolyline
 90
        2
 70
     0
 43
0.0
 10
1.730523654528913
 20
1.272793096422136
 42
0.3318488747599744
 10
1.799642947094226
 20
1.221241754207208
 42
-6.868794160588311
  0
LINE
  5
2A09D2
330
2A0A41
100
AcDbEntity
  8
TEXT
100
AcDbLine
 10
1.955035349782922
 20
1.221241754207208
 30
0.0
 11
2.022093396564762
 21
1.221241754207208
 31
0.0
  0
LINE
  5
2A09D3
330
2A0A41
100
AcDbEntity
  8
TEXT
100
AcDbLine
 10
1.955035349782922
 20
1.415884303372843
 30
0.0
 11
1.955035349782922
 21
1.221241754207208
 31
0.0
  0
LINE
  5
2A09D4
330
2A0A41
100
AcDbEntity
  8
TEXT
100
AcDbLine
 10
1.897646280793661
 20
1.423438092538953
 30
0.0
 11
1.947481560616808
 21
1.423438092538953
 31
0.0
  0
LINE
  5
2A09D5
330
2A0A41
100
AcDbEntity
  8
TEXT
100
AcDbLine
 10
1.897646280793661
 20
1.221241754207208
 30
0.0
 11
1.897646280793661
 21
1.423438092538953
 31
0.0
  0
LWPOLYLINE
  5
2A09D6
330
2A0A41
100
AcDbEntity
  8
TEXT
100
AcDbPolyline
 90
        2
 70
     0
 43
0.0
 10
1.947481560616806
 20
1.423438092538953
 42
-0.4142135623731017
 10
1.95503534978292
 20
1.415884303372843
 42
-0.9999999999999998
  0
LINE
  5
2A09DA
330
2A0A41
100
AcDbEntity
  8
TEXT
100
AcDbLine
 10
2.153291561394492
 20
1.423438092538953
 30
0.0
 11
2.153291561394492
 21
1.348385686464746
 31
0.0
  0
LINE
  5
2A09DB
330
2A0A41
100
AcDbEntity
  8
TEXT
100
AcDbLine
 10
2.022093396564762
 20
1.423438092538953
 30
0.0
 11
2.076226993485712
 21
1.423438092538953
 31
0.0
  0
LINE
  5
2A09DC
330
2A0A41
100
AcDbEntity
  8
TEXT
100
AcDbLine
 10
2.022093396564762
 20
1.221241754207208
 30
0.0
 11
2.022093396564762
 21
1.423438092538953
 31
0.0
  0
LWPOLYLINE
  5
2A09DD
330
2A0A41
100
AcDbEntity
  8
TEXT
100
AcDbPolyline
 90
        2
 70
     0
 43
0.0
 10
2.07622699348571
 20
1.423438092538953
 42
-0.4142135623731017
 10
2.083780782651824
 20
1.415884303372843
 42
-0.9999999999999998
  0
LWPOLYLINE
  5
2A09E1
330
2A0A41
100
AcDbEntity
  8
TEXT
100
AcDbPolyline
 90
        4
 70
     0
 43
0.0
 10
2.083780782651824
 20
1.415884303372843
 10
2.083780782651824
 20
1.221241754207208
 10
2.152259065939682
 20
1.221241754207208
 10
2.152259065939682
 20
1.264732699157646
 42
-1.714843617202739
  0
LINE
  5
2A09E7
330
2A0A41
100
AcDbEntity
  8
TEXT
100
AcDbLine
 10
1.512394898256579
 20
1.487714787195718
 30
0.0
 11
1.512394898256579
 21
1.522102704789857
 31
0.0
  0
LINE
  5
2A09E8
330
2A0A41
100
AcDbEntity
  8
TEXT
100
AcDbLine
 10
1.584193864400487
 20
1.487714787195718
 30
0.0
 11
1.512394898256579
 21
1.487714787195718
 31
0.0
  0
LINE
  5
2A09E9
330
2A0A41
100
AcDbEntity
  8
TEXT
100
AcDbLine
 10
1.731694661031666
 20
1.487714787195718
 30
0.0
 11
1.70157274823829
 21
1.487714787195718
 31
0.0
  0
LINE
  5
2A09EA
330
2A0A41
100
AcDbEntity
  8
TEXT
100
AcDbLine
 10
1.731694661031666
 20
1.555726264934529
 30
0.0
 11
1.731694661031666
 21
1.487714787195718
 31
0.0
  0
LINE
  5
2A09EB
330
2A0A41
100
AcDbEntity
  8
TEXT
100
AcDbLine
 10
1.798503373598031
 20
1.555726264934529
 30
0.0
 11
1.731694661031666
 21
1.555726264934529
 31
0.0
  0
LWPOLYLINE
  5
2A09EC
330
2A0A41
100
AcDbEntity
  8
TEXT
100
AcDbPolyline
 90
        3
 70
     0
 43
0.0
 10
2.118915133196034
 20
1.487714787195722
 10
2.000614974379989
 20
1.487714787195722
 10
2.000614974379989
 20
1.460547290434826
 42
-1.960274751411753
  0
LINE
  5
2A09F1
330
2A0A41
100
AcDbEntity
  8
TEXT
100
AcDbLine
 10
1.964833283666828
 20
1.487714787195718
 30
0.0
 11
1.830815227735691
 21
1.487714787195718
 31
0.0
  0
LWPOLYLINE
  5
2A09F2
330
2A0A41
100
AcDbEntity
  8
TEXT
100
AcDbPolyline
 90
        2
 70
     0
 43
0.0
 10
1.964833283666828
 20
1.487714787195722
 42
-0.3328679258950098
 10
2.000614974379989
 20
1.460547290434826
 42
6.772930709997214
  0
LINE
  5
2A09F6
330
2A0A41
100
AcDbEntity
  8
TEXT
100
AcDbLine
 10
2.1546968239092
 20
1.487714787195718
 30
0.0
 11
2.1546968239092
 21
1.459392241426075
 31
0.0
  0
LWPOLYLINE
  5
2A09F7
330
2A0A41
100
AcDbEntity
  8
TEXT
100
AcDbPolyline
 90
        2
 70
     0
 43
0.0
 10
2.118915133196034
 20
1.487714787195722
 42
-0.3277054968067132
 10
2.154696823909199
 20
1.459392241426078
 42
6.667889725900311
  0
LINE
  5
2A09FB
330
2A0A41
100
AcDbEntity
  8
TEXT
100
AcDbLine
 10
2.3684886720013
 20
1.382502808642291
 30
0.0
 11
2.324737900819399
 21
1.464753084638436
 31
0.0
  0
LINE
  5
2A09FC
330
2A0A41
100
AcDbEntity
  8
TEXT
100
AcDbLine
 10
2.3684886720013
 20
1.487714787195718
 30
0.0
 11
2.3684886720013
 21
1.382502808642291
 31
0.0
  0
LINE
  5
2A09FD
330
2A0A41
100
AcDbEntity
  8
TEXT
100
AcDbLine
 10
2.596172410939669
 20
1.41184946078418
 30
0.0
 11
2.596172410939669
 21
1.553178992963319
 31
0.0
  0
LINE
  5
2A09FE
330
2A0A41
100
AcDbEntity
  8
TEXT
100
AcDbLine
 10
2.643270569495654
 20
1.487714787195718
 30
0.0
 11
2.596172410939669
 21
1.41184946078418
 31
0.0
  0
LINE
  5
2A09FF
330
2A0A41
100
AcDbEntity
  8
TEXT
100
AcDbLine
 10
2.653705286259577
 20
1.377821544254745
 30
0.0
 11
2.718262402225282
 21
1.487714787195718
 31
0.0
  0
LINE
  5
2A0A00
330
2A0A41
100
AcDbEntity
  8
TEXT
100
AcDbLine
 10
2.532337419716896
 20
1.221241754207208
 30
0.0
 11
2.596715604035517
 21
1.221241754207208
 31
0.0
  0
LWPOLYLINE
  5
2A0A01
330
2A0A41
100
AcDbEntity
  8
TEXT
100
AcDbPolyline
 90
        2
 70
     0
 43
0.0
 10
2.372428349306338
 20
1.264732699157646
 42
-0.2901071551932486
 10
2.329352416438694
 20
1.221241754207208
 42
-5.328517124445184
  0
ARC
  5
2A0A05
330
2A0A41
100
AcDbEntity
  8
TEXT
100
AcDbCircle
 10
2.260497834781779
 20
1.395078717538956
 30
0.0
 40
0.028359375
100
AcDbArc
 50
25.78218179591245
 51
90.0
  0
LINE
  5
2A0A06
330
2A0A41
100
AcDbEntity
  8
TEXT
100
AcDbLine
 10
2.296298910085902
 20
1.386163119076821
 30
0.0
 11
2.286034149672338
 21
1.407413658649515
 31
0.0
  0
LINE
  5
2A0A07
330
2A0A41
100
AcDbEntity
  8
TEXT
100
AcDbLine
 10
2.214010920302519
 20
1.386163119076821
 30
0.0
 11
2.296298910085902
 21
1.386163119076821
 31
0.0
  0
LWPOLYLINE
  5
2A0A08
330
2A0A41
100
AcDbEntity
  8
TEXT
100
AcDbPolyline
 90
        4
 70
     1
 43
0.0
 10
2.309229951368801
 20
1.324205732191233
 10
2.220569632708943
 20
1.324205732191233
 42
0.9999999999999998
 10
2.220569632708943
 20
1.281807191687372
 10
2.309229951368801
 20
1.281807191687372
 42
1.0
  0
LWPOLYLINE
  5
2A0A0E
330
2A0A41
100
AcDbEntity
  8
TEXT
100
AcDbPolyline
 90
        2
 70
     0
 43
0.0
 10
2.195334998807317
 20
1.221241754207208
 10
2.329352416438694
 20
1.221241754207208
 42
0.9999999999999998
  0
LINE
  5
2A0A12
330
2A0A41
100
AcDbEntity
  8
TEXT
100
AcDbLine
 10
2.455689438424333
 20
1.423438092538953
 30
0.0
 11
2.532337419716891
 21
1.423438092538953
 31
0.0
  0
LINE
  5
2A0A13
330
2A0A41
100
AcDbEntity
  8
TEXT
100
AcDbLine
 10
2.532337419716891
 20
1.423438092538953
 30
0.0
 11
2.532337419716896
 21
1.221241754207208
 31
0.0
  0
ARC
  5
2A0A14
330
2A0A41
100
AcDbEntity
  8
TEXT
100
AcDbCircle
 10
2.455689438424331
 20
1.39853221725629
 30
0.0
 40
0.0249058752826653
100
AcDbArc
 50
89.99971217465335
 51
179.9999999999985
  0
LINE
  5
2A0A15
330
2A0A41
100
AcDbEntity
  8
TEXT
100
AcDbLine
 10
2.430783563141674
 20
1.221241754207208
 30
0.0
 11
2.430783563141669
 21
1.398532259638676
 31
0.0
  0
LWPOLYLINE
  5
2A0A16
330
2A0A41
100
AcDbEntity
  8
TEXT
100
AcDbPolyline
 90
        2
 70
     0
 43
0.0
 10
2.372428349306338
 20
1.221241754207208
 10
2.430783563141672
 20
1.221241754207208
  0
LWPOLYLINE
  5
2A0A1A
330
2A0A41
100
AcDbEntity
  8
TEXT
100
AcDbPolyline
 90
        2
 70
     0
 43
0.0
 10
2.372428349306338
 20
1.264732699157646
 10
2.372428349306338
 20
1.221241754207208
  0
LINE
  5
2A0A1E
330
2A0A41
100
AcDbEntity
  8
TEXT
100
AcDbLine
 10
2.749197509623187
 20
1.221241754207208
 30
0.0
 11
2.653705286259577
 21
1.377821544254745
 31
0.0
  0
LINE
  5
2A0A1F
330
2A0A41
100
AcDbEntity
  8
TEXT
100
AcDbLine
 10
2.672619137246981
 20
1.221241754207208
 30
0.0
 11
2.749197509623187
 21
1.221241754207208
 31
0.0
  0
LINE
  5
2A0A20
330
2A0A41
100
AcDbEntity
  8
TEXT
100
AcDbLine
 10
2.596715604035517
 20
1.352821322683388
 30
0.0
 11
2.672619137246981
 21
1.221241754207208
 31
0.0
  0
LINE
  5
2A0A21
330
2A0A41
100
AcDbEntity
  8
TEXT
100
AcDbLine
 10
2.596715604035517
 20
1.221241754207208
 30
0.0
 11
2.596715604035517
 21
1.352821322683388
 31
0.0
  0
LINE
  5
2A0A22
330
2A0A41
100
AcDbEntity
  8
TEXT
100
AcDbLine
 10
2.596172410939669
 20
1.553178992963319
 30
0.0
 11
2.527857532390396
 21
1.553178992963319
 31
0.0
  0
ARC
  5
2A0A23
330
2A0A41
100
AcDbEntity
  8
TEXT
100
AcDbCircle
 10
2.28750179334919
 20
1.446131220074816
 30
0.0
 40
0.0416329381542859
100
AcDbArc
 50
26.56974201007528
 51
87.20939649401342
  0
LINE
  5
2A0A24
330
2A0A41
100
AcDbEntity
  8
TEXT
100
AcDbLine
 10
2.432385578300801
 20
1.487714787195718
 30
0.0
 11
2.3684886720013
 21
1.487714787195718
 31
0.0
  0
LINE
  5
2A0A25
330
2A0A41
100
AcDbEntity
  8
TEXT
100
AcDbLine
 10
2.432385578300801
 20
1.460167137334844
 30
0.0
 11
2.432385578300801
 21
1.487714787195718
 31
0.0
  0
ARC
  5
2A0A26
330
2A0A41
100
AcDbEntity
  8
TEXT
100
AcDbCircle
 10
2.463578395363909
 20
1.456469059913454
 30
0.0
 40
0.0314112657011332
100
AcDbArc
 50
95.88484768694724
 51
173.2388340632136
  0
LINE
  5
2A0A27
330
2A0A41
100
AcDbEntity
  8
TEXT
100
AcDbLine
 10
2.527857532390391
 20
1.487714787195718
 30
0.0
 11
2.460357814740874
 21
1.487714787195718
 31
0.0
  0
LINE
  5
2A0A28
330
2A0A41
100
AcDbEntity
  8
TEXT
100
AcDbLine
 10
2.527857532390396
 20
1.553178992963319
 30
0.0
 11
2.527857532390391
 21
1.487714787195718
 31
0.0
  0
LINE
  5
2A0A29
330
2A0A41
100
AcDbEntity
  8
TEXT
100
AcDbLine
 10
2.718262402225282
 20
1.487714787195718
 30
0.0
 11
2.643270569495656
 21
1.487714787195718
 31
0.0
  0
ENDSEC
  0
SECTION
  2
OBJECTS
  0
DICTIONARY
  5
2A0A35
330
0
100
AcDbDictionary
  3
ACAD_GROUP
350
2A0A36
  3
ACAD_LAYOUT
350
2A0A5B
  3
ACAD_MLINESTYLE
350
2A0A37
  3
ACAD_PLOTSETTINGS
350
2A0A5C
  3
ACAD_PLOTSTYLENAME
350
2A0A59
  3
ACDBHEADERROUNDTRIPXREC
350
2A0A66
  3
ACDBVARIABLEDICTIONARY
350
2A0A63
  0
DICTIONARY
  5
2A0A88
330
2A0A41
100
AcDbDictionary
280
     1
  3
ACAD_LAYOUTSELFREF
360
2A0A89
  0
DICTIONARY
  5
2A0A86
330
2A0A3E
100
AcDbDictionary
280
     1
  3
ACAD_LAYOUTSELFREF
360
2A0A87
  0
DICTIONARY
  5
2A0A36
102
{ACAD_REACTORS
330
2A0A35
102
}
330
2A0A35
100
AcDbDictionary
  0
DICTIONARY
  5
2A0A5B
102
{ACAD_REACTORS
330
2A0A35
102
}
330
2A0A35
100
AcDbDictionary
  0
DICTIONARY
  5
2A0A37
102
{ACAD_REACTORS
330
2A0A35
102
}
330
2A0A35
100
AcDbDictionary
  3
STANDARD
350
2A0A44
  0
DICTIONARY
  5
2A0A5C
102
{ACAD_REACTORS
330
2A0A35
102
}
330
2A0A35
100
AcDbDictionary
  0
ACDBDICTIONARYWDFLT
  5
2A0A59
102
{ACAD_REACTORS
330
2A0A35
102
}
330
2A0A35
100
AcDbDictionary
281
     1
  3
Normal
350
2A0A5A
100
AcDbDictionaryWithDefault
340
2A0A5A
  0
DICTIONARY
  5
2A0A66
102
{ACAD_REACTORS
330
2A0A35
102
}
330
2A0A35
100
AcDbDictionary
  3
CEPSNTYPE
350
2A0A70
  3
FINGERPRINTGUID
350
2A0A71
  3
HYPERLINKBASE
350
2A0A69
  3
INSUNITS
350
2A0A6F
  3
LAYOUTDICT
350
2A0A6B
  3
LWETCUNION
350
2A0A6E
  3
PLOTSETDICT
350
2A0A6C
  3
PLOTSTYLNAMDICT
350
2A0A6D
  3
PSVPSCALE
350
2A0A73
  3
PUCSBASE
350
2A0A76
  3
PUCSORGBACK
350
2A0A7C
  3
PUCSORGBOTTOM
350
2A0A78
  3
PUCSORGFRONT
350
2A0A7B
  3
PUCSORGLEFT
350
2A0A79
  3
PUCSORGRIGHT
350
2A0A7A
  3
PUCSORGTOP
350
2A0A77
  3
PUCSORTHOREF
350
2A0A74
  3
PUCSORTHOVIEW
350
2A0A75
  3
STYLESHEET
350
2A0A6A
  3
TSTACKALIGN
350
2A0A67
  3
TSTACKSIZE
350
2A0A68
  3
UCSBASE
350
2A0A7F
  3
UCSORGBACK
350
2A0A85
  3
UCSORGBOTTOM
350
2A0A81
  3
UCSORGFRONT
350
2A0A84
  3
UCSORGLEFT
350
2A0A82
  3
UCSORGRIGHT
350
2A0A83
  3
UCSORGTOP
350
2A0A80
  3
UCSORTHOREF
350
2A0A7D
  3
UCSORTHOVIEW
350
2A0A7E
  3
VERSIONGUID
350
2A0A72
  0
DICTIONARY
  5
2A0A63
102
{ACAD_REACTORS
330
2A0A35
102
}
330
2A0A35
100
AcDbDictionary
  3
DIMASSOC
350
2A0A64
  0
XRECORD
  5
2A0A89
102
{ACAD_REACTORS
330
2A0A88
102
}
330
2A0A88
100
AcDbXrecord
340
2A0A41
  0
XRECORD
  5
2A0A87
102
{ACAD_REACTORS
330
2A0A86
102
}
330
2A0A86
100
AcDbXrecord
340
2A0A3E
  0
MLINESTYLE
  5
2A0A44
102
{ACAD_REACTORS
330
2A0A37
102
}
330
2A0A37
100
AcDbMlineStyle
  2
STANDARD
 70
     0
  3

 62
     0
 51
90.0
 52
90.0
 71
     2
 49
0.5
 62
   256
  6
BYLAYER
 49
-0.5
 62
   256
  6
BYLAYER
  0
ACDBPLACEHOLDER
  5
2A0A5A
102
{ACAD_REACTORS
330
2A0A59
102
}
330
2A0A59
100
AcDbPlaceHolder
280
     0
  0
XRECORD
  5
2A0A70
102
{ACAD_REACTORS
330
2A0A66
102
}
330
2A0A66
100
AcDbXrecord
 90
        0
  0
XRECORD
  5
2A0A71
102
{ACAD_REACTORS
330
2A0A66
102
}
330
2A0A66
100
AcDbXrecord
  1
{69814620-8DB3-11D6-88E6-0090279574E7}
  0
XRECORD
  5
2A0A69
102
{ACAD_REACTORS
330
2A0A66
102
}
330
2A0A66
100
AcDbXrecord
  1

  0
XRECORD
  5
2A0A6F
102
{ACAD_REACTORS
330
2A0A66
102
}
330
2A0A66
100
AcDbXrecord
 90
        0
  0
XRECORD
  5
2A0A6B
102
{ACAD_REACTORS
330
2A0A66
102
}
330
2A0A66
100
AcDbXrecord
340
2A0A5B
  0
XRECORD
  5
2A0A6E
102
{ACAD_REACTORS
330
2A0A66
102
}
330
2A0A66
100
AcDbXrecord
 90
    14877
  0
XRECORD
  5
2A0A6C
102
{ACAD_REACTORS
330
2A0A66
102
}
330
2A0A66
100
AcDbXrecord
340
2A0A5C
  0
XRECORD
  5
2A0A6D
102
{ACAD_REACTORS
330
2A0A66
102
}
330
2A0A66
100
AcDbXrecord
340
2A0A59
  0
XRECORD
  5
2A0A73
102
{ACAD_REACTORS
330
2A0A66
102
}
330
2A0A66
100
AcDbXrecord
 40
0.0
  0
XRECORD
  5
2A0A76
102
{ACAD_REACTORS
330
2A0A66
102
}
330
2A0A66
100
AcDbXrecord
340
0
  0
XRECORD
  5
2A0A7C
102
{ACAD_REACTORS
330
2A0A66
102
}
330
2A0A66
100
AcDbXrecord
 10
0.0
 20
0.0
 30
0.0
  0
XRECORD
  5
2A0A78
102
{ACAD_REACTORS
330
2A0A66
102
}
330
2A0A66
100
AcDbXrecord
 10
0.0
 20
0.0
 30
0.0
  0
XRECORD
  5
2A0A7B
102
{ACAD_REACTORS
330
2A0A66
102
}
330
2A0A66
100
AcDbXrecord
 10
0.0
 20
0.0
 30
0.0
  0
XRECORD
  5
2A0A79
102
{ACAD_REACTORS
330
2A0A66
102
}
330
2A0A66
100
AcDbXrecord
 10
0.0
 20
0.0
 30
0.0
  0
XRECORD
  5
2A0A7A
102
{ACAD_REACTORS
330
2A0A66
102
}
330
2A0A66
100
AcDbXrecord
 10
0.0
 20
0.0
 30
0.0
  0
XRECORD
  5
2A0A77
102
{ACAD_REACTORS
330
2A0A66
102
}
330
2A0A66
100
AcDbXrecord
 10
0.0
 20
0.0
 30
0.0
  0
XRECORD
  5
2A0A74
102
{ACAD_REACTORS
330
2A0A66
102
}
330
2A0A66
100
AcDbXrecord
340
0
  0
XRECORD
  5
2A0A75
102
{ACAD_REACTORS
330
2A0A66
102
}
330
2A0A66
100
AcDbXrecord
 70
     0
  0
XRECORD
  5
2A0A6A
102
{ACAD_REACTORS
330
2A0A66
102
}
330
2A0A66
100
AcDbXrecord
  1

  0
XRECORD
  5
2A0A67
102
{ACAD_REACTORS
330
2A0A66
102
}
330
2A0A66
100
AcDbXrecord
 90
        1
  0
XRECORD
  5
2A0A68
102
{ACAD_REACTORS
330
2A0A66
102
}
330
2A0A66
100
AcDbXrecord
 90
       70
  0
XRECORD
  5
2A0A7F
102
{ACAD_REACTORS
330
2A0A66
102
}
330
2A0A66
100
AcDbXrecord
340
0
  0
XRECORD
  5
2A0A85
102
{ACAD_REACTORS
330
2A0A66
102
}
330
2A0A66
100
AcDbXrecord
 10
0.0
 20
0.0
 30
0.0
  0
XRECORD
  5
2A0A81
102
{ACAD_REACTORS
330
2A0A66
102
}
330
2A0A66
100
AcDbXrecord
 10
0.0
 20
0.0
 30
0.0
  0
XRECORD
  5
2A0A84
102
{ACAD_REACTORS
330
2A0A66
102
}
330
2A0A66
100
AcDbXrecord
 10
0.0
 20
0.0
 30
0.0
  0
XRECORD
  5
2A0A82
102
{ACAD_REACTORS
330
2A0A66
102
}
330
2A0A66
100
AcDbXrecord
 10
0.0
 20
0.0
 30
0.0
  0
XRECORD
  5
2A0A83
102
{ACAD_REACTORS
330
2A0A66
102
}
330
2A0A66
100
AcDbXrecord
 10
0.0
 20
0.0
 30
0.0
  0
XRECORD
  5
2A0A80
102
{ACAD_REACTORS
330
2A0A66
102
}
330
2A0A66
100
AcDbXrecord
 10
0.0
 20
0.0
 30
0.0
  0
XRECORD
  5
2A0A7D
102
{ACAD_REACTORS
330
2A0A66
102
}
330
2A0A66
100
AcDbXrecord
340
0
  0
XRECORD
  5
2A0A7E
102
{ACAD_REACTORS
330
2A0A66
102
}
330
2A0A66
100
AcDbXrecord
 70
     0
  0
XRECORD
  5
2A0A72
102
{ACAD_REACTORS
330
2A0A66
102
}
330
2A0A66
100
AcDbXrecord
  1
{69814622-8DB3-11D6-88E6-0090279574E7}
  0
DICTIONARYVAR
  5
2A0A64
102
{ACAD_REACTORS
330
2A0A63
102
}
330
2A0A63
100
DictionaryVariables
280
     0
  1
1
  0
ENDSEC
  0
EOF
