  0
SECTION
  2
HEADER
  9
$ACADVER
  1
AC1014
  9
$ACADMAINTVER
 70
     9
  9
$DWGCODEPAGE
  3
ANSI_1252
  9
$INSBASE
 10
2.401694239398276
 20
1.551502152000453
 30
0.0
  9
$EXTMIN
 10
0.658712660171133
 20
0.8434835479178719
 30
0.0
  9
$EXTMAX
 10
4.14393198191826
 20
2.358502152000453
 30
0.0
  9
$LIMMIN
 10
0.0
 20
0.0
  9
$LIMMAX
 10
18.0
 20
12.0
  9
$ORTHOMODE
 70
     1
  9
$REGENMODE
 70
     1
  9
$FILLMODE
 70
     1
  9
$QTEXTMODE
 70
     0
  9
$MIRRTEXT
 70
     0
  9
$DRAGMODE
 70
     2
  9
$LTSCALE
 40
1.0
  9
$OSMODE
 70
    39
  9
$ATTMODE
 70
     1
  9
$TEXTSIZE
 40
0.125
  9
$TRACEWID
 40
0.05
  9
$TEXTSTYLE
  7
ROMANS
  9
$CLAYER
  8
0
  9
$CELTYPE
  6
BYLAYER
  9
$CECOLOR
 62
   256
  9
$CELTSCALE
 40
1.0
  9
$DELOBJ
 70
     1
  9
$DISPSILH
 70
     1
  9
$DIMSCALE
 40
1.0
  9
$DIMASZ
 40
0.125
  9
$DIMEXO
 40
0.125
  9
$DIMDLI
 40
0.375
  9
$DIMRND
 40
0.0
  9
$DIMDLE
 40
0.0
  9
$DIMEXE
 40
0.125
  9
$DIMTP
 40
0.0
  9
$DIMTM
 40
0.0
  9
$DIMTXT
 40
0.125
  9
$DIMCEN
 40
-0.125
  9
$DIMTSZ
 40
0.0
  9
$DIMTOL
 70
     0
  9
$DIMLIM
 70
     0
  9
$DIMTIH
 70
     1
  9
$DIMTOH
 70
     1
  9
$DIMSE1
 70
     0
  9
$DIMSE2
 70
     0
  9
$DIMTAD
 70
     0
  9
$DIMZIN
 70
     4
  9
$DIMBLK
  1

  9
$DIMASO
 70
     1
  9
$DIMSHO
 70
     1
  9
$DIMPOST
  1

  9
$DIMAPOST
  1

  9
$DIMALT
 70
     0
  9
$DIMALTD
 70
     2
  9
$DIMALTF
 40
25.4
  9
$DIMLFAC
 40
1.0
  9
$DIMTOFL
 70
     0
  9
$DIMTVP
 40
0.0
  9
$DIMTIX
 70
     1
  9
$DIMSOXD
 70
     0
  9
$DIMSAH
 70
     0
  9
$DIMBLK1
  1

  9
$DIMBLK2
  1

  9
$DIMSTYLE
  2
STANDARD
  9
$DIMCLRD
 70
     0
  9
$DIMCLRE
 70
     0
  9
$DIMCLRT
 70
     0
  9
$DIMTFAC
 40
1.0
  9
$DIMGAP
 40
0.09
  9
$DIMJUST
 70
     0
  9
$DIMSD1
 70
     0
  9
$DIMSD2
 70
     0
  9
$DIMTOLJ
 70
     1
  9
$DIMTZIN
 70
     4
  9
$DIMALTZ
 70
     0
  9
$DIMALTTZ
 70
     0
  9
$DIMFIT
 70
     3
  9
$DIMUPT
 70
     0
  9
$DIMUNIT
 70
     2
  9
$DIMDEC
 70
     3
  9
$DIMTDEC
 70
     3
  9
$DIMALTU
 70
     2
  9
$DIMALTTD
 70
     2
  9
$DIMTXSTY
  7
ROMANS
  9
$DIMAUNIT
 70
     0
  9
$LUNITS
 70
     2
  9
$LUPREC
 70
     3
  9
$SKETCHINC
 40
0.1
  9
$FILLETRAD
 40
0.03125
  9
$AUNITS
 70
     0
  9
$AUPREC
 70
     0
  9
$MENU
  1
ACAD
  9
$ELEVATION
 40
0.0
  9
$PELEVATION
 40
0.0
  9
$THICKNESS
 40
0.0
  9
$LIMCHECK
 70
     0
  9
$BLIPMODE
 70
     0
  9
$CHAMFERA
 40
0.0
  9
$CHAMFERB
 40
0.0
  9
$CHAMFERC
 40
0.0
  9
$CHAMFERD
 40
0.0
  9
$SKPOLY
 70
     0
  9
$TDCREATE
 40
2448993.415614930
  9
$TDUPDATE
 40
2452458.292519664
  9
$TDINDWG
 40
0.0016623495
  9
$TDUSRTIMER
 40
0.0016623495
  9
$USRTIMER
 70
     1
  9
$ANGBASE
 50
0.0
  9
$ANGDIR
 70
     0
  9
$PDMODE
 70
     0
  9
$PDSIZE
 40
0.0
  9
$PLINEWID
 40
0.0
  9
$COORDS
 70
     2
  9
$SPLFRAME
 70
     0
  9
$SPLINETYPE
 70
     6
  9
$SPLINESEGS
 70
     8
  9
$ATTDIA
 70
     0
  9
$ATTREQ
 70
     1
  9
$HANDLING
 70
 22529
  9
$HANDSEED
  5
150F69
  9
$SURFTAB1
 70
     6
  9
$SURFTAB2
 70
     6
  9
$SURFTYPE
 70
     6
  9
$SURFU
 70
     6
  9
$SURFV
 70
     6
  9
$UCSNAME
  2

  9
$UCSORG
 10
0.0
 20
0.0
 30
0.0
  9
$UCSXDIR
 10
1.0
 20
0.0
 30
0.0
  9
$UCSYDIR
 10
0.0
 20
1.0
 30
0.0
  9
$PUCSNAME
  2

  9
$PUCSORG
 10
0.0
 20
0.0
 30
0.0
  9
$PUCSXDIR
 10
1.0
 20
0.0
 30
0.0
  9
$PUCSYDIR
 10
0.0
 20
1.0
 30
0.0
  9
$USERI1
 70
     0
  9
$USERI2
 70
     0
  9
$USERI3
 70
     0
  9
$USERI4
 70
     0
  9
$USERI5
 70
     0
  9
$USERR1
 40
0.0
  9
$USERR2
 40
0.0
  9
$USERR3
 40
0.0
  9
$USERR4
 40
0.0
  9
$USERR5
 40
0.0
  9
$WORLDVIEW
 70
     1
  9
$SHADEDGE
 70
     3
  9
$SHADEDIF
 70
    70
  9
$TILEMODE
 70
     1
  9
$MAXACTVP
 70
    16
  9
$PINSBASE
 10
0.0
 20
0.0
 30
0.0
  9
$PLIMCHECK
 70
     0
  9
$PEXTMIN
 10
1.000000000000000E+20
 20
1.000000000000000E+20
 30
1.000000000000000E+20
  9
$PEXTMAX
 10
-1.000000000000000E+20
 20
-1.000000000000000E+20
 30
-1.000000000000000E+20
  9
$PLIMMIN
 10
0.0
 20
0.0
  9
$PLIMMAX
 10
12.0
 20
9.0
  9
$UNITMODE
 70
     0
  9
$VISRETAIN
 70
     0
  9
$PLINEGEN
 70
     1
  9
$PSLTSCALE
 70
     0
  9
$TREEDEPTH
 70
  3020
  9
$PICKSTYLE
 70
     1
  9
$CMLSTYLE
  2
STANDARD
  9
$CMLJUST
 70
     0
  9
$CMLSCALE
 40
1.0
  9
$PROXYGRAPHICS
 70
     1
  9
$MEASUREMENT
 70
     0
  0
ENDSEC
  0
SECTION
  2
CLASSES
  0
CLASS
  1
LWPOLYLINE
  2
AcDbPolyline
  3
AutoCAD 2000
 90
        0
280
     0
281
     1
  0
CLASS
  1
ACDBDICTIONARYWDFLT
  2
AcDbDictionaryWithDefault
  3
AutoCAD 2000
 90
        0
280
     0
281
     0
  0
CLASS
  1
ACDBPLACEHOLDER
  2
AcDbPlaceHolder
  3
AutoCAD 2000
 90
        0
280
     0
281
     0
  0
CLASS
  1
LAYOUT
  2
AcDbLayout
  3
AutoCAD 2000
 90
        0
280
     0
281
     0
  0
CLASS
  1
DICTIONARYVAR
  2
AcDbDictionaryVar
  3
AutoCAD 2000
 90
        0
280
     0
281
     0
  0
CLASS
  1
LONG_TRANSACTION
  2
AcDbLongTransaction
  3
AutoCAD 2000
 90
        0
280
     0
281
     0
  0
CLASS
  1
LWPOLYLINE
  2
AcDbPolyline
  3
AutoCAD 2000
 90
        0
280
     0
281
     1
  0
CLASS
  1
HATCH
  2
AcDbHatch
  3
AutoCAD 2000
 90
        0
280
     0
281
     1
  0
CLASS
  1
XRECORD
  2
AcDbXrecord
  3
AutoCAD 2000
 90
        0
280
     0
281
     0
  0
ENDSEC
  0
SECTION
  2
TABLES
  0
TABLE
  2
VPORT
  5
150F10
330
0
100
AcDbSymbolTable
 70
     2
  0
VPORT
  5
150F44
330
150F10
100
AcDbSymbolTableRecord
100
AcDbViewportTableRecord
  2
*ACTIVE
 70
     0
 10
0.0
 20
0.0
 11
1.0
 21
1.0
 12
5.376500745725785
 22
1.60089113609969
 13
0.0
 23
0.0
 14
0.015625
 24
0.015625
 15
0.0
 25
0.0
 16
0.0
 26
0.0
 36
1.0
 17
0.0
 27
0.0
 37
0.0
 40
2.281748181188984
 41
4.320930232558139
 42
50.0
 43
0.0
 44
0.0
 50
0.0
 51
0.0
 71
     0
 72
  2000
 73
     1
 74
     0
 75
     1
 76
     0
 77
     0
 78
     0
  0
ENDTAB
  0
TABLE
  2
LTYPE
  5
150F0D
330
0
100
AcDbSymbolTable
 70
     1
  0
LTYPE
  5
150F1A
330
150F0D
100
AcDbSymbolTableRecord
100
AcDbLinetypeTableRecord
  2
BYBLOCK
 70
     0
  3

 72
    65
 73
     0
 40
0.0
  0
LTYPE
  5
150F1B
330
150F0D
100
AcDbSymbolTableRecord
100
AcDbLinetypeTableRecord
  2
BYLAYER
 70
     0
  3

 72
    65
 73
     0
 40
0.0
  0
LTYPE
  5
150F1C
330
150F0D
100
AcDbSymbolTableRecord
100
AcDbLinetypeTableRecord
  2
CONTINUOUS
 70
     0
  3
Solid line
 72
    65
 73
     0
 40
0.0
  0
ENDTAB
  0
TABLE
  2
LAYER
  5
150F0A
330
0
100
AcDbSymbolTable
 70
     2
  0
LAYER
  5
150F17
330
150F0A
100
AcDbSymbolTableRecord
100
AcDbLayerTableRecord
  2
0
 70
     0
 62
     7
  6
CONTINUOUS
  0
LAYER
  5
150F27
330
150F0A
100
AcDbSymbolTableRecord
100
AcDbLayerTableRecord
  2
TEXT
 70
     0
 62
     3
  6
CONTINUOUS
  0
ENDTAB
  0
TABLE
  2
STYLE
  5
150F0B
330
0
100
AcDbSymbolTable
 70
     3
  0
STYLE
  5
150F18
330
150F0B
100
AcDbSymbolTableRecord
100
AcDbTextStyleTableRecord
  2
STANDARD
 70
     0
 40
0.0
 41
1.0
 50
0.0
 71
     0
 42
0.3125
  3
txt
  4

  0
STYLE
  5
150F24
330
150F0B
100
AcDbSymbolTableRecord
100
AcDbTextStyleTableRecord
  2
ITALICC
 70
     0
 40
0.0
 41
1.0
 50
0.0
 71
     0
 42
0.125
  3
italicc
  4

  0
STYLE
  5
150F34
330
150F0B
100
AcDbSymbolTableRecord
100
AcDbTextStyleTableRecord
  2
ROMANS
 70
     0
 40
0.0
 41
1.0
 50
0.0
 71
     0
 42
0.125
  3
romans.shx
  4

  0
ENDTAB
  0
TABLE
  2
VIEW
  5
150F0E
330
0
100
AcDbSymbolTable
 70
     0
  0
ENDTAB
  0
TABLE
  2
UCS
  5
150F0F
330
0
100
AcDbSymbolTable
 70
     0
  0
ENDTAB
  0
TABLE
  2
APPID
  5
150F11
330
0
100
AcDbSymbolTable
 70
     1
  0
APPID
  5
150F19
330
150F11
100
AcDbSymbolTableRecord
100
AcDbRegAppTableRecord
  2
ACAD
 70
     0
  0
ENDTAB
  0
TABLE
  2
DIMSTYLE
  5
150F12
330
0
100
AcDbSymbolTable
 70
     1
  0
DIMSTYLE
105
150F2C
330
150F12
100
AcDbSymbolTableRecord
100
AcDbDimStyleTableRecord
  2
STANDARD
 70
     0
  3

  4

  5

  6

  7

 40
1.0
 41
0.125
 42
0.125
 43
0.375
 44
0.125
 45
0.0
 46
0.0
 47
0.0
 48
0.0
140
0.125
141
-0.125
142
0.0
143
25.4
144
1.0
145
0.0
146
1.0
147
0.09
 71
     0
 72
     0
 73
     1
 74
     1
 75
     0
 76
     0
 77
     0
 78
     4
170
     0
171
     2
172
     0
173
     0
174
     1
175
     0
176
     0
177
     0
178
     0
270
     2
271
     3
272
     3
273
     2
274
     2
340
150F34
275
     0
280
     0
281
     0
282
     0
283
     1
284
     4
285
     0
286
     0
287
     3
288
     0
  0
ENDTAB
  0
TABLE
  2
BLOCK_RECORD
  5
150F09
330
0
100
AcDbSymbolTable
 70
     0
  0
BLOCK_RECORD
  5
150F20
102
{ACAD_XDICTIONARY
360
150F67
102
}
330
150F09
100
AcDbSymbolTableRecord
100
AcDbBlockTableRecord
  2
*MODEL_SPACE
  0
BLOCK_RECORD
  5
150F1D
102
{ACAD_XDICTIONARY
360
150F65
102
}
330
150F09
100
AcDbSymbolTableRecord
100
AcDbBlockTableRecord
  2
*PAPER_SPACE
  0
ENDTAB
  0
ENDSEC
  0
SECTION
  2
BLOCKS
  0
BLOCK
  5
150F2A
330
150F20
100
AcDbEntity
  8
0
100
AcDbBlockBegin
  2
*MODEL_SPACE
 70
     0
 10
0.0
 20
0.0
 30
0.0
  3
*MODEL_SPACE
  1

  0
ENDBLK
  5
150F2B
330
150F20
100
AcDbEntity
  8
0
100
AcDbBlockEnd
  0
BLOCK
  5
150F28
330
150F1D
100
AcDbEntity
 67
     1
  8
0
100
AcDbBlockBegin
  2
*PAPER_SPACE
 70
     0
 10
0.0
 20
0.0
 30
0.0
  3
*PAPER_SPACE
  1

  0
ENDBLK
  5
150F29
330
150F1D
100
AcDbEntity
 67
     1
  8
0
100
AcDbBlockEnd
  0
ENDSEC
  0
SECTION
  2
ENTITIES
  0
LWPOLYLINE
  5
14F55B
330
150F20
100
AcDbEntity
  8
0
100
AcDbPolyline
 90
       13
 70
     1
 43
0.0
 10
2.149194239398276
 20
2.331002152000453
 10
2.149194239398276
 20
1.606502152000453
 10
2.391694239398276
 20
1.606502152000453
 10
2.401694239398276
 20
1.596502152000453
 10
2.411694239398276
 20
1.606502152000453
 10
2.654194239398276
 20
1.606502152000453
 10
2.654194239398276
 20
2.331002152000453
 42
-1.0
 10
2.709194239398275
 20
2.331002152000453
 10
2.709194239398275
 20
1.582752152000453
 42
-0.4142135623730951
 10
2.677944239398275
 20
1.551502152000453
 10
2.125444239398276
 20
1.551502152000453
 42
-0.4142135623730951
 10
2.094194239398276
 20
1.582752152000453
 10
2.094194239398276
 20
2.331002152000453
 42
-1.0
  0
TEXT
  5
150DCB
330
150F20
100
AcDbEntity
  8
TEXT
100
AcDbText
 10
1.648718048922086
 20
1.301502152000453
 30
0.0
 40
0.125
  1
PART #110023
  7
ITALICC
 72
     1
 11
2.401694239398276
 21
1.301502152000453
 31
0.0
100
AcDbText
  0
TEXT
  5
150DCC
330
150F20
100
AcDbEntity
  8
TEXT
100
AcDbText
 10
2.814999397648596
 20
0.8545795093280784
 30
0.0
 40
0.0522247191011236
  1
Phone  1-800-328-2495
 41
1.272321428571429
 72
     5
 11
4.14393198191826
 21
0.8545795093280784
 31
0.0
100
AcDbText
  0
TEXT
  5
150DCD
330
150F20
100
AcDbEntity
  8
TEXT
100
AcDbText
 10
2.814999397648596
 20
1.134354790226954
 30
0.0
 40
0.0522247191011236
  1
Stylmark  Incorporated
 41
1.221428571428573
 72
     5
 11
4.14393198191826
 21
1.134354790226954
 31
0.0
100
AcDbText
  0
TEXT
  5
150DCE
330
150F20
100
AcDbEntity
  8
TEXT
100
AcDbText
 10
2.814999397648596
 20
1.041096363260662
 30
0.0
 40
0.0522247191011236
  1
6536 Main St. N.E. * P.O. Box 32008
 41
0.8388932496075366
 72
     5
 11
4.14393198191826
 21
1.041096363260662
 31
0.0
100
AcDbText
  0
TEXT
  5
150DCF
330
150F20
100
AcDbEntity
  8
TEXT
100
AcDbText
 10
2.814999397648596
 20
0.9478379362943705
 30
0.0
 40
0.0522247191011236
  1
Minneapolis, MN 55432-0008
 41
1.11444212721585
 72
     5
 11
4.14393198191826
 21
0.9478379362943705
 31
0.0
100
AcDbText
  0
LWPOLYLINE
  5
150DD0
330
150F20
100
AcDbEntity
  8
TEXT
100
AcDbPolyline
 90
        3
 70
     0
 43
0.0006660908203125
 10
0.6590457055812893
 20
0.9682242719655132
 10
0.6590457055812893
 20
0.8549888325123855
 10
0.7722811450344116
 20
0.8549888325123855
  0
LWPOLYLINE
  5
150DD5
330
150F20
100
AcDbEntity
  8
TEXT
100
AcDbPolyline
 90
        3
 70
     0
 43
0.0006660908203125
 10
0.6856893383937868
 20
0.9682242719655132
 10
0.6856893383937868
 20
0.8816324653248866
 10
0.7722811450344116
 20
0.8816324653248866
  0
LWPOLYLINE
  5
150DDA
330
150F20
100
AcDbEntity
  8
TEXT
100
AcDbPolyline
 90
        2
 70
     0
 43
0.0001332181640625
 10
0.7323156958156636
 20
0.9782156342701984
 10
0.6590457055812893
 20
0.9682242719655132
  0
LWPOLYLINE
  5
150DDE
330
150F20
100
AcDbEntity
  8
TEXT
100
AcDbPolyline
 90
        2
 70
     0
 43
0.0001332181640625
 10
0.6856893383937868
 20
0.9682242719655132
 10
0.7456375122219141
 20
0.9782156342701984
  0
LWPOLYLINE
  5
150DE2
330
150F20
100
AcDbEntity
  8
TEXT
100
AcDbPolyline
 90
        2
 70
     0
 43
0.0001332181640625
 10
0.6856893383937868
 20
0.8816324653248866
 10
0.7456375122219141
 20
0.9415806391530121
  0
LWPOLYLINE
  5
150DE6
330
150F20
100
AcDbEntity
  8
TEXT
100
AcDbPolyline
 90
        3
 70
     0
 43
0.0006660908203125
 10
0.7722811450344116
 20
1.121425160637388
 10
0.6590457055812893
 20
1.121425160637388
 10
0.6590457055812893
 20
1.008189721184261
  0
LWPOLYLINE
  5
150DEB
330
150F20
100
AcDbEntity
  8
TEXT
100
AcDbPolyline
 90
        3
 70
     0
 43
0.0006660908203125
 10
0.7722811450344116
 20
1.094781527824887
 10
0.6856893383937868
 20
1.094781527824887
 10
0.6856893383937868
 20
1.008189721184261
  0
LWPOLYLINE
  5
150DF0
330
150F20
100
AcDbEntity
  8
TEXT
100
AcDbPolyline
 90
        2
 70
     0
 43
0.0001332181640625
 10
0.6856893383937868
 20
1.094781527824887
 10
0.7456375122219124
 20
1.034833353996762
  0
LWPOLYLINE
  5
150DF4
330
150F20
100
AcDbEntity
  8
TEXT
100
AcDbPolyline
 90
        2
 70
     0
 43
0.0001332181640625
 10
0.6856893383937868
 20
1.008189721184261
 10
0.7456375122219124
 20
0.9981983588795724
  0
LWPOLYLINE
  5
150DF8
330
150F20
100
AcDbEntity
  8
TEXT
100
AcDbPolyline
 90
        2
 70
     0
 43
0.0001332181640625
 10
0.6590457055812893
 20
1.008189721184261
 10
0.7323156958156636
 20
0.9981983588795724
  0
LWPOLYLINE
  5
150DFC
330
150F20
100
AcDbEntity
  8
TEXT
100
AcDbPolyline
 90
        2
 70
     0
 43
0.0006660908203125
 10
0.6856893383937868
 20
0.9682242719655132
 10
0.6590457055812893
 20
0.9682242719655132
  0
LWPOLYLINE
  5
150E00
330
150F20
100
AcDbEntity
  8
TEXT
100
AcDbPolyline
 90
        2
 70
     0
 43
0.0006660908203125
 10
0.6856893383937868
 20
1.008189721184261
 10
0.6590457055812893
 20
1.008189721184261
  0
LINE
  5
150E04
330
150F20
100
AcDbEntity
  8
TEXT
100
AcDbLine
 10
2.174236134707786
 20
1.057148465980619
 30
0.0
 11
2.067029861320497
 21
1.057148465980619
 31
0.0
  0
LINE
  5
150E05
330
150F20
100
AcDbEntity
  8
TEXT
100
AcDbLine
 10
2.203267033052265
 20
1.121425160637385
 30
0.0
 11
2.068435123835206
 21
1.121425160637385
 31
0.0
  0
ARC
  5
150E06
330
150F20
100
AcDbEntity
  8
TEXT
100
AcDbCircle
 10
2.127749220228523
 20
0.952187911374369
 30
0.0
 40
0.0676855811441166
100
AcDbArc
 50
90.0
 51
153.7768192527749
  0
LWPOLYLINE
  5
150E07
330
150F20
100
AcDbEntity
  8
TEXT
100
AcDbPolyline
 90
        2
 70
     0
 43
0.0
 10
2.065997365865687
 20
0.8984430725993124
 42
0.2901071551932823
 10
2.109073298733322
 20
0.8549521276488743
 42
5.328517124445801
  0
ARC
  5
150E0B
330
150F20
100
AcDbEntity
  8
TEXT
100
AcDbCircle
 10
1.422617842557037
 20
0.9147445189869241
 30
0.0
 40
0.0601160179737537
100
AcDbArc
 50
180.0000000000003
 51
264.0521544866073
  0
LINE
  5
150E0C
330
150F20
100
AcDbEntity
  8
TEXT
100
AcDbLine
 10
1.426133198182585
 20
1.155813078231523
 30
0.0
 11
1.366090593338578
 21
1.155813078231523
 31
0.0
  0
ARC
  5
150E0D
330
150F20
100
AcDbEntity
  8
TEXT
100
AcDbCircle
 10
1.190358840440066
 20
1.039337701190883
 30
0.0
 40
0.0820874594465043
100
AcDbArc
 50
90.0
 51
270.0
  0
LWPOLYLINE
  5
150E0E
330
150F20
100
AcDbEntity
  8
TEXT
100
AcDbPolyline
 90
        2
 70
     0
 43
0.0001332181640625
 10
0.7822725073391022
 20
1.048155170403009
 10
0.7722811450344116
 20
1.121425160637388
  0
LWPOLYLINE
  5
150E12
330
150F20
100
AcDbEntity
  8
TEXT
100
AcDbPolyline
 90
        2
 70
     0
 43
0.0001332181640625
 10
0.7722811450344116
 20
1.094781527824887
 10
0.7822725073391022
 20
1.034833353996762
  0
LWPOLYLINE
  5
150E16
330
150F20
100
AcDbEntity
  8
TEXT
100
AcDbPolyline
 90
        3
 70
     0
 43
0.0006660908203125
 10
0.925482033706289
 20
1.008189721184261
 10
0.925482033706289
 20
1.121425160637388
 10
0.8122465942531631
 20
1.121425160637388
  0
LWPOLYLINE
  5
150E1B
330
150F20
100
AcDbEntity
  8
TEXT
100
AcDbPolyline
 90
        3
 70
     0
 43
0.0006660908203125
 10
0.8988384008937879
 20
1.008189721184261
 10
0.8988384008937879
 20
1.094781527824887
 10
0.8122465942531631
 20
1.094781527824887
  0
LWPOLYLINE
  5
150E20
330
150F20
100
AcDbEntity
  8
TEXT
100
AcDbPolyline
 90
        2
 70
     0
 43
0.0001332181640625
 10
0.8988384008937879
 20
1.094781527824887
 10
0.8388902270656641
 20
1.034833353996762
  0
LWPOLYLINE
  5
150E24
330
150F20
100
AcDbEntity
  8
TEXT
100
AcDbPolyline
 90
        2
 70
     0
 43
0.0001332181640625
 10
0.8122465942531631
 20
1.094781527824887
 10
0.8022552319484743
 20
1.034833353996762
  0
LWPOLYLINE
  5
150E28
330
150F20
100
AcDbEntity
  8
TEXT
100
AcDbPolyline
 90
        2
 70
     0
 43
0.0001332181640625
 10
0.8122465942531631
 20
1.121425160637388
 10
0.8022552319484743
 20
1.048155170403009
  0
LWPOLYLINE
  5
150E2C
330
150F20
100
AcDbEntity
  8
TEXT
100
AcDbPolyline
 90
        2
 70
     0
 43
0.0001332181640625
 10
0.8522120434719129
 20
0.9981983588795724
 10
0.925482033706289
 20
1.008189721184261
  0
LWPOLYLINE
  5
150E30
330
150F20
100
AcDbEntity
  8
TEXT
100
AcDbPolyline
 90
        2
 70
     0
 43
0.0001332181640625
 10
0.8988384008937879
 20
1.008189721184261
 10
0.8388902270656641
 20
0.9981983588795724
  0
LWPOLYLINE
  5
150E34
330
150F20
100
AcDbEntity
  8
TEXT
100
AcDbPolyline
 90
        2
 70
     0
 43
0.0001332181640625
 10
0.925482033706289
 20
0.9682242719655132
 10
0.8522120434719129
 20
0.9782156342701984
  0
LWPOLYLINE
  5
150E38
330
150F20
100
AcDbEntity
  8
TEXT
100
AcDbPolyline
 90
        2
 70
     0
 43
0.0001332181640625
 10
0.8988384008937879
 20
0.9682242719655132
 10
0.8388902270656641
 20
0.9782156342701984
  0
LWPOLYLINE
  5
150E3C
330
150F20
100
AcDbEntity
  8
TEXT
100
AcDbPolyline
 90
        2
 70
     0
 43
0.0001332181640625
 10
0.8988384008937879
 20
0.8816324653248866
 10
0.8388902270656641
 20
0.9415806391530121
  0
LWPOLYLINE
  5
150E40
330
150F20
100
AcDbEntity
  8
TEXT
100
AcDbPolyline
 90
        3
 70
     0
 43
0.0006660908203125
 10
0.8122465942531631
 20
0.8816324653248866
 10
0.8988384008937879
 20
0.8816324653248866
 10
0.8988384008937879
 20
0.9682242719655132
  0
LWPOLYLINE
  5
150E45
330
150F20
100
AcDbEntity
  8
TEXT
100
AcDbPolyline
 90
        3
 70
     0
 43
0.0006660908203125
 10
0.8122465942531631
 20
0.8549888325123855
 10
0.925482033706289
 20
0.8549888325123855
 10
0.925482033706289
 20
0.9682242719655132
  0
LWPOLYLINE
  5
150E4A
330
150F20
100
AcDbEntity
  8
TEXT
100
AcDbPolyline
 90
        5
 70
     0
 43
0.0001332181640625
 10
0.7822725073391022
 20
0.9282588227467616
 10
0.7822725073391022
 20
0.9415806391530121
 10
0.7456375122219141
 20
0.9415806391530121
 10
0.7456375122219141
 20
0.9782156342701984
 10
0.7323156958156636
 20
0.9782156342701984
  0
LWPOLYLINE
  5
150E51
330
150F20
100
AcDbEntity
  8
TEXT
100
AcDbPolyline
 90
        2
 70
     0
 43
0.0006660908203125
 10
0.7722811450344116
 20
0.8816324653248866
 10
0.7722811450344116
 20
0.8549888325123855
  0
LWPOLYLINE
  5
150E55
330
150F20
100
AcDbEntity
  8
TEXT
100
AcDbPolyline
 90
        2
 70
     0
 43
0.0001332181640625
 10
0.7722811450344116
 20
0.8816324653248866
 10
0.7822725073391022
 20
0.9415806391530121
  0
LWPOLYLINE
  5
150E59
330
150F20
100
AcDbEntity
  8
TEXT
100
AcDbPolyline
 90
        2
 70
     0
 43
0.0001332181640625
 10
0.7722811450344116
 20
0.8549888325123855
 10
0.7822725073391022
 20
0.9282588227467616
  0
LWPOLYLINE
  5
150E5D
330
150F20
100
AcDbEntity
  8
TEXT
100
AcDbPolyline
 90
        5
 70
     0
 43
0.0001332181640625
 10
0.7323156958156636
 20
0.9981983588795724
 10
0.7456375122219124
 20
0.9981983588795724
 10
0.7456375122219124
 20
1.034833353996762
 10
0.7822725073391022
 20
1.034833353996762
 10
0.7822725073391022
 20
1.048155170403009
  0
LWPOLYLINE
  5
150E64
330
150F20
100
AcDbEntity
  8
TEXT
100
AcDbPolyline
 90
        5
 70
     0
 43
0.0001332181640625
 10
0.8022552319484743
 20
1.048155170403009
 10
0.8022552319484743
 20
1.034833353996762
 10
0.8388902270656641
 20
1.034833353996762
 10
0.8388902270656641
 20
0.9981983588795724
 10
0.8522120434719129
 20
0.9981983588795724
  0
LWPOLYLINE
  5
150E6B
330
150F20
100
AcDbEntity
  8
TEXT
100
AcDbPolyline
 90
        2
 70
     0
 43
0.0001332181640625
 10
0.8122465942531631
 20
0.8816324653248866
 10
0.8022552319484743
 20
0.9415806391530121
  0
LWPOLYLINE
  5
150E6F
330
150F20
100
AcDbEntity
  8
TEXT
100
AcDbPolyline
 90
        2
 70
     0
 43
0.0001332181640625
 10
0.8022552319484743
 20
0.9282588227467616
 10
0.8122465942531631
 20
0.8549888325123855
  0
LWPOLYLINE
  5
150E73
330
150F20
100
AcDbEntity
  8
TEXT
100
AcDbPolyline
 90
        2
 70
     0
 43
0.0006660908203125
 10
0.8122465942531631
 20
0.8816324653248866
 10
0.8122465942531631
 20
0.8549888325123855
  0
LWPOLYLINE
  5
150E77
330
150F20
100
AcDbEntity
  8
TEXT
100
AcDbPolyline
 90
        5
 70
     0
 43
0.0001332181640625
 10
0.8522120434719129
 20
0.9782156342701984
 10
0.8388902270656641
 20
0.9782156342701984
 10
0.8388902270656641
 20
0.9415806391530121
 10
0.8022552319484743
 20
0.9415806391530121
 10
0.8022552319484743
 20
0.9282588227467616
  0
LWPOLYLINE
  5
150E7E
330
150F20
100
AcDbEntity
  8
TEXT
100
AcDbPolyline
 90
        2
 70
     0
 43
0.0006660908203125
 10
0.8988384008937879
 20
1.008189721184261
 10
0.925482033706289
 20
1.008189721184261
  0
LWPOLYLINE
  5
150E82
330
150F20
100
AcDbEntity
  8
TEXT
100
AcDbPolyline
 90
        2
 70
     0
 43
0.0006660908203125
 10
0.8988384008937879
 20
0.9682242719655132
 10
0.925482033706289
 20
0.9682242719655132
  0
LINE
  5
150E86
330
150F20
100
AcDbEntity
  8
TEXT
100
AcDbLine
 10
1.195596170554313
 20
1.057148465980619
 30
0.0
 11
1.362501824583285
 21
1.057148465980619
 31
0.0
  0
LINE
  5
150E87
330
150F20
100
AcDbEntity
  8
TEXT
100
AcDbLine
 10
1.261196306798614
 20
1.021343744369991
 30
0.0
 11
1.195596170554313
 21
1.021343744369991
 31
0.0
  0
LINE
  5
150E88
330
150F20
100
AcDbEntity
  8
TEXT
100
AcDbLine
 10
1.108271380993562
 20
0.8549521276488743
 30
0.0
 11
1.261196306798614
 21
0.8549521276488743
 31
0.0
  0
LINE
  5
150E89
330
150F20
100
AcDbEntity
  8
TEXT
100
AcDbLine
 10
1.266136680704894
 20
0.9233091339823136
 30
0.0
 11
1.10827138099356
 21
0.9233091339823136
 31
0.0
  0
LINE
  5
150E8A
330
150F20
100
AcDbEntity
  8
TEXT
100
AcDbLine
 10
1.190358840440065
 20
0.9572502417443782
 30
0.0
 11
1.266136680704894
 21
0.9572502417443782
 31
0.0
  0
ARC
  5
150E8B
330
150F20
100
AcDbEntity
  8
TEXT
100
AcDbCircle
 10
1.195596170554314
 20
1.039246105175307
 30
0.0
 40
0.017902360805315
100
AcDbArc
 50
90.0
 51
270.0
  0
LINE
  5
150E8C
330
150F20
100
AcDbEntity
  8
TEXT
100
AcDbLine
 10
1.10827138099356
 20
0.9233091339823136
 30
0.0
 11
1.108271380993562
 21
0.8549521276488743
 31
0.0
  0
LINE
  5
150E8D
330
150F20
100
AcDbEntity
  8
TEXT
100
AcDbLine
 10
1.362501824583285
 20
1.057148465980619
 30
0.0
 11
1.362501824583285
 21
0.9147445189869241
 31
0.0
  0
ARC
  5
150E8E
330
150F20
100
AcDbEntity
  8
TEXT
100
AcDbCircle
 10
1.261196306798615
 20
0.9381479360094314
 30
0.0
 40
0.0831958083605586
100
AcDbArc
 50
270.0
 51
90.0
  0
ARC
  5
150E8F
330
150F20
100
AcDbEntity
  8
TEXT
100
AcDbCircle
 10
1.266136680704895
 20
0.9402796878633477
 30
0.0
 40
0.0169705538810321
100
AcDbArc
 50
270.0
 51
90.0
  0
LWPOLYLINE
  5
150E90
330
150F20
100
AcDbEntity
  8
TEXT
100
AcDbPolyline
 90
        2
 70
     0
 43
0.0006660908203125
 10
0.7722811450344116
 20
1.094781527824887
 10
0.7722811450344116
 20
1.121425160637388
  0
LWPOLYLINE
  5
150E94
330
150F20
100
AcDbEntity
  8
TEXT
100
AcDbPolyline
 90
        2
 70
     0
 43
0.0006660908203125
 10
0.8122465942531631
 20
1.094781527824887
 10
0.8122465942531631
 20
1.121425160637388
  0
LINE
  5
150E98
330
150F20
100
AcDbEntity
  8
TEXT
100
AcDbLine
 10
1.366090593338578
 20
1.121425160637385
 30
0.0
 11
1.190358840440065
 21
1.121425160637385
 31
0.0
  0
LINE
  5
150E99
330
150F20
100
AcDbEntity
  8
TEXT
100
AcDbLine
 10
1.366090593338578
 20
1.155813078231523
 30
0.0
 11
1.366090593338578
 21
1.121425160637385
 31
0.0
  0
LINE
  5
150E9A
330
150F20
100
AcDbEntity
  8
TEXT
100
AcDbLine
 10
1.55656248535843
 20
1.020553164524264
 30
0.0
 11
1.497932164326492
 21
1.121425160637385
 31
0.0
  0
LINE
  5
150E9B
330
150F20
100
AcDbEntity
  8
TEXT
100
AcDbLine
 10
1.615311048164295
 20
1.121425160637385
 30
0.0
 11
1.55656248535843
 21
1.020553164524264
 31
0.0
  0
LINE
  5
150E9C
330
150F20
100
AcDbEntity
  8
TEXT
100
AcDbLine
 10
1.712241673524037
 20
0.9373399657518735
 30
0.0
 11
1.712241673524037
 21
1.189436638376195
 31
0.0
  0
LINE
  5
150E9D
330
150F20
100
AcDbEntity
  8
TEXT
100
AcDbLine
 10
1.744553527661697
 20
1.121425160637385
 30
0.0
 11
1.744553527661697
 21
0.920560953904977
 31
0.0
  0
LINE
  5
150E9E
330
150F20
100
AcDbEntity
  8
TEXT
100
AcDbLine
 10
1.744553527661697
 20
0.920560953904977
 30
0.0
 11
1.727559890777095
 21
0.920560953904977
 31
0.0
  0
LINE
  5
150E9F
330
150F20
100
AcDbEntity
  8
TEXT
100
AcDbLine
 10
1.713381247020231
 20
0.8549521276488743
 30
0.0
 11
1.811384580719666
 21
0.8549521276488743
 31
0.0
  0
LINE
  5
150EA0
330
150F20
100
AcDbEntity
  8
TEXT
100
AcDbLine
 10
1.546962248361476
 20
0.8749106337538872
 30
0.0
 11
1.64426195445492
 21
1.039260844689155
 31
0.0
  0
ARC
  5
150EA1
330
150F20
100
AcDbEntity
  8
TEXT
100
AcDbCircle
 10
1.512918688449262
 20
0.89449984992257
 30
0.0
 40
0.0392772371940762
100
AcDbArc
 50
270.1604552698595
 51
330.0831797321295
  0
LINE
  5
150EA2
330
150F20
100
AcDbEntity
  8
TEXT
100
AcDbLine
 10
1.41638843206339
 20
0.8549521276488743
 30
0.0
 11
1.513028683138385
 21
0.8552227667471566
 31
0.0
  0
LWPOLYLINE
  5
150EA3
330
150F20
100
AcDbEntity
  8
TEXT
100
AcDbPolyline
 90
        6
 70
     1
 43
0.0
 10
1.45891223563854
 20
1.057148465980619
 10
1.428595641418332
 20
1.057148465980619
 10
1.428595641418332
 20
0.9340374679257255
 42
0.407328721240804
 10
1.440139292579808
 20
0.9222185532493394
 10
1.500760991624539
 20
0.9222185532493394
 10
1.518226332031857
 20
0.9550307822928186
  0
LINE
  5
150EAB
330
150F20
100
AcDbEntity
  8
TEXT
100
AcDbLine
 10
1.64426195445492
 20
1.039260844689155
 30
0.0
 11
1.64426195445492
 21
0.906503469863799
 31
0.0
  0
ARC
  5
150EAC
330
150F20
100
AcDbEntity
  8
TEXT
100
AcDbCircle
 10
1.727559890777094
 20
0.9359427601484025
 30
0.0
 40
0.0153818062434269
100
AcDbArc
 50
174.7883570302258
 51
270.0
  0
LWPOLYLINE
  5
150EAD
330
150F20
100
AcDbEntity
  8
TEXT
100
AcDbPolyline
 90
        2
 70
     0
 43
0.0
 10
1.644261954454918
 20
0.9065034698638026
 42
0.3318488747599744
 10
1.713381247020231
 20
0.8549521276488743
 42
-6.868794160588311
  0
LINE
  5
150EB1
330
150F20
100
AcDbEntity
  8
TEXT
100
AcDbLine
 10
1.868773649708927
 20
0.8549521276488743
 30
0.0
 11
1.935831696490767
 21
0.8549521276488743
 31
0.0
  0
LINE
  5
150EB2
330
150F20
100
AcDbEntity
  8
TEXT
100
AcDbLine
 10
1.868773649708927
 20
1.049594676814509
 30
0.0
 11
1.868773649708927
 21
0.8549521276488743
 31
0.0
  0
LINE
  5
150EB3
330
150F20
100
AcDbEntity
  8
TEXT
100
AcDbLine
 10
1.811384580719666
 20
1.057148465980619
 30
0.0
 11
1.861219860542814
 21
1.057148465980619
 31
0.0
  0
LINE
  5
150EB4
330
150F20
100
AcDbEntity
  8
TEXT
100
AcDbLine
 10
1.811384580719666
 20
0.8549521276488743
 30
0.0
 11
1.811384580719666
 21
1.057148465980619
 31
0.0
  0
LWPOLYLINE
  5
150EB5
330
150F20
100
AcDbEntity
  8
TEXT
100
AcDbPolyline
 90
        2
 70
     0
 43
0.0
 10
1.861219860542812
 20
1.057148465980619
 42
-0.4142135623731017
 10
1.868773649708925
 20
1.049594676814509
 42
-0.9999999999999998
  0
LINE
  5
150EB9
330
150F20
100
AcDbEntity
  8
TEXT
100
AcDbLine
 10
2.067029861320497
 20
1.057148465980619
 30
0.0
 11
2.067029861320497
 21
0.9820960599064132
 31
0.0
  0
LINE
  5
150EBA
330
150F20
100
AcDbEntity
  8
TEXT
100
AcDbLine
 10
1.935831696490767
 20
1.057148465980619
 30
0.0
 11
1.989965293411717
 21
1.057148465980619
 31
0.0
  0
LINE
  5
150EBB
330
150F20
100
AcDbEntity
  8
TEXT
100
AcDbLine
 10
1.935831696490767
 20
0.8549521276488743
 30
0.0
 11
1.935831696490767
 21
1.057148465980619
 31
0.0
  0
LWPOLYLINE
  5
150EBC
330
150F20
100
AcDbEntity
  8
TEXT
100
AcDbPolyline
 90
        2
 70
     0
 43
0.0
 10
1.989965293411716
 20
1.057148465980619
 42
-0.4142135623731017
 10
1.997519082577829
 20
1.049594676814509
 42
-0.9999999999999998
  0
LWPOLYLINE
  5
150EC0
330
150F20
100
AcDbEntity
  8
TEXT
100
AcDbPolyline
 90
        4
 70
     0
 43
0.0
 10
1.997519082577829
 20
1.049594676814509
 10
1.997519082577829
 20
0.8549521276488743
 10
2.065997365865687
 20
0.8549521276488743
 10
2.065997365865687
 20
0.8984430725993124
 42
-1.714843617202739
  0
LINE
  5
150EC6
330
150F20
100
AcDbEntity
  8
TEXT
100
AcDbLine
 10
1.426133198182585
 20
1.121425160637385
 30
0.0
 11
1.426133198182585
 21
1.155813078231523
 31
0.0
  0
LINE
  5
150EC7
330
150F20
100
AcDbEntity
  8
TEXT
100
AcDbLine
 10
1.497932164326492
 20
1.121425160637385
 30
0.0
 11
1.426133198182585
 21
1.121425160637385
 31
0.0
  0
LINE
  5
150EC8
330
150F20
100
AcDbEntity
  8
TEXT
100
AcDbLine
 10
1.645432960957672
 20
1.121425160637385
 30
0.0
 11
1.615311048164295
 21
1.121425160637385
 31
0.0
  0
LINE
  5
150EC9
330
150F20
100
AcDbEntity
  8
TEXT
100
AcDbLine
 10
1.645432960957672
 20
1.189436638376195
 30
0.0
 11
1.645432960957672
 21
1.121425160637385
 31
0.0
  0
LINE
  5
150ECA
330
150F20
100
AcDbEntity
  8
TEXT
100
AcDbLine
 10
1.712241673524037
 20
1.189436638376195
 30
0.0
 11
1.645432960957672
 21
1.189436638376195
 31
0.0
  0
LWPOLYLINE
  5
150ECB
330
150F20
100
AcDbEntity
  8
TEXT
100
AcDbPolyline
 90
        3
 70
     0
 43
0.0
 10
2.032653433122039
 20
1.121425160637388
 10
1.914353274305995
 20
1.121425160637388
 10
1.914353274305995
 20
1.094257663876492
 42
-1.960274751411753
  0
LINE
  5
150ED0
330
150F20
100
AcDbEntity
  8
TEXT
100
AcDbLine
 10
1.878571583592833
 20
1.121425160637385
 30
0.0
 11
1.744553527661697
 21
1.121425160637385
 31
0.0
  0
LWPOLYLINE
  5
150ED1
330
150F20
100
AcDbEntity
  8
TEXT
100
AcDbPolyline
 90
        2
 70
     0
 43
0.0
 10
1.878571583592833
 20
1.121425160637388
 42
-0.3328679258950098
 10
1.914353274305995
 20
1.094257663876492
 42
6.772930709997214
  0
LINE
  5
150ED5
330
150F20
100
AcDbEntity
  8
TEXT
100
AcDbLine
 10
2.068435123835206
 20
1.121425160637385
 30
0.0
 11
2.068435123835206
 21
1.093102614867741
 31
0.0
  0
LWPOLYLINE
  5
150ED6
330
150F20
100
AcDbEntity
  8
TEXT
100
AcDbPolyline
 90
        2
 70
     0
 43
0.0
 10
2.032653433122039
 20
1.121425160637388
 42
-0.3277054968067132
 10
2.068435123835204
 20
1.093102614867744
 42
6.667889725900311
  0
LINE
  5
150EDA
330
150F20
100
AcDbEntity
  8
TEXT
100
AcDbLine
 10
2.282226971927306
 20
1.016213182083957
 30
0.0
 11
2.238476200745404
 21
1.098463458080103
 31
0.0
  0
LINE
  5
150EDB
330
150F20
100
AcDbEntity
  8
TEXT
100
AcDbLine
 10
2.282226971927306
 20
1.121425160637385
 30
0.0
 11
2.282226971927306
 21
1.016213182083957
 31
0.0
  0
LINE
  5
150EDC
330
150F20
100
AcDbEntity
  8
TEXT
100
AcDbLine
 10
2.509910710865675
 20
1.045559834225847
 30
0.0
 11
2.509910710865675
 21
1.186889366404985
 31
0.0
  0
LINE
  5
150EDD
330
150F20
100
AcDbEntity
  8
TEXT
100
AcDbLine
 10
2.557008869421659
 20
1.121425160637385
 30
0.0
 11
2.509910710865675
 21
1.045559834225847
 31
0.0
  0
LINE
  5
150EDE
330
150F20
100
AcDbEntity
  8
TEXT
100
AcDbLine
 10
2.567443586185582
 20
1.011531917696411
 30
0.0
 11
2.632000702151287
 21
1.121425160637385
 31
0.0
  0
LINE
  5
150EDF
330
150F20
100
AcDbEntity
  8
TEXT
100
AcDbLine
 10
2.446075719642902
 20
0.8549521276488743
 30
0.0
 11
2.510453903961522
 21
0.8549521276488743
 31
0.0
  0
LWPOLYLINE
  5
150EE0
330
150F20
100
AcDbEntity
  8
TEXT
100
AcDbPolyline
 90
        2
 70
     0
 43
0.0
 10
2.286166649232344
 20
0.8984430725993124
 42
-0.2901071551932486
 10
2.243090716364699
 20
0.8549521276488743
 42
-5.328517124445184
  0
ARC
  5
150EE4
330
150F20
100
AcDbEntity
  8
TEXT
100
AcDbCircle
 10
2.174236134707784
 20
1.028789090980622
 30
0.0
 40
0.028359375
100
AcDbArc
 50
25.78218179591245
 51
90.0
  0
LINE
  5
150EE5
330
150F20
100
AcDbEntity
  8
TEXT
100
AcDbLine
 10
2.210037210011908
 20
1.019873492518487
 30
0.0
 11
2.199772449598343
 21
1.041124032091181
 31
0.0
  0
LINE
  5
150EE6
330
150F20
100
AcDbEntity
  8
TEXT
100
AcDbLine
 10
2.127749220228524
 20
1.019873492518487
 30
0.0
 11
2.210037210011908
 21
1.019873492518487
 31
0.0
  0
LWPOLYLINE
  5
150EE7
330
150F20
100
AcDbEntity
  8
TEXT
100
AcDbPolyline
 90
        4
 70
     1
 43
0.0
 10
2.222968251294807
 20
0.9579161056328995
 10
2.134307932634948
 20
0.9579161056328995
 42
0.9999999999999998
 10
2.134307932634948
 20
0.9155175651290388
 10
2.222968251294807
 20
0.9155175651290388
 42
1.0
  0
LWPOLYLINE
  5
150EED
330
150F20
100
AcDbEntity
  8
TEXT
100
AcDbPolyline
 90
        2
 70
     0
 43
0.0
 10
2.109073298733322
 20
0.8549521276488743
 10
2.243090716364699
 20
0.8549521276488743
 42
0.9999999999999998
  0
LINE
  5
150EF1
330
150F20
100
AcDbEntity
  8
TEXT
100
AcDbLine
 10
2.369427738350339
 20
1.057148465980619
 30
0.0
 11
2.446075719642896
 21
1.057148465980619
 31
0.0
  0
LINE
  5
150EF2
330
150F20
100
AcDbEntity
  8
TEXT
100
AcDbLine
 10
2.446075719642896
 20
1.057148465980619
 30
0.0
 11
2.446075719642902
 21
0.8549521276488743
 31
0.0
  0
ARC
  5
150EF3
330
150F20
100
AcDbEntity
  8
TEXT
100
AcDbCircle
 10
2.369427738350337
 20
1.032242590697957
 30
0.0
 40
0.0249058752826653
100
AcDbArc
 50
89.99971217465335
 51
179.9999999999985
  0
LINE
  5
150EF4
330
150F20
100
AcDbEntity
  8
TEXT
100
AcDbLine
 10
2.344521863067679
 20
0.8549521276488743
 30
0.0
 11
2.344521863067674
 21
1.032242633080342
 31
0.0
  0
LWPOLYLINE
  5
150EF5
330
150F20
100
AcDbEntity
  8
TEXT
100
AcDbPolyline
 90
        2
 70
     0
 43
0.0
 10
2.286166649232344
 20
0.8549521276488743
 10
2.344521863067678
 20
0.8549521276488743
  0
LWPOLYLINE
  5
150EF9
330
150F20
100
AcDbEntity
  8
TEXT
100
AcDbPolyline
 90
        2
 70
     0
 43
0.0
 10
2.286166649232344
 20
0.8984430725993124
 10
2.286166649232344
 20
0.8549521276488743
  0
LINE
  5
150EFD
330
150F20
100
AcDbEntity
  8
TEXT
100
AcDbLine
 10
2.662935809549193
 20
0.8549521276488743
 30
0.0
 11
2.567443586185582
 21
1.011531917696411
 31
0.0
  0
LINE
  5
150EFE
330
150F20
100
AcDbEntity
  8
TEXT
100
AcDbLine
 10
2.586357437172987
 20
0.8549521276488743
 30
0.0
 11
2.662935809549193
 21
0.8549521276488743
 31
0.0
  0
LINE
  5
150EFF
330
150F20
100
AcDbEntity
  8
TEXT
100
AcDbLine
 10
2.510453903961522
 20
0.9865316961250545
 30
0.0
 11
2.586357437172987
 21
0.8549521276488743
 31
0.0
  0
LINE
  5
150F00
330
150F20
100
AcDbEntity
  8
TEXT
100
AcDbLine
 10
2.510453903961522
 20
0.8549521276488743
 30
0.0
 11
2.510453903961522
 21
0.9865316961250545
 31
0.0
  0
LINE
  5
150F01
330
150F20
100
AcDbEntity
  8
TEXT
100
AcDbLine
 10
2.509910710865675
 20
1.186889366404985
 30
0.0
 11
2.441595832316401
 21
1.186889366404985
 31
0.0
  0
ARC
  5
150F02
330
150F20
100
AcDbEntity
  8
TEXT
100
AcDbCircle
 10
2.201240093275195
 20
1.079841593516482
 30
0.0
 40
0.0416329381542859
100
AcDbArc
 50
26.56974201007528
 51
87.20939649401342
  0
LINE
  5
150F03
330
150F20
100
AcDbEntity
  8
TEXT
100
AcDbLine
 10
2.346123878226807
 20
1.121425160637385
 30
0.0
 11
2.282226971927306
 21
1.121425160637385
 31
0.0
  0
LINE
  5
150F04
330
150F20
100
AcDbEntity
  8
TEXT
100
AcDbLine
 10
2.346123878226807
 20
1.09387751077651
 30
0.0
 11
2.346123878226807
 21
1.121425160637385
 31
0.0
  0
ARC
  5
150F05
330
150F20
100
AcDbEntity
  8
TEXT
100
AcDbCircle
 10
2.377316695289914
 20
1.09017943335512
 30
0.0
 40
0.0314112657011332
100
AcDbArc
 50
95.88484768694724
 51
173.2388340632136
  0
LINE
  5
150F06
330
150F20
100
AcDbEntity
  8
TEXT
100
AcDbLine
 10
2.441595832316396
 20
1.121425160637385
 30
0.0
 11
2.37409611466688
 21
1.121425160637385
 31
0.0
  0
LINE
  5
150F07
330
150F20
100
AcDbEntity
  8
TEXT
100
AcDbLine
 10
2.441595832316401
 20
1.186889366404985
 30
0.0
 11
2.441595832316396
 21
1.121425160637385
 31
0.0
  0
LINE
  5
150F08
330
150F20
100
AcDbEntity
  8
TEXT
100
AcDbLine
 10
2.632000702151287
 20
1.121425160637385
 30
0.0
 11
2.557008869421661
 21
1.121425160637385
 31
0.0
  0
ENDSEC
  0
SECTION
  2
OBJECTS
  0
DICTIONARY
  5
150F14
330
0
100
AcDbDictionary
  3
ACAD_GROUP
350
150F15
  3
ACAD_LAYOUT
350
150F3A
  3
ACAD_MLINESTYLE
350
150F16
  3
ACAD_PLOTSETTINGS
350
150F3B
  3
ACAD_PLOTSTYLENAME
350
150F38
  3
ACDBHEADERROUNDTRIPXREC
350
150F45
  3
ACDBVARIABLEDICTIONARY
350
150F42
  0
DICTIONARY
  5
150F67
330
150F20
100
AcDbDictionary
280
     1
  3
ACAD_LAYOUTSELFREF
360
150F68
  0
DICTIONARY
  5
150F65
330
150F1D
100
AcDbDictionary
280
     1
  3
ACAD_LAYOUTSELFREF
360
150F66
  0
DICTIONARY
  5
150F15
102
{ACAD_REACTORS
330
150F14
102
}
330
150F14
100
AcDbDictionary
  0
DICTIONARY
  5
150F3A
102
{ACAD_REACTORS
330
150F14
102
}
330
150F14
100
AcDbDictionary
  0
DICTIONARY
  5
150F16
102
{ACAD_REACTORS
330
150F14
102
}
330
150F14
100
AcDbDictionary
  3
STANDARD
350
150F23
  0
DICTIONARY
  5
150F3B
102
{ACAD_REACTORS
330
150F14
102
}
330
150F14
100
AcDbDictionary
  0
ACDBDICTIONARYWDFLT
  5
150F38
102
{ACAD_REACTORS
330
150F14
102
}
330
150F14
100
AcDbDictionary
281
     1
  3
Normal
350
150F39
100
AcDbDictionaryWithDefault
340
150F39
  0
DICTIONARY
  5
150F45
102
{ACAD_REACTORS
330
150F14
102
}
330
150F14
100
AcDbDictionary
  3
CEPSNTYPE
350
150F4F
  3
FINGERPRINTGUID
350
150F50
  3
HYPERLINKBASE
350
150F48
  3
INSUNITS
350
150F4E
  3
LAYOUTDICT
350
150F4A
  3
LWETCUNION
350
150F4D
  3
PLOTSETDICT
350
150F4B
  3
PLOTSTYLNAMDICT
350
150F4C
  3
PSVPSCALE
350
150F52
  3
PUCSBASE
350
150F55
  3
PUCSORGBACK
350
150F5B
  3
PUCSORGBOTTOM
350
150F57
  3
PUCSORGFRONT
350
150F5A
  3
PUCSORGLEFT
350
150F58
  3
PUCSORGRIGHT
350
150F59
  3
PUCSORGTOP
350
150F56
  3
PUCSORTHOREF
350
150F53
  3
PUCSORTHOVIEW
350
150F54
  3
STYLESHEET
350
150F49
  3
TSTACKALIGN
350
150F46
  3
TSTACKSIZE
350
150F47
  3
UCSBASE
350
150F5E
  3
UCSORGBACK
350
150F64
  3
UCSORGBOTTOM
350
150F60
  3
UCSORGFRONT
350
150F63
  3
UCSORGLEFT
350
150F61
  3
UCSORGRIGHT
350
150F62
  3
UCSORGTOP
350
150F5F
  3
UCSORTHOREF
350
150F5C
  3
UCSORTHOVIEW
350
150F5D
  3
VERSIONGUID
350
150F51
  0
DICTIONARY
  5
150F42
102
{ACAD_REACTORS
330
150F14
102
}
330
150F14
100
AcDbDictionary
  3
DIMASSOC
350
150F43
  0
XRECORD
  5
150F68
102
{ACAD_REACTORS
330
150F67
102
}
330
150F67
100
AcDbXrecord
340
150F20
  0
XRECORD
  5
150F66
102
{ACAD_REACTORS
330
150F65
102
}
330
150F65
100
AcDbXrecord
340
150F1D
  0
MLINESTYLE
  5
150F23
102
{ACAD_REACTORS
330
150F16
102
}
330
150F16
100
AcDbMlineStyle
  2
STANDARD
 70
     0
  3

 62
     0
 51
90.0
 52
90.0
 71
     2
 49
0.5
 62
   256
  6
BYLAYER
 49
-0.5
 62
   256
  6
BYLAYER
  0
ACDBPLACEHOLDER
  5
150F39
102
{ACAD_REACTORS
330
150F38
102
}
330
150F38
100
AcDbPlaceHolder
280
     0
  0
XRECORD
  5
150F4F
102
{ACAD_REACTORS
330
150F45
102
}
330
150F45
100
AcDbXrecord
 90
        0
  0
XRECORD
  5
150F50
102
{ACAD_REACTORS
330
150F45
102
}
330
150F45
100
AcDbXrecord
  1
{6570A770-8DB3-11D6-88E6-0090279574E7}
  0
XRECORD
  5
150F48
102
{ACAD_REACTORS
330
150F45
102
}
330
150F45
100
AcDbXrecord
  1

  0
XRECORD
  5
150F4E
102
{ACAD_REACTORS
330
150F45
102
}
330
150F45
100
AcDbXrecord
 90
        0
  0
XRECORD
  5
150F4A
102
{ACAD_REACTORS
330
150F45
102
}
330
150F45
100
AcDbXrecord
340
150F3A
  0
XRECORD
  5
150F4D
102
{ACAD_REACTORS
330
150F45
102
}
330
150F45
100
AcDbXrecord
 90
    14877
  0
XRECORD
  5
150F4B
102
{ACAD_REACTORS
330
150F45
102
}
330
150F45
100
AcDbXrecord
340
150F3B
  0
XRECORD
  5
150F4C
102
{ACAD_REACTORS
330
150F45
102
}
330
150F45
100
AcDbXrecord
340
150F38
  0
XRECORD
  5
150F52
102
{ACAD_REACTORS
330
150F45
102
}
330
150F45
100
AcDbXrecord
 40
0.0
  0
XRECORD
  5
150F55
102
{ACAD_REACTORS
330
150F45
102
}
330
150F45
100
AcDbXrecord
340
0
  0
XRECORD
  5
150F5B
102
{ACAD_REACTORS
330
150F45
102
}
330
150F45
100
AcDbXrecord
 10
0.0
 20
0.0
 30
0.0
  0
XRECORD
  5
150F57
102
{ACAD_REACTORS
330
150F45
102
}
330
150F45
100
AcDbXrecord
 10
0.0
 20
0.0
 30
0.0
  0
XRECORD
  5
150F5A
102
{ACAD_REACTORS
330
150F45
102
}
330
150F45
100
AcDbXrecord
 10
0.0
 20
0.0
 30
0.0
  0
XRECORD
  5
150F58
102
{ACAD_REACTORS
330
150F45
102
}
330
150F45
100
AcDbXrecord
 10
0.0
 20
0.0
 30
0.0
  0
XRECORD
  5
150F59
102
{ACAD_REACTORS
330
150F45
102
}
330
150F45
100
AcDbXrecord
 10
0.0
 20
0.0
 30
0.0
  0
XRECORD
  5
150F56
102
{ACAD_REACTORS
330
150F45
102
}
330
150F45
100
AcDbXrecord
 10
0.0
 20
0.0
 30
0.0
  0
XRECORD
  5
150F53
102
{ACAD_REACTORS
330
150F45
102
}
330
150F45
100
AcDbXrecord
340
0
  0
XRECORD
  5
150F54
102
{ACAD_REACTORS
330
150F45
102
}
330
150F45
100
AcDbXrecord
 70
     0
  0
XRECORD
  5
150F49
102
{ACAD_REACTORS
330
150F45
102
}
330
150F45
100
AcDbXrecord
  1

  0
XRECORD
  5
150F46
102
{ACAD_REACTORS
330
150F45
102
}
330
150F45
100
AcDbXrecord
 90
        1
  0
XRECORD
  5
150F47
102
{ACAD_REACTORS
330
150F45
102
}
330
150F45
100
AcDbXrecord
 90
       70
  0
XRECORD
  5
150F5E
102
{ACAD_REACTORS
330
150F45
102
}
330
150F45
100
AcDbXrecord
340
0
  0
XRECORD
  5
150F64
102
{ACAD_REACTORS
330
150F45
102
}
330
150F45
100
AcDbXrecord
 10
0.0
 20
0.0
 30
0.0
  0
XRECORD
  5
150F60
102
{ACAD_REACTORS
330
150F45
102
}
330
150F45
100
AcDbXrecord
 10
0.0
 20
0.0
 30
0.0
  0
XRECORD
  5
150F63
102
{ACAD_REACTORS
330
150F45
102
}
330
150F45
100
AcDbXrecord
 10
0.0
 20
0.0
 30
0.0
  0
XRECORD
  5
150F61
102
{ACAD_REACTORS
330
150F45
102
}
330
150F45
100
AcDbXrecord
 10
0.0
 20
0.0
 30
0.0
  0
XRECORD
  5
150F62
102
{ACAD_REACTORS
330
150F45
102
}
330
150F45
100
AcDbXrecord
 10
0.0
 20
0.0
 30
0.0
  0
XRECORD
  5
150F5F
102
{ACAD_REACTORS
330
150F45
102
}
330
150F45
100
AcDbXrecord
 10
0.0
 20
0.0
 30
0.0
  0
XRECORD
  5
150F5C
102
{ACAD_REACTORS
330
150F45
102
}
330
150F45
100
AcDbXrecord
340
0
  0
XRECORD
  5
150F5D
102
{ACAD_REACTORS
330
150F45
102
}
330
150F45
100
AcDbXrecord
 70
     0
  0
XRECORD
  5
150F51
102
{ACAD_REACTORS
330
150F45
102
}
330
150F45
100
AcDbXrecord
  1
{6570A772-8DB3-11D6-88E6-0090279574E7}
  0
DICTIONARYVAR
  5
150F43
102
{ACAD_REACTORS
330
150F42
102
}
330
150F42
100
DictionaryVariables
280
     0
  1
1
  0
ENDSEC
  0
EOF
