  0
SECTION
  2
HEADER
  9
$ACADVER
  1
AC1014
  9
$ACADMAINTVER
 70
     9
  9
$DWGCODEPAGE
  3
ANSI_1252
  9
$INSBASE
 10
2.245712749571925
 20
1.668898832381558
 30
0.0
  9
$EXTMIN
 10
0.5027311703447819
 20
0.9608802282989772
 30
0.0
  9
$EXTMAX
 10
3.987950492091909
 20
2.228898832381558
 30
0.0
  9
$LIMMIN
 10
0.0
 20
0.0
  9
$LIMMAX
 10
18.0
 20
12.0
  9
$ORTHOMODE
 70
     1
  9
$REGENMODE
 70
     1
  9
$FILLMODE
 70
     1
  9
$QTEXTMODE
 70
     0
  9
$MIRRTEXT
 70
     0
  9
$DRAGMODE
 70
     2
  9
$LTSCALE
 40
1.0
  9
$OSMODE
 70
    39
  9
$ATTMODE
 70
     1
  9
$TEXTSIZE
 40
0.125
  9
$TRACEWID
 40
0.05
  9
$TEXTSTYLE
  7
ROMANS
  9
$CLAYER
  8
0
  9
$CELTYPE
  6
BYLAYER
  9
$CECOLOR
 62
   256
  9
$CELTSCALE
 40
1.0
  9
$DELOBJ
 70
     1
  9
$DISPSILH
 70
     1
  9
$DIMSCALE
 40
1.0
  9
$DIMASZ
 40
0.125
  9
$DIMEXO
 40
0.125
  9
$DIMDLI
 40
0.375
  9
$DIMRND
 40
0.0
  9
$DIMDLE
 40
0.0
  9
$DIMEXE
 40
0.125
  9
$DIMTP
 40
0.0
  9
$DIMTM
 40
0.0
  9
$DIMTXT
 40
0.125
  9
$DIMCEN
 40
-0.125
  9
$DIMTSZ
 40
0.0
  9
$DIMTOL
 70
     0
  9
$DIMLIM
 70
     0
  9
$DIMTIH
 70
     1
  9
$DIMTOH
 70
     1
  9
$DIMSE1
 70
     0
  9
$DIMSE2
 70
     0
  9
$DIMTAD
 70
     0
  9
$DIMZIN
 70
     4
  9
$DIMBLK
  1

  9
$DIMASO
 70
     1
  9
$DIMSHO
 70
     1
  9
$DIMPOST
  1

  9
$DIMAPOST
  1

  9
$DIMALT
 70
     0
  9
$DIMALTD
 70
     2
  9
$DIMALTF
 40
25.4
  9
$DIMLFAC
 40
1.0
  9
$DIMTOFL
 70
     0
  9
$DIMTVP
 40
0.0
  9
$DIMTIX
 70
     1
  9
$DIMSOXD
 70
     0
  9
$DIMSAH
 70
     0
  9
$DIMBLK1
  1

  9
$DIMBLK2
  1

  9
$DIMSTYLE
  2
STANDARD
  9
$DIMCLRD
 70
     0
  9
$DIMCLRE
 70
     0
  9
$DIMCLRT
 70
     0
  9
$DIMTFAC
 40
1.0
  9
$DIMGAP
 40
0.09
  9
$DIMJUST
 70
     0
  9
$DIMSD1
 70
     0
  9
$DIMSD2
 70
     0
  9
$DIMTOLJ
 70
     1
  9
$DIMTZIN
 70
     4
  9
$DIMALTZ
 70
     0
  9
$DIMALTTZ
 70
     0
  9
$DIMFIT
 70
     3
  9
$DIMUPT
 70
     0
  9
$DIMUNIT
 70
     2
  9
$DIMDEC
 70
     3
  9
$DIMTDEC
 70
     3
  9
$DIMALTU
 70
     2
  9
$DIMALTTD
 70
     2
  9
$DIMTXSTY
  7
ROMANS
  9
$DIMAUNIT
 70
     0
  9
$LUNITS
 70
     2
  9
$LUPREC
 70
     3
  9
$SKETCHINC
 40
0.1
  9
$FILLETRAD
 40
0.03125
  9
$AUNITS
 70
     0
  9
$AUPREC
 70
     0
  9
$MENU
  1
ACAD
  9
$ELEVATION
 40
0.0
  9
$PELEVATION
 40
0.0
  9
$THICKNESS
 40
0.0
  9
$LIMCHECK
 70
     0
  9
$BLIPMODE
 70
     0
  9
$CHAMFERA
 40
0.0
  9
$CHAMFERB
 40
0.0
  9
$CHAMFERC
 40
0.0
  9
$CHAMFERD
 40
0.0
  9
$SKPOLY
 70
     0
  9
$TDCREATE
 40
2448993.370508680
  9
$TDUPDATE
 40
2452458.292441435
  9
$TDINDWG
 40
0.0013730671
  9
$TDUSRTIMER
 40
0.0013730671
  9
$USRTIMER
 70
     1
  9
$ANGBASE
 50
0.0
  9
$ANGDIR
 70
     0
  9
$PDMODE
 70
     0
  9
$PDSIZE
 40
0.0
  9
$PLINEWID
 40
0.0
  9
$COORDS
 70
     2
  9
$SPLFRAME
 70
     0
  9
$SPLINETYPE
 70
     6
  9
$SPLINESEGS
 70
     8
  9
$ATTDIA
 70
     0
  9
$ATTREQ
 70
     1
  9
$HANDLING
 70
 22529
  9
$HANDSEED
  5
A91EF
  9
$SURFTAB1
 70
     6
  9
$SURFTAB2
 70
     6
  9
$SURFTYPE
 70
     6
  9
$SURFU
 70
     6
  9
$SURFV
 70
     6
  9
$UCSNAME
  2

  9
$UCSORG
 10
0.0
 20
0.0
 30
0.0
  9
$UCSXDIR
 10
1.0
 20
0.0
 30
0.0
  9
$UCSYDIR
 10
0.0
 20
1.0
 30
0.0
  9
$PUCSNAME
  2

  9
$PUCSORG
 10
0.0
 20
0.0
 30
0.0
  9
$PUCSXDIR
 10
1.0
 20
0.0
 30
0.0
  9
$PUCSYDIR
 10
0.0
 20
1.0
 30
0.0
  9
$USERI1
 70
     0
  9
$USERI2
 70
     0
  9
$USERI3
 70
     0
  9
$USERI4
 70
     0
  9
$USERI5
 70
     0
  9
$USERR1
 40
0.0
  9
$USERR2
 40
0.0
  9
$USERR3
 40
0.0
  9
$USERR4
 40
0.0
  9
$USERR5
 40
0.0
  9
$WORLDVIEW
 70
     1
  9
$SHADEDGE
 70
     3
  9
$SHADEDIF
 70
    70
  9
$TILEMODE
 70
     1
  9
$MAXACTVP
 70
    16
  9
$PINSBASE
 10
1.343605353272338
 20
50.00000000000001
 30
1.094512190195476
  9
$PLIMCHECK
 70
     0
  9
$PEXTMIN
 10
1.000000000000000E+20
 20
1.000000000000000E+20
 30
1.000000000000000E+20
  9
$PEXTMAX
 10
-1.000000000000000E+20
 20
-1.000000000000000E+20
 30
-1.000000000000000E+20
  9
$PLIMMIN
 10
0.0
 20
0.0
  9
$PLIMMAX
 10
12.0
 20
9.0
  9
$UNITMODE
 70
     0
  9
$VISRETAIN
 70
     0
  9
$PLINEGEN
 70
     1
  9
$PSLTSCALE
 70
     0
  9
$TREEDEPTH
 70
  3020
  9
$PICKSTYLE
 70
     1
  9
$CMLSTYLE
  2
STANDARD
  9
$CMLJUST
 70
     0
  9
$CMLSCALE
 40
1.0
  9
$PROXYGRAPHICS
 70
     1
  9
$MEASUREMENT
 70
     0
  0
ENDSEC
  0
SECTION
  2
CLASSES
  0
CLASS
  1
LWPOLYLINE
  2
AcDbPolyline
  3
AutoCAD 2000
 90
        0
280
     0
281
     1
  0
CLASS
  1
ACDBDICTIONARYWDFLT
  2
AcDbDictionaryWithDefault
  3
AutoCAD 2000
 90
        0
280
     0
281
     0
  0
CLASS
  1
ACDBPLACEHOLDER
  2
AcDbPlaceHolder
  3
AutoCAD 2000
 90
        0
280
     0
281
     0
  0
CLASS
  1
LAYOUT
  2
AcDbLayout
  3
AutoCAD 2000
 90
        0
280
     0
281
     0
  0
CLASS
  1
DICTIONARYVAR
  2
AcDbDictionaryVar
  3
AutoCAD 2000
 90
        0
280
     0
281
     0
  0
CLASS
  1
LONG_TRANSACTION
  2
AcDbLongTransaction
  3
AutoCAD 2000
 90
        0
280
     0
281
     0
  0
CLASS
  1
LWPOLYLINE
  2
AcDbPolyline
  3
AutoCAD 2000
 90
        0
280
     0
281
     1
  0
CLASS
  1
HATCH
  2
AcDbHatch
  3
AutoCAD 2000
 90
        0
280
     0
281
     1
  0
CLASS
  1
XRECORD
  2
AcDbXrecord
  3
AutoCAD 2000
 90
        0
280
     0
281
     0
  0
ENDSEC
  0
SECTION
  2
TABLES
  0
TABLE
  2
VPORT
  5
A9196
330
0
100
AcDbSymbolTable
 70
     2
  0
VPORT
  5
A91CA
330
A9196
100
AcDbSymbolTableRecord
100
AcDbViewportTableRecord
  2
*ACTIVE
 70
     0
 10
0.0
 20
0.0
 11
1.0
 21
1.0
 12
5.22180446273325
 22
1.594482444685979
 13
0.0
 23
0.0
 14
0.015625
 24
0.015625
 15
0.0
 25
0.0
 16
0.0
 26
0.0
 36
1.0
 17
0.0
 27
0.0
 37
0.0
 40
2.282647215150728
 41
4.320930232558139
 42
50.0
 43
0.0
 44
0.0
 50
0.0
 51
0.0
 71
     0
 72
  2000
 73
     1
 74
     0
 75
     1
 76
     0
 77
     0
 78
     0
  0
ENDTAB
  0
TABLE
  2
LTYPE
  5
A9193
330
0
100
AcDbSymbolTable
 70
     1
  0
LTYPE
  5
A91A0
330
A9193
100
AcDbSymbolTableRecord
100
AcDbLinetypeTableRecord
  2
BYBLOCK
 70
     0
  3

 72
    65
 73
     0
 40
0.0
  0
LTYPE
  5
A91A1
330
A9193
100
AcDbSymbolTableRecord
100
AcDbLinetypeTableRecord
  2
BYLAYER
 70
     0
  3

 72
    65
 73
     0
 40
0.0
  0
LTYPE
  5
A91A2
330
A9193
100
AcDbSymbolTableRecord
100
AcDbLinetypeTableRecord
  2
CONTINUOUS
 70
     0
  3
Solid line
 72
    65
 73
     0
 40
0.0
  0
ENDTAB
  0
TABLE
  2
LAYER
  5
A9190
330
0
100
AcDbSymbolTable
 70
     2
  0
LAYER
  5
A919D
330
A9190
100
AcDbSymbolTableRecord
100
AcDbLayerTableRecord
  2
0
 70
     0
 62
     7
  6
CONTINUOUS
  0
LAYER
  5
A91AD
330
A9190
100
AcDbSymbolTableRecord
100
AcDbLayerTableRecord
  2
TEXT
 70
     0
 62
     3
  6
CONTINUOUS
  0
ENDTAB
  0
TABLE
  2
STYLE
  5
A9191
330
0
100
AcDbSymbolTable
 70
     3
  0
STYLE
  5
A919E
330
A9191
100
AcDbSymbolTableRecord
100
AcDbTextStyleTableRecord
  2
STANDARD
 70
     0
 40
0.0
 41
1.0
 50
0.0
 71
     0
 42
0.3125
  3
txt
  4

  0
STYLE
  5
A91AA
330
A9191
100
AcDbSymbolTableRecord
100
AcDbTextStyleTableRecord
  2
ITALICC
 70
     0
 40
0.0
 41
1.0
 50
0.0
 71
     0
 42
0.125
  3
italicc
  4

  0
STYLE
  5
A91BA
330
A9191
100
AcDbSymbolTableRecord
100
AcDbTextStyleTableRecord
  2
ROMANS
 70
     0
 40
0.0
 41
1.0
 50
0.0
 71
     0
 42
0.125
  3
romans.shx
  4

  0
ENDTAB
  0
TABLE
  2
VIEW
  5
A9194
330
0
100
AcDbSymbolTable
 70
     0
  0
ENDTAB
  0
TABLE
  2
UCS
  5
A9195
330
0
100
AcDbSymbolTable
 70
     0
  0
ENDTAB
  0
TABLE
  2
APPID
  5
A9197
330
0
100
AcDbSymbolTable
 70
     1
  0
APPID
  5
A919F
330
A9197
100
AcDbSymbolTableRecord
100
AcDbRegAppTableRecord
  2
ACAD
 70
     0
  0
ENDTAB
  0
TABLE
  2
DIMSTYLE
  5
A9198
330
0
100
AcDbSymbolTable
 70
     1
  0
DIMSTYLE
105
A91B2
330
A9198
100
AcDbSymbolTableRecord
100
AcDbDimStyleTableRecord
  2
STANDARD
 70
     0
  3

  4

  5

  6

  7

 40
1.0
 41
0.125
 42
0.125
 43
0.375
 44
0.125
 45
0.0
 46
0.0
 47
0.0
 48
0.0
140
0.125
141
-0.125
142
0.0
143
25.4
144
1.0
145
0.0
146
1.0
147
0.09
 71
     0
 72
     0
 73
     1
 74
     1
 75
     0
 76
     0
 77
     0
 78
     4
170
     0
171
     2
172
     0
173
     0
174
     1
175
     0
176
     0
177
     0
178
     0
270
     2
271
     3
272
     3
273
     2
274
     2
340
A91BA
275
     0
280
     0
281
     0
282
     0
283
     1
284
     4
285
     0
286
     0
287
     3
288
     0
  0
ENDTAB
  0
TABLE
  2
BLOCK_RECORD
  5
A918F
330
0
100
AcDbSymbolTable
 70
     0
  0
BLOCK_RECORD
  5
A91A6
102
{ACAD_XDICTIONARY
360
A91ED
102
}
330
A918F
100
AcDbSymbolTableRecord
100
AcDbBlockTableRecord
  2
*MODEL_SPACE
  0
BLOCK_RECORD
  5
A91A3
102
{ACAD_XDICTIONARY
360
A91EB
102
}
330
A918F
100
AcDbSymbolTableRecord
100
AcDbBlockTableRecord
  2
*PAPER_SPACE
  0
ENDTAB
  0
ENDSEC
  0
SECTION
  2
BLOCKS
  0
BLOCK
  5
A91B0
330
A91A6
100
AcDbEntity
  8
0
100
AcDbBlockBegin
  2
*MODEL_SPACE
 70
     0
 10
0.0
 20
0.0
 30
0.0
  3
*MODEL_SPACE
  1

  0
ENDBLK
  5
A91B1
330
A91A6
100
AcDbEntity
  8
0
100
AcDbBlockEnd
  0
BLOCK
  5
A91AE
330
A91A3
100
AcDbEntity
 67
     1
  8
0
100
AcDbBlockBegin
  2
*PAPER_SPACE
 70
     0
 10
0.0
 20
0.0
 30
0.0
  3
*PAPER_SPACE
  1

  0
ENDBLK
  5
A91AF
330
A91A3
100
AcDbEntity
 67
     1
  8
0
100
AcDbBlockEnd
  0
ENDSEC
  0
SECTION
  2
ENTITIES
  0
LWPOLYLINE
  5
A77E2
330
A91A6
100
AcDbEntity
  8
0
100
AcDbPolyline
 90
       10
 70
     1
 43
0.0
 10
2.553212749571924
 20
1.695898832381558
 10
2.553212749571925
 20
2.201398832381558
 42
1.0
 10
2.498212749571925
 20
2.201398832381558
 10
2.498212749571925
 20
1.723898832381558
 10
1.993212749571925
 20
1.723898832381558
 10
1.993212749571925
 20
2.201398832381558
 42
1.0
 10
1.938212749571924
 20
2.201398832381558
 10
1.938212749571924
 20
1.695898832381558
 42
0.4142135623730951
 10
1.965212749571925
 20
1.668898832381558
 10
2.526212749571925
 20
1.668898832381558
 42
0.4142135623730951
  0
TEXT
  5
A9051
330
A91A6
100
AcDbEntity
  8
TEXT
100
AcDbText
 10
1.492736559095735
 20
1.418898832381558
 30
0.0
 40
0.125
  1
PART #110022
  7
ITALICC
 72
     1
 11
2.245712749571925
 21
1.418898832381558
 31
0.0
100
AcDbText
  0
TEXT
  5
A9052
330
A91A6
100
AcDbEntity
  8
TEXT
100
AcDbText
 10
2.659017907822245
 20
0.9719761897091835
 30
0.0
 40
0.0522247191011236
  1
Phone  1-800-328-2495
 41
1.272321428571429
 72
     5
 11
3.987950492091909
 21
0.9719761897091835
 31
0.0
100
AcDbText
  0
TEXT
  5
A9053
330
A91A6
100
AcDbEntity
  8
TEXT
100
AcDbText
 10
2.659017907822245
 20
1.25175147060806
 30
0.0
 40
0.0522247191011236
  1
Stylmark  Incorporated
 41
1.221428571428573
 72
     5
 11
3.987950492091909
 21
1.25175147060806
 31
0.0
100
AcDbText
  0
TEXT
  5
A9054
330
A91A6
100
AcDbEntity
  8
TEXT
100
AcDbText
 10
2.659017907822245
 20
1.158493043641767
 30
0.0
 40
0.0522247191011236
  1
6536 Main St. N.E. * P.O. Box 32008
 41
0.8388932496075366
 72
     5
 11
3.987950492091909
 21
1.158493043641767
 31
0.0
100
AcDbText
  0
TEXT
  5
A9055
330
A91A6
100
AcDbEntity
  8
TEXT
100
AcDbText
 10
2.659017907822245
 20
1.065234616675475
 30
0.0
 40
0.0522247191011236
  1
Minneapolis, MN 55432-0008
 41
1.11444212721585
 72
     5
 11
3.987950492091909
 21
1.065234616675475
 31
0.0
100
AcDbText
  0
LWPOLYLINE
  5
A9056
330
A91A6
100
AcDbEntity
  8
TEXT
100
AcDbPolyline
 90
        3
 70
     0
 43
0.0006660908203125
 10
0.5030642157549381
 20
1.085620952346618
 10
0.5030642157549381
 20
0.9723855128934907
 10
0.6162996552080604
 20
0.9723855128934907
  0
LWPOLYLINE
  5
A905B
330
A91A6
100
AcDbEntity
  8
TEXT
100
AcDbPolyline
 90
        3
 70
     0
 43
0.0006660908203125
 10
0.5297078485674356
 20
1.085620952346618
 10
0.5297078485674356
 20
0.9990291457059917
 10
0.6162996552080604
 20
0.9990291457059917
  0
LWPOLYLINE
  5
A9060
330
A91A6
100
AcDbEntity
  8
TEXT
100
AcDbPolyline
 90
        2
 70
     0
 43
0.0001332181640625
 10
0.5763342059893124
 20
1.095612314651303
 10
0.5030642157549381
 20
1.085620952346618
  0
LWPOLYLINE
  5
A9064
330
A91A6
100
AcDbEntity
  8
TEXT
100
AcDbPolyline
 90
        2
 70
     0
 43
0.0001332181640625
 10
0.5297078485674356
 20
1.085620952346618
 10
0.589656022395563
 20
1.095612314651303
  0
LWPOLYLINE
  5
A9068
330
A91A6
100
AcDbEntity
  8
TEXT
100
AcDbPolyline
 90
        2
 70
     0
 43
0.0001332181640625
 10
0.5297078485674356
 20
0.9990291457059917
 10
0.589656022395563
 20
1.058977319534117
  0
LWPOLYLINE
  5
A906C
330
A91A6
100
AcDbEntity
  8
TEXT
100
AcDbPolyline
 90
        3
 70
     0
 43
0.0006660908203125
 10
0.6162996552080604
 20
1.238821841018494
 10
0.5030642157549381
 20
1.238821841018494
 10
0.5030642157549381
 20
1.125586401565366
  0
LWPOLYLINE
  5
A9071
330
A91A6
100
AcDbEntity
  8
TEXT
100
AcDbPolyline
 90
        3
 70
     0
 43
0.0006660908203125
 10
0.6162996552080604
 20
1.212178208205993
 10
0.5297078485674356
 20
1.212178208205993
 10
0.5297078485674356
 20
1.125586401565366
  0
LWPOLYLINE
  5
A9076
330
A91A6
100
AcDbEntity
  8
TEXT
100
AcDbPolyline
 90
        2
 70
     0
 43
0.0001332181640625
 10
0.5297078485674356
 20
1.212178208205993
 10
0.5896560223955612
 20
1.152230034377867
  0
LWPOLYLINE
  5
A907A
330
A91A6
100
AcDbEntity
  8
TEXT
100
AcDbPolyline
 90
        2
 70
     0
 43
0.0001332181640625
 10
0.5297078485674356
 20
1.125586401565366
 10
0.5896560223955612
 20
1.115595039260677
  0
LWPOLYLINE
  5
A907E
330
A91A6
100
AcDbEntity
  8
TEXT
100
AcDbPolyline
 90
        2
 70
     0
 43
0.0001332181640625
 10
0.5030642157549381
 20
1.125586401565366
 10
0.5763342059893124
 20
1.115595039260677
  0
LWPOLYLINE
  5
A9082
330
A91A6
100
AcDbEntity
  8
TEXT
100
AcDbPolyline
 90
        2
 70
     0
 43
0.0006660908203125
 10
0.5297078485674356
 20
1.085620952346618
 10
0.5030642157549381
 20
1.085620952346618
  0
LWPOLYLINE
  5
A9086
330
A91A6
100
AcDbEntity
  8
TEXT
100
AcDbPolyline
 90
        2
 70
     0
 43
0.0006660908203125
 10
0.5297078485674356
 20
1.125586401565366
 10
0.5030642157549381
 20
1.125586401565366
  0
LINE
  5
A908A
330
A91A6
100
AcDbEntity
  8
TEXT
100
AcDbLine
 10
2.018254644881435
 20
1.174545146361725
 30
0.0
 11
1.911048371494146
 21
1.174545146361725
 31
0.0
  0
LINE
  5
A908B
330
A91A6
100
AcDbEntity
  8
TEXT
100
AcDbLine
 10
2.047285543225914
 20
1.23882184101849
 30
0.0
 11
1.912453634008855
 21
1.23882184101849
 31
0.0
  0
ARC
  5
A908C
330
A91A6
100
AcDbEntity
  8
TEXT
100
AcDbCircle
 10
1.971767730402171
 20
1.069584591755474
 30
0.0
 40
0.0676855811441166
100
AcDbArc
 50
90.0
 51
153.7768192527749
  0
LWPOLYLINE
  5
A908D
330
A91A6
100
AcDbEntity
  8
TEXT
100
AcDbPolyline
 90
        2
 70
     0
 43
0.0
 10
1.910015876039336
 20
1.015839752980417
 42
0.2901071551932823
 10
1.953091808906971
 20
0.9723488080299794
 42
5.328517124445801
  0
ARC
  5
A9091
330
A91A6
100
AcDbEntity
  8
TEXT
100
AcDbCircle
 10
1.266636352730686
 20
1.032141199368029
 30
0.0
 40
0.0601160179737537
100
AcDbArc
 50
180.0000000000003
 51
264.0521544866073
  0
LINE
  5
A9092
330
A91A6
100
AcDbEntity
  8
TEXT
100
AcDbLine
 10
1.270151708356233
 20
1.273209758612628
 30
0.0
 11
1.210109103512226
 21
1.273209758612628
 31
0.0
  0
ARC
  5
A9093
330
A91A6
100
AcDbEntity
  8
TEXT
100
AcDbCircle
 10
1.034377350613715
 20
1.156734381571988
 30
0.0
 40
0.0820874594465043
100
AcDbArc
 50
90.0
 51
270.0
  0
LWPOLYLINE
  5
A9094
330
A91A6
100
AcDbEntity
  8
TEXT
100
AcDbPolyline
 90
        2
 70
     0
 43
0.0001332181640625
 10
0.626291017512751
 20
1.165551850784114
 10
0.6162996552080604
 20
1.238821841018494
  0
LWPOLYLINE
  5
A9098
330
A91A6
100
AcDbEntity
  8
TEXT
100
AcDbPolyline
 90
        2
 70
     0
 43
0.0001332181640625
 10
0.6162996552080604
 20
1.212178208205993
 10
0.626291017512751
 20
1.152230034377867
  0
LWPOLYLINE
  5
A909C
330
A91A6
100
AcDbEntity
  8
TEXT
100
AcDbPolyline
 90
        3
 70
     0
 43
0.0006660908203125
 10
0.7695005438799379
 20
1.125586401565366
 10
0.7695005438799379
 20
1.238821841018494
 10
0.656265104426812
 20
1.238821841018494
  0
LWPOLYLINE
  5
A90A1
330
A91A6
100
AcDbEntity
  8
TEXT
100
AcDbPolyline
 90
        3
 70
     0
 43
0.0006660908203125
 10
0.7428569110674368
 20
1.125586401565366
 10
0.7428569110674368
 20
1.212178208205993
 10
0.656265104426812
 20
1.212178208205993
  0
LWPOLYLINE
  5
A90A6
330
A91A6
100
AcDbEntity
  8
TEXT
100
AcDbPolyline
 90
        2
 70
     0
 43
0.0001332181640625
 10
0.7428569110674368
 20
1.212178208205993
 10
0.682908737239313
 20
1.152230034377867
  0
LWPOLYLINE
  5
A90AA
330
A91A6
100
AcDbEntity
  8
TEXT
100
AcDbPolyline
 90
        2
 70
     0
 43
0.0001332181640625
 10
0.656265104426812
 20
1.212178208205993
 10
0.6462737421221232
 20
1.152230034377867
  0
LWPOLYLINE
  5
A90AE
330
A91A6
100
AcDbEntity
  8
TEXT
100
AcDbPolyline
 90
        2
 70
     0
 43
0.0001332181640625
 10
0.656265104426812
 20
1.238821841018494
 10
0.6462737421221232
 20
1.165551850784114
  0
LWPOLYLINE
  5
A90B2
330
A91A6
100
AcDbEntity
  8
TEXT
100
AcDbPolyline
 90
        2
 70
     0
 43
0.0001332181640625
 10
0.6962305536455618
 20
1.115595039260677
 10
0.7695005438799379
 20
1.125586401565366
  0
LWPOLYLINE
  5
A90B6
330
A91A6
100
AcDbEntity
  8
TEXT
100
AcDbPolyline
 90
        2
 70
     0
 43
0.0001332181640625
 10
0.7428569110674368
 20
1.125586401565366
 10
0.682908737239313
 20
1.115595039260677
  0
LWPOLYLINE
  5
A90BA
330
A91A6
100
AcDbEntity
  8
TEXT
100
AcDbPolyline
 90
        2
 70
     0
 43
0.0001332181640625
 10
0.7695005438799379
 20
1.085620952346618
 10
0.6962305536455618
 20
1.095612314651303
  0
LWPOLYLINE
  5
A90BE
330
A91A6
100
AcDbEntity
  8
TEXT
100
AcDbPolyline
 90
        2
 70
     0
 43
0.0001332181640625
 10
0.7428569110674368
 20
1.085620952346618
 10
0.682908737239313
 20
1.095612314651303
  0
LWPOLYLINE
  5
A90C2
330
A91A6
100
AcDbEntity
  8
TEXT
100
AcDbPolyline
 90
        2
 70
     0
 43
0.0001332181640625
 10
0.7428569110674368
 20
0.9990291457059917
 10
0.682908737239313
 20
1.058977319534117
  0
LWPOLYLINE
  5
A90C6
330
A91A6
100
AcDbEntity
  8
TEXT
100
AcDbPolyline
 90
        3
 70
     0
 43
0.0006660908203125
 10
0.656265104426812
 20
0.9990291457059917
 10
0.7428569110674368
 20
0.9990291457059917
 10
0.7428569110674368
 20
1.085620952346618
  0
LWPOLYLINE
  5
A90CB
330
A91A6
100
AcDbEntity
  8
TEXT
100
AcDbPolyline
 90
        3
 70
     0
 43
0.0006660908203125
 10
0.656265104426812
 20
0.9723855128934907
 10
0.7695005438799379
 20
0.9723855128934907
 10
0.7695005438799379
 20
1.085620952346618
  0
LWPOLYLINE
  5
A90D0
330
A91A6
100
AcDbEntity
  8
TEXT
100
AcDbPolyline
 90
        5
 70
     0
 43
0.0001332181640625
 10
0.626291017512751
 20
1.045655503127866
 10
0.626291017512751
 20
1.058977319534117
 10
0.589656022395563
 20
1.058977319534117
 10
0.589656022395563
 20
1.095612314651303
 10
0.5763342059893124
 20
1.095612314651303
  0
LWPOLYLINE
  5
A90D7
330
A91A6
100
AcDbEntity
  8
TEXT
100
AcDbPolyline
 90
        2
 70
     0
 43
0.0006660908203125
 10
0.6162996552080604
 20
0.9990291457059917
 10
0.6162996552080604
 20
0.9723855128934907
  0
LWPOLYLINE
  5
A90DB
330
A91A6
100
AcDbEntity
  8
TEXT
100
AcDbPolyline
 90
        2
 70
     0
 43
0.0001332181640625
 10
0.6162996552080604
 20
0.9990291457059917
 10
0.626291017512751
 20
1.058977319534117
  0
LWPOLYLINE
  5
A90DF
330
A91A6
100
AcDbEntity
  8
TEXT
100
AcDbPolyline
 90
        2
 70
     0
 43
0.0001332181640625
 10
0.6162996552080604
 20
0.9723855128934907
 10
0.626291017512751
 20
1.045655503127866
  0
LWPOLYLINE
  5
A90E3
330
A91A6
100
AcDbEntity
  8
TEXT
100
AcDbPolyline
 90
        5
 70
     0
 43
0.0001332181640625
 10
0.5763342059893124
 20
1.115595039260677
 10
0.5896560223955612
 20
1.115595039260677
 10
0.5896560223955612
 20
1.152230034377867
 10
0.626291017512751
 20
1.152230034377867
 10
0.626291017512751
 20
1.165551850784114
  0
LWPOLYLINE
  5
A90EA
330
A91A6
100
AcDbEntity
  8
TEXT
100
AcDbPolyline
 90
        5
 70
     0
 43
0.0001332181640625
 10
0.6462737421221232
 20
1.165551850784114
 10
0.6462737421221232
 20
1.152230034377867
 10
0.682908737239313
 20
1.152230034377867
 10
0.682908737239313
 20
1.115595039260677
 10
0.6962305536455618
 20
1.115595039260677
  0
LWPOLYLINE
  5
A90F1
330
A91A6
100
AcDbEntity
  8
TEXT
100
AcDbPolyline
 90
        2
 70
     0
 43
0.0001332181640625
 10
0.656265104426812
 20
0.9990291457059917
 10
0.6462737421221232
 20
1.058977319534117
  0
LWPOLYLINE
  5
A90F5
330
A91A6
100
AcDbEntity
  8
TEXT
100
AcDbPolyline
 90
        2
 70
     0
 43
0.0001332181640625
 10
0.6462737421221232
 20
1.045655503127866
 10
0.656265104426812
 20
0.9723855128934907
  0
LWPOLYLINE
  5
A90F9
330
A91A6
100
AcDbEntity
  8
TEXT
100
AcDbPolyline
 90
        2
 70
     0
 43
0.0006660908203125
 10
0.656265104426812
 20
0.9990291457059917
 10
0.656265104426812
 20
0.9723855128934907
  0
LWPOLYLINE
  5
A90FD
330
A91A6
100
AcDbEntity
  8
TEXT
100
AcDbPolyline
 90
        5
 70
     0
 43
0.0001332181640625
 10
0.6962305536455618
 20
1.095612314651303
 10
0.682908737239313
 20
1.095612314651303
 10
0.682908737239313
 20
1.058977319534117
 10
0.6462737421221232
 20
1.058977319534117
 10
0.6462737421221232
 20
1.045655503127866
  0
LWPOLYLINE
  5
A9104
330
A91A6
100
AcDbEntity
  8
TEXT
100
AcDbPolyline
 90
        2
 70
     0
 43
0.0006660908203125
 10
0.7428569110674368
 20
1.125586401565366
 10
0.7695005438799379
 20
1.125586401565366
  0
LWPOLYLINE
  5
A9108
330
A91A6
100
AcDbEntity
  8
TEXT
100
AcDbPolyline
 90
        2
 70
     0
 43
0.0006660908203125
 10
0.7428569110674368
 20
1.085620952346618
 10
0.7695005438799379
 20
1.085620952346618
  0
LINE
  5
A910C
330
A91A6
100
AcDbEntity
  8
TEXT
100
AcDbLine
 10
1.039614680727962
 20
1.174545146361725
 30
0.0
 11
1.206520334756933
 21
1.174545146361725
 31
0.0
  0
LINE
  5
A910D
330
A91A6
100
AcDbEntity
  8
TEXT
100
AcDbLine
 10
1.105214816972263
 20
1.138740424751097
 30
0.0
 11
1.039614680727962
 21
1.138740424751097
 31
0.0
  0
LINE
  5
A910E
330
A91A6
100
AcDbEntity
  8
TEXT
100
AcDbLine
 10
0.9522898911672111
 20
0.9723488080299794
 30
0.0
 11
1.105214816972263
 21
0.9723488080299794
 31
0.0
  0
LINE
  5
A910F
330
A91A6
100
AcDbEntity
  8
TEXT
100
AcDbLine
 10
1.110155190878543
 20
1.040705814363418
 30
0.0
 11
0.9522898911672093
 21
1.040705814363418
 31
0.0
  0
LINE
  5
A9110
330
A91A6
100
AcDbEntity
  8
TEXT
100
AcDbLine
 10
1.034377350613714
 20
1.074646922125483
 30
0.0
 11
1.110155190878543
 21
1.074646922125483
 31
0.0
  0
ARC
  5
A9111
330
A91A6
100
AcDbEntity
  8
TEXT
100
AcDbCircle
 10
1.039614680727963
 20
1.156642785556412
 30
0.0
 40
0.017902360805315
100
AcDbArc
 50
90.0
 51
270.0
  0
LINE
  5
A9112
330
A91A6
100
AcDbEntity
  8
TEXT
100
AcDbLine
 10
0.9522898911672093
 20
1.040705814363418
 30
0.0
 11
0.9522898911672111
 21
0.9723488080299794
 31
0.0
  0
LINE
  5
A9113
330
A91A6
100
AcDbEntity
  8
TEXT
100
AcDbLine
 10
1.206520334756933
 20
1.174545146361725
 30
0.0
 11
1.206520334756933
 21
1.032141199368029
 31
0.0
  0
ARC
  5
A9114
330
A91A6
100
AcDbEntity
  8
TEXT
100
AcDbCircle
 10
1.105214816972264
 20
1.055544616390536
 30
0.0
 40
0.0831958083605586
100
AcDbArc
 50
270.0
 51
90.0
  0
ARC
  5
A9115
330
A91A6
100
AcDbEntity
  8
TEXT
100
AcDbCircle
 10
1.110155190878544
 20
1.057676368244452
 30
0.0
 40
0.0169705538810321
100
AcDbArc
 50
270.0
 51
90.0
  0
LWPOLYLINE
  5
A9116
330
A91A6
100
AcDbEntity
  8
TEXT
100
AcDbPolyline
 90
        2
 70
     0
 43
0.0006660908203125
 10
0.6162996552080604
 20
1.212178208205993
 10
0.6162996552080604
 20
1.238821841018494
  0
LWPOLYLINE
  5
A911A
330
A91A6
100
AcDbEntity
  8
TEXT
100
AcDbPolyline
 90
        2
 70
     0
 43
0.0006660908203125
 10
0.656265104426812
 20
1.212178208205993
 10
0.656265104426812
 20
1.238821841018494
  0
LINE
  5
A911E
330
A91A6
100
AcDbEntity
  8
TEXT
100
AcDbLine
 10
1.210109103512226
 20
1.23882184101849
 30
0.0
 11
1.034377350613714
 21
1.23882184101849
 31
0.0
  0
LINE
  5
A911F
330
A91A6
100
AcDbEntity
  8
TEXT
100
AcDbLine
 10
1.210109103512226
 20
1.273209758612628
 30
0.0
 11
1.210109103512226
 21
1.23882184101849
 31
0.0
  0
LINE
  5
A9120
330
A91A6
100
AcDbEntity
  8
TEXT
100
AcDbLine
 10
1.400580995532079
 20
1.137949844905369
 30
0.0
 11
1.341950674500141
 21
1.23882184101849
 31
0.0
  0
LINE
  5
A9121
330
A91A6
100
AcDbEntity
  8
TEXT
100
AcDbLine
 10
1.459329558337944
 20
1.23882184101849
 30
0.0
 11
1.400580995532079
 21
1.137949844905369
 31
0.0
  0
LINE
  5
A9122
330
A91A6
100
AcDbEntity
  8
TEXT
100
AcDbLine
 10
1.556260183697685
 20
1.054736646132978
 30
0.0
 11
1.556260183697685
 21
1.306833318757301
 31
0.0
  0
LINE
  5
A9123
330
A91A6
100
AcDbEntity
  8
TEXT
100
AcDbLine
 10
1.588572037835346
 20
1.23882184101849
 30
0.0
 11
1.588572037835346
 21
1.037957634286082
 31
0.0
  0
LINE
  5
A9124
330
A91A6
100
AcDbEntity
  8
TEXT
100
AcDbLine
 10
1.588572037835346
 20
1.037957634286082
 30
0.0
 11
1.571578400950744
 21
1.037957634286082
 31
0.0
  0
LINE
  5
A9125
330
A91A6
100
AcDbEntity
  8
TEXT
100
AcDbLine
 10
1.55739975719388
 20
0.9723488080299794
 30
0.0
 11
1.655403090893315
 21
0.9723488080299794
 31
0.0
  0
LINE
  5
A9126
330
A91A6
100
AcDbEntity
  8
TEXT
100
AcDbLine
 10
1.390980758535124
 20
0.9923073141349924
 30
0.0
 11
1.488280464628569
 21
1.15665752507026
 31
0.0
  0
ARC
  5
A9127
330
A91A6
100
AcDbEntity
  8
TEXT
100
AcDbCircle
 10
1.35693719862291
 20
1.011896530303675
 30
0.0
 40
0.0392772371940762
100
AcDbArc
 50
270.1604552698595
 51
330.0831797321295
  0
LINE
  5
A9128
330
A91A6
100
AcDbEntity
  8
TEXT
100
AcDbLine
 10
1.260406942237039
 20
0.9723488080299794
 30
0.0
 11
1.357047193312034
 21
0.9726194471282617
 31
0.0
  0
LWPOLYLINE
  5
A9129
330
A91A6
100
AcDbEntity
  8
TEXT
100
AcDbPolyline
 90
        6
 70
     1
 43
0.0
 10
1.302930745812189
 20
1.174545146361725
 10
1.272614151591981
 20
1.174545146361725
 10
1.272614151591981
 20
1.05143414830683
 42
0.407328721240804
 10
1.284157802753457
 20
1.039615233630444
 10
1.344779501798188
 20
1.039615233630444
 10
1.362244842205506
 20
1.072427462673923
  0
LINE
  5
A9131
330
A91A6
100
AcDbEntity
  8
TEXT
100
AcDbLine
 10
1.488280464628569
 20
1.15665752507026
 30
0.0
 11
1.488280464628569
 21
1.023900150244904
 31
0.0
  0
ARC
  5
A9132
330
A91A6
100
AcDbEntity
  8
TEXT
100
AcDbCircle
 10
1.571578400950742
 20
1.053339440529507
 30
0.0
 40
0.0153818062434269
100
AcDbArc
 50
174.7883570302258
 51
270.0
  0
LWPOLYLINE
  5
A9133
330
A91A6
100
AcDbEntity
  8
TEXT
100
AcDbPolyline
 90
        2
 70
     0
 43
0.0
 10
1.488280464628567
 20
1.023900150244907
 42
0.3318488747599744
 10
1.55739975719388
 20
0.9723488080299794
 42
-6.868794160588311
  0
LINE
  5
A9137
330
A91A6
100
AcDbEntity
  8
TEXT
100
AcDbLine
 10
1.712792159882576
 20
0.9723488080299794
 30
0.0
 11
1.779850206664416
 21
0.9723488080299794
 31
0.0
  0
LINE
  5
A9138
330
A91A6
100
AcDbEntity
  8
TEXT
100
AcDbLine
 10
1.712792159882576
 20
1.166991357195615
 30
0.0
 11
1.712792159882576
 21
0.9723488080299794
 31
0.0
  0
LINE
  5
A9139
330
A91A6
100
AcDbEntity
  8
TEXT
100
AcDbLine
 10
1.655403090893315
 20
1.174545146361725
 30
0.0
 11
1.705238370716462
 21
1.174545146361725
 31
0.0
  0
LINE
  5
A913A
330
A91A6
100
AcDbEntity
  8
TEXT
100
AcDbLine
 10
1.655403090893315
 20
0.9723488080299794
 30
0.0
 11
1.655403090893315
 21
1.174545146361725
 31
0.0
  0
LWPOLYLINE
  5
A913B
330
A91A6
100
AcDbEntity
  8
TEXT
100
AcDbPolyline
 90
        2
 70
     0
 43
0.0
 10
1.705238370716461
 20
1.174545146361725
 42
-0.4142135623731017
 10
1.712792159882574
 20
1.166991357195615
 42
-0.9999999999999998
  0
LINE
  5
A913F
330
A91A6
100
AcDbEntity
  8
TEXT
100
AcDbLine
 10
1.911048371494146
 20
1.174545146361725
 30
0.0
 11
1.911048371494146
 21
1.099492740287518
 31
0.0
  0
LINE
  5
A9140
330
A91A6
100
AcDbEntity
  8
TEXT
100
AcDbLine
 10
1.779850206664416
 20
1.174545146361725
 30
0.0
 11
1.833983803585366
 21
1.174545146361725
 31
0.0
  0
LINE
  5
A9141
330
A91A6
100
AcDbEntity
  8
TEXT
100
AcDbLine
 10
1.779850206664416
 20
0.9723488080299794
 30
0.0
 11
1.779850206664416
 21
1.174545146361725
 31
0.0
  0
LWPOLYLINE
  5
A9142
330
A91A6
100
AcDbEntity
  8
TEXT
100
AcDbPolyline
 90
        2
 70
     0
 43
0.0
 10
1.833983803585364
 20
1.174545146361725
 42
-0.4142135623731017
 10
1.841537592751478
 20
1.166991357195615
 42
-0.9999999999999998
  0
LWPOLYLINE
  5
A9146
330
A91A6
100
AcDbEntity
  8
TEXT
100
AcDbPolyline
 90
        4
 70
     0
 43
0.0
 10
1.841537592751478
 20
1.166991357195615
 10
1.841537592751478
 20
0.9723488080299794
 10
1.910015876039336
 20
0.9723488080299794
 10
1.910015876039336
 20
1.015839752980417
 42
-1.714843617202739
  0
LINE
  5
A914C
330
A91A6
100
AcDbEntity
  8
TEXT
100
AcDbLine
 10
1.270151708356233
 20
1.23882184101849
 30
0.0
 11
1.270151708356233
 21
1.273209758612628
 31
0.0
  0
LINE
  5
A914D
330
A91A6
100
AcDbEntity
  8
TEXT
100
AcDbLine
 10
1.341950674500141
 20
1.23882184101849
 30
0.0
 11
1.270151708356233
 21
1.23882184101849
 31
0.0
  0
LINE
  5
A914E
330
A91A6
100
AcDbEntity
  8
TEXT
100
AcDbLine
 10
1.48945147113132
 20
1.23882184101849
 30
0.0
 11
1.459329558337944
 21
1.23882184101849
 31
0.0
  0
LINE
  5
A914F
330
A91A6
100
AcDbEntity
  8
TEXT
100
AcDbLine
 10
1.48945147113132
 20
1.306833318757301
 30
0.0
 11
1.48945147113132
 21
1.23882184101849
 31
0.0
  0
LINE
  5
A9150
330
A91A6
100
AcDbEntity
  8
TEXT
100
AcDbLine
 10
1.556260183697685
 20
1.306833318757301
 30
0.0
 11
1.48945147113132
 21
1.306833318757301
 31
0.0
  0
LWPOLYLINE
  5
A9151
330
A91A6
100
AcDbEntity
  8
TEXT
100
AcDbPolyline
 90
        3
 70
     0
 43
0.0
 10
1.876671943295688
 20
1.238821841018494
 10
1.758371784479643
 20
1.238821841018494
 10
1.758371784479643
 20
1.211654344257598
 42
-1.960274751411753
  0
LINE
  5
A9156
330
A91A6
100
AcDbEntity
  8
TEXT
100
AcDbLine
 10
1.722590093766482
 20
1.23882184101849
 30
0.0
 11
1.588572037835346
 21
1.23882184101849
 31
0.0
  0
LWPOLYLINE
  5
A9157
330
A91A6
100
AcDbEntity
  8
TEXT
100
AcDbPolyline
 90
        2
 70
     0
 43
0.0
 10
1.722590093766482
 20
1.238821841018494
 42
-0.3328679258950098
 10
1.758371784479643
 20
1.211654344257598
 42
6.772930709997214
  0
LINE
  5
A915B
330
A91A6
100
AcDbEntity
  8
TEXT
100
AcDbLine
 10
1.912453634008855
 20
1.23882184101849
 30
0.0
 11
1.912453634008855
 21
1.210499295248846
 31
0.0
  0
LWPOLYLINE
  5
A915C
330
A91A6
100
AcDbEntity
  8
TEXT
100
AcDbPolyline
 90
        2
 70
     0
 43
0.0
 10
1.876671943295688
 20
1.238821841018494
 42
-0.3277054968067132
 10
1.912453634008853
 20
1.21049929524885
 42
6.667889725900311
  0
LINE
  5
A9160
330
A91A6
100
AcDbEntity
  8
TEXT
100
AcDbLine
 10
2.126245482100955
 20
1.133609862465063
 30
0.0
 11
2.082494710919053
 21
1.215860138461208
 31
0.0
  0
LINE
  5
A9161
330
A91A6
100
AcDbEntity
  8
TEXT
100
AcDbLine
 10
2.126245482100955
 20
1.23882184101849
 30
0.0
 11
2.126245482100955
 21
1.133609862465063
 31
0.0
  0
LINE
  5
A9162
330
A91A6
100
AcDbEntity
  8
TEXT
100
AcDbLine
 10
2.353929221039324
 20
1.162956514606952
 30
0.0
 11
2.353929221039324
 21
1.304286046786091
 31
0.0
  0
LINE
  5
A9163
330
A91A6
100
AcDbEntity
  8
TEXT
100
AcDbLine
 10
2.401027379595308
 20
1.23882184101849
 30
0.0
 11
2.353929221039324
 21
1.162956514606952
 31
0.0
  0
LINE
  5
A9164
330
A91A6
100
AcDbEntity
  8
TEXT
100
AcDbLine
 10
2.411462096359231
 20
1.128928598077516
 30
0.0
 11
2.476019212324936
 21
1.23882184101849
 31
0.0
  0
LINE
  5
A9165
330
A91A6
100
AcDbEntity
  8
TEXT
100
AcDbLine
 10
2.29009422981655
 20
0.9723488080299794
 30
0.0
 11
2.354472414135171
 21
0.9723488080299794
 31
0.0
  0
LWPOLYLINE
  5
A9166
330
A91A6
100
AcDbEntity
  8
TEXT
100
AcDbPolyline
 90
        2
 70
     0
 43
0.0
 10
2.130185159405992
 20
1.015839752980417
 42
-0.2901071551932486
 10
2.087109226538348
 20
0.9723488080299794
 42
-5.328517124445184
  0
ARC
  5
A916A
330
A91A6
100
AcDbEntity
  8
TEXT
100
AcDbCircle
 10
2.018254644881433
 20
1.146185771361727
 30
0.0
 40
0.028359375
100
AcDbArc
 50
25.78218179591245
 51
90.0
  0
LINE
  5
A916B
330
A91A6
100
AcDbEntity
  8
TEXT
100
AcDbLine
 10
2.054055720185556
 20
1.137270172899592
 30
0.0
 11
2.043790959771992
 21
1.158520712472287
 31
0.0
  0
LINE
  5
A916C
330
A91A6
100
AcDbEntity
  8
TEXT
100
AcDbLine
 10
1.971767730402173
 20
1.137270172899592
 30
0.0
 11
2.054055720185556
 21
1.137270172899592
 31
0.0
  0
LWPOLYLINE
  5
A916D
330
A91A6
100
AcDbEntity
  8
TEXT
100
AcDbPolyline
 90
        4
 70
     1
 43
0.0
 10
2.066986761468455
 20
1.075312786014004
 10
1.978326442808597
 20
1.075312786014004
 42
0.9999999999999998
 10
1.978326442808597
 20
1.032914245510144
 10
2.066986761468455
 20
1.032914245510144
 42
1.0
  0
LWPOLYLINE
  5
A9173
330
A91A6
100
AcDbEntity
  8
TEXT
100
AcDbPolyline
 90
        2
 70
     0
 43
0.0
 10
1.953091808906971
 20
0.9723488080299794
 10
2.087109226538348
 20
0.9723488080299794
 42
0.9999999999999998
  0
LINE
  5
A9177
330
A91A6
100
AcDbEntity
  8
TEXT
100
AcDbLine
 10
2.213446248523987
 20
1.174545146361725
 30
0.0
 11
2.290094229816545
 21
1.174545146361725
 31
0.0
  0
LINE
  5
A9178
330
A91A6
100
AcDbEntity
  8
TEXT
100
AcDbLine
 10
2.290094229816545
 20
1.174545146361725
 30
0.0
 11
2.29009422981655
 21
0.9723488080299794
 31
0.0
  0
ARC
  5
A9179
330
A91A6
100
AcDbEntity
  8
TEXT
100
AcDbCircle
 10
2.213446248523986
 20
1.149639271079062
 30
0.0
 40
0.0249058752826653
100
AcDbArc
 50
89.99971217465335
 51
179.9999999999985
  0
LINE
  5
A917A
330
A91A6
100
AcDbEntity
  8
TEXT
100
AcDbLine
 10
2.188540373241328
 20
0.9723488080299794
 30
0.0
 11
2.188540373241323
 21
1.149639313461447
 31
0.0
  0
LWPOLYLINE
  5
A917B
330
A91A6
100
AcDbEntity
  8
TEXT
100
AcDbPolyline
 90
        2
 70
     0
 43
0.0
 10
2.130185159405992
 20
0.9723488080299794
 10
2.188540373241326
 20
0.9723488080299794
  0
LWPOLYLINE
  5
A917F
330
A91A6
100
AcDbEntity
  8
TEXT
100
AcDbPolyline
 90
        2
 70
     0
 43
0.0
 10
2.130185159405992
 20
1.015839752980417
 10
2.130185159405992
 20
0.9723488080299794
  0
LINE
  5
A9183
330
A91A6
100
AcDbEntity
  8
TEXT
100
AcDbLine
 10
2.506954319722841
 20
0.9723488080299794
 30
0.0
 11
2.411462096359231
 21
1.128928598077516
 31
0.0
  0
LINE
  5
A9184
330
A91A6
100
AcDbEntity
  8
TEXT
100
AcDbLine
 10
2.430375947346635
 20
0.9723488080299794
 30
0.0
 11
2.506954319722841
 21
0.9723488080299794
 31
0.0
  0
LINE
  5
A9185
330
A91A6
100
AcDbEntity
  8
TEXT
100
AcDbLine
 10
2.354472414135171
 20
1.103928376506159
 30
0.0
 11
2.430375947346635
 21
0.9723488080299794
 31
0.0
  0
LINE
  5
A9186
330
A91A6
100
AcDbEntity
  8
TEXT
100
AcDbLine
 10
2.354472414135171
 20
0.9723488080299794
 30
0.0
 11
2.354472414135171
 21
1.103928376506159
 31
0.0
  0
LINE
  5
A9187
330
A91A6
100
AcDbEntity
  8
TEXT
100
AcDbLine
 10
2.353929221039324
 20
1.304286046786091
 30
0.0
 11
2.28561434249005
 21
1.304286046786091
 31
0.0
  0
ARC
  5
A9188
330
A91A6
100
AcDbEntity
  8
TEXT
100
AcDbCircle
 10
2.045258603448844
 20
1.197238273897588
 30
0.0
 40
0.0416329381542859
100
AcDbArc
 50
26.56974201007528
 51
87.20939649401342
  0
LINE
  5
A9189
330
A91A6
100
AcDbEntity
  8
TEXT
100
AcDbLine
 10
2.190142388400456
 20
1.23882184101849
 30
0.0
 11
2.126245482100955
 21
1.23882184101849
 31
0.0
  0
LINE
  5
A918A
330
A91A6
100
AcDbEntity
  8
TEXT
100
AcDbLine
 10
2.190142388400456
 20
1.211274191157615
 30
0.0
 11
2.190142388400456
 21
1.23882184101849
 31
0.0
  0
ARC
  5
A918B
330
A91A6
100
AcDbEntity
  8
TEXT
100
AcDbCircle
 10
2.221335205463563
 20
1.207576113736225
 30
0.0
 40
0.0314112657011332
100
AcDbArc
 50
95.88484768694724
 51
173.2388340632136
  0
LINE
  5
A918C
330
A91A6
100
AcDbEntity
  8
TEXT
100
AcDbLine
 10
2.285614342490045
 20
1.23882184101849
 30
0.0
 11
2.218114624840529
 21
1.23882184101849
 31
0.0
  0
LINE
  5
A918D
330
A91A6
100
AcDbEntity
  8
TEXT
100
AcDbLine
 10
2.28561434249005
 20
1.304286046786091
 30
0.0
 11
2.285614342490045
 21
1.23882184101849
 31
0.0
  0
LINE
  5
A918E
330
A91A6
100
AcDbEntity
  8
TEXT
100
AcDbLine
 10
2.476019212324936
 20
1.23882184101849
 30
0.0
 11
2.40102737959531
 21
1.23882184101849
 31
0.0
  0
ENDSEC
  0
SECTION
  2
OBJECTS
  0
DICTIONARY
  5
A919A
330
0
100
AcDbDictionary
  3
ACAD_GROUP
350
A919B
  3
ACAD_LAYOUT
350
A91C0
  3
ACAD_MLINESTYLE
350
A919C
  3
ACAD_PLOTSETTINGS
350
A91C1
  3
ACAD_PLOTSTYLENAME
350
A91BE
  3
ACDBHEADERROUNDTRIPXREC
350
A91CB
  3
ACDBVARIABLEDICTIONARY
350
A91C8
  0
DICTIONARY
  5
A91ED
330
A91A6
100
AcDbDictionary
280
     1
  3
ACAD_LAYOUTSELFREF
360
A91EE
  0
DICTIONARY
  5
A91EB
330
A91A3
100
AcDbDictionary
280
     1
  3
ACAD_LAYOUTSELFREF
360
A91EC
  0
DICTIONARY
  5
A919B
102
{ACAD_REACTORS
330
A919A
102
}
330
A919A
100
AcDbDictionary
  0
DICTIONARY
  5
A91C0
102
{ACAD_REACTORS
330
A919A
102
}
330
A919A
100
AcDbDictionary
  0
DICTIONARY
  5
A919C
102
{ACAD_REACTORS
330
A919A
102
}
330
A919A
100
AcDbDictionary
  3
STANDARD
350
A91A9
  0
DICTIONARY
  5
A91C1
102
{ACAD_REACTORS
330
A919A
102
}
330
A919A
100
AcDbDictionary
  0
ACDBDICTIONARYWDFLT
  5
A91BE
102
{ACAD_REACTORS
330
A919A
102
}
330
A919A
100
AcDbDictionary
281
     1
  3
Normal
350
A91BF
100
AcDbDictionaryWithDefault
340
A91BF
  0
DICTIONARY
  5
A91CB
102
{ACAD_REACTORS
330
A919A
102
}
330
A919A
100
AcDbDictionary
  3
CEPSNTYPE
350
A91D5
  3
FINGERPRINTGUID
350
A91D6
  3
HYPERLINKBASE
350
A91CE
  3
INSUNITS
350
A91D4
  3
LAYOUTDICT
350
A91D0
  3
LWETCUNION
350
A91D3
  3
PLOTSETDICT
350
A91D1
  3
PLOTSTYLNAMDICT
350
A91D2
  3
PSVPSCALE
350
A91D8
  3
PUCSBASE
350
A91DB
  3
PUCSORGBACK
350
A91E1
  3
PUCSORGBOTTOM
350
A91DD
  3
PUCSORGFRONT
350
A91E0
  3
PUCSORGLEFT
350
A91DE
  3
PUCSORGRIGHT
350
A91DF
  3
PUCSORGTOP
350
A91DC
  3
PUCSORTHOREF
350
A91D9
  3
PUCSORTHOVIEW
350
A91DA
  3
STYLESHEET
350
A91CF
  3
TSTACKALIGN
350
A91CC
  3
TSTACKSIZE
350
A91CD
  3
UCSBASE
350
A91E4
  3
UCSORGBACK
350
A91EA
  3
UCSORGBOTTOM
350
A91E6
  3
UCSORGFRONT
350
A91E9
  3
UCSORGLEFT
350
A91E7
  3
UCSORGRIGHT
350
A91E8
  3
UCSORGTOP
350
A91E5
  3
UCSORTHOREF
350
A91E2
  3
UCSORTHOVIEW
350
A91E3
  3
VERSIONGUID
350
A91D7
  0
DICTIONARY
  5
A91C8
102
{ACAD_REACTORS
330
A919A
102
}
330
A919A
100
AcDbDictionary
  3
DIMASSOC
350
A91C9
  0
XRECORD
  5
A91EE
102
{ACAD_REACTORS
330
A91ED
102
}
330
A91ED
100
AcDbXrecord
340
A91A6
  0
XRECORD
  5
A91EC
102
{ACAD_REACTORS
330
A91EB
102
}
330
A91EB
100
AcDbXrecord
340
A91A3
  0
MLINESTYLE
  5
A91A9
102
{ACAD_REACTORS
330
A919C
102
}
330
A919C
100
AcDbMlineStyle
  2
STANDARD
 70
     0
  3

 62
     0
 51
90.0
 52
90.0
 71
     2
 49
0.5
 62
   256
  6
BYLAYER
 49
-0.5
 62
   256
  6
BYLAYER
  0
ACDBPLACEHOLDER
  5
A91BF
102
{ACAD_REACTORS
330
A91BE
102
}
330
A91BE
100
AcDbPlaceHolder
280
     0
  0
XRECORD
  5
A91D5
102
{ACAD_REACTORS
330
A91CB
102
}
330
A91CB
100
AcDbXrecord
 90
        0
  0
XRECORD
  5
A91D6
102
{ACAD_REACTORS
330
A91CB
102
}
330
A91CB
100
AcDbXrecord
  1
{61555670-8DB3-11D6-88E6-0090279574E7}
  0
XRECORD
  5
A91CE
102
{ACAD_REACTORS
330
A91CB
102
}
330
A91CB
100
AcDbXrecord
  1

  0
XRECORD
  5
A91D4
102
{ACAD_REACTORS
330
A91CB
102
}
330
A91CB
100
AcDbXrecord
 90
        0
  0
XRECORD
  5
A91D0
102
{ACAD_REACTORS
330
A91CB
102
}
330
A91CB
100
AcDbXrecord
340
A91C0
  0
XRECORD
  5
A91D3
102
{ACAD_REACTORS
330
A91CB
102
}
330
A91CB
100
AcDbXrecord
 90
    14877
  0
XRECORD
  5
A91D1
102
{ACAD_REACTORS
330
A91CB
102
}
330
A91CB
100
AcDbXrecord
340
A91C1
  0
XRECORD
  5
A91D2
102
{ACAD_REACTORS
330
A91CB
102
}
330
A91CB
100
AcDbXrecord
340
A91BE
  0
XRECORD
  5
A91D8
102
{ACAD_REACTORS
330
A91CB
102
}
330
A91CB
100
AcDbXrecord
 40
0.0
  0
XRECORD
  5
A91DB
102
{ACAD_REACTORS
330
A91CB
102
}
330
A91CB
100
AcDbXrecord
340
0
  0
XRECORD
  5
A91E1
102
{ACAD_REACTORS
330
A91CB
102
}
330
A91CB
100
AcDbXrecord
 10
0.0
 20
0.0
 30
0.0
  0
XRECORD
  5
A91DD
102
{ACAD_REACTORS
330
A91CB
102
}
330
A91CB
100
AcDbXrecord
 10
0.0
 20
0.0
 30
0.0
  0
XRECORD
  5
A91E0
102
{ACAD_REACTORS
330
A91CB
102
}
330
A91CB
100
AcDbXrecord
 10
0.0
 20
0.0
 30
0.0
  0
XRECORD
  5
A91DE
102
{ACAD_REACTORS
330
A91CB
102
}
330
A91CB
100
AcDbXrecord
 10
0.0
 20
0.0
 30
0.0
  0
XRECORD
  5
A91DF
102
{ACAD_REACTORS
330
A91CB
102
}
330
A91CB
100
AcDbXrecord
 10
0.0
 20
0.0
 30
0.0
  0
XRECORD
  5
A91DC
102
{ACAD_REACTORS
330
A91CB
102
}
330
A91CB
100
AcDbXrecord
 10
0.0
 20
0.0
 30
0.0
  0
XRECORD
  5
A91D9
102
{ACAD_REACTORS
330
A91CB
102
}
330
A91CB
100
AcDbXrecord
340
0
  0
XRECORD
  5
A91DA
102
{ACAD_REACTORS
330
A91CB
102
}
330
A91CB
100
AcDbXrecord
 70
     0
  0
XRECORD
  5
A91CF
102
{ACAD_REACTORS
330
A91CB
102
}
330
A91CB
100
AcDbXrecord
  1

  0
XRECORD
  5
A91CC
102
{ACAD_REACTORS
330
A91CB
102
}
330
A91CB
100
AcDbXrecord
 90
        1
  0
XRECORD
  5
A91CD
102
{ACAD_REACTORS
330
A91CB
102
}
330
A91CB
100
AcDbXrecord
 90
       70
  0
XRECORD
  5
A91E4
102
{ACAD_REACTORS
330
A91CB
102
}
330
A91CB
100
AcDbXrecord
340
0
  0
XRECORD
  5
A91EA
102
{ACAD_REACTORS
330
A91CB
102
}
330
A91CB
100
AcDbXrecord
 10
0.0
 20
0.0
 30
0.0
  0
XRECORD
  5
A91E6
102
{ACAD_REACTORS
330
A91CB
102
}
330
A91CB
100
AcDbXrecord
 10
0.0
 20
0.0
 30
0.0
  0
XRECORD
  5
A91E9
102
{ACAD_REACTORS
330
A91CB
102
}
330
A91CB
100
AcDbXrecord
 10
0.0
 20
0.0
 30
0.0
  0
XRECORD
  5
A91E7
102
{ACAD_REACTORS
330
A91CB
102
}
330
A91CB
100
AcDbXrecord
 10
0.0
 20
0.0
 30
0.0
  0
XRECORD
  5
A91E8
102
{ACAD_REACTORS
330
A91CB
102
}
330
A91CB
100
AcDbXrecord
 10
0.0
 20
0.0
 30
0.0
  0
XRECORD
  5
A91E5
102
{ACAD_REACTORS
330
A91CB
102
}
330
A91CB
100
AcDbXrecord
 10
0.0
 20
0.0
 30
0.0
  0
XRECORD
  5
A91E2
102
{ACAD_REACTORS
330
A91CB
102
}
330
A91CB
100
AcDbXrecord
340
0
  0
XRECORD
  5
A91E3
102
{ACAD_REACTORS
330
A91CB
102
}
330
A91CB
100
AcDbXrecord
 70
     0
  0
XRECORD
  5
A91D7
102
{ACAD_REACTORS
330
A91CB
102
}
330
A91CB
100
AcDbXrecord
  1
{61555672-8DB3-11D6-88E6-0090279574E7}
  0
DICTIONARYVAR
  5
A91C9
102
{ACAD_REACTORS
330
A91C8
102
}
330
A91C8
100
DictionaryVariables
280
     0
  1
1
  0
ENDSEC
  0
EOF
